  0
SECTION
  2
HEADER
  9
$ACADVER
  1
AC1015
  9
$ACADMAINTVER
 70
     6
  9
$DWGCODEPAGE
  3
ANSI_1252
  9
$INSBASE
 10
-8.053943867091364
 20
0.0
 30
0.0000000000000006
  9
$EXTMIN
 10
-0.0000000216829061
 20
-9.014866294703786
 30
0.0
  9
$EXTMAX
 10
7.939999978317097
 20
12.01982172627172
 30
10.44
  9
$LIMMIN
 10
0.0
 20
0.0
  9
$LIMMAX
 10
12.0
 20
9.0
  9
$ORTHOMODE
 70
     1
  9
$REGENMODE
 70
     1
  9
$FILLMODE
 70
     1
  9
$QTEXTMODE
 70
     0
  9
$MIRRTEXT
 70
     1
  9
$LTSCALE
 40
1.0
  9
$ATTMODE
 70
     1
  9
$TEXTSIZE
 40
0.35
  9
$TRACEWID
 40
0.05
  9
$TEXTSTYLE
  7
Standard
  9
$CLAYER
  8
0
  9
$CELTYPE
  6
ByLayer
  9
$CECOLOR
 62
   256
  9
$CELTSCALE
 40
1.0
  9
$DISPSILH
 70
     0
  9
$DIMSCALE
 40
1.0
  9
$DIMASZ
 40
0.09
  9
$DIMEXO
 40
0.0625
  9
$DIMDLI
 40
0.38
  9
$DIMRND
 40
0.0
  9
$DIMDLE
 40
0.0
  9
$DIMEXE
 40
0.18
  9
$DIMTP
 40
0.0
  9
$DIMTM
 40
0.0
  9
$DIMTXT
 40
0.18
  9
$DIMCEN
 40
0.09
  9
$DIMTSZ
 40
0.0
  9
$DIMTOL
 70
     0
  9
$DIMLIM
 70
     0
  9
$DIMTIH
 70
     1
  9
$DIMTOH
 70
     1
  9
$DIMSE1
 70
     0
  9
$DIMSE2
 70
     0
  9
$DIMTAD
 70
     0
  9
$DIMZIN
 70
     0
  9
$DIMBLK
  1

  9
$DIMASO
 70
     1
  9
$DIMSHO
 70
     1
  9
$DIMPOST
  1

  9
$DIMAPOST
  1

  9
$DIMALT
 70
     0
  9
$DIMALTD
 70
     2
  9
$DIMALTF
 40
25.4
  9
$DIMLFAC
 40
1.0
  9
$DIMTOFL
 70
     0
  9
$DIMTVP
 40
0.0
  9
$DIMTIX
 70
     0
  9
$DIMSOXD
 70
     0
  9
$DIMSAH
 70
     0
  9
$DIMBLK1
  1

  9
$DIMBLK2
  1

  9
$DIMSTYLE
  2
Standard
  9
$DIMCLRD
 70
     0
  9
$DIMCLRE
 70
     0
  9
$DIMCLRT
 70
     0
  9
$DIMTFAC
 40
0.25
  9
$DIMGAP
 40
0.09
  9
$DIMJUST
 70
     0
  9
$DIMSD1
 70
     0
  9
$DIMSD2
 70
     0
  9
$DIMTOLJ
 70
     1
  9
$DIMTZIN
 70
     0
  9
$DIMALTZ
 70
     0
  9
$DIMALTTZ
 70
     0
  9
$DIMUPT
 70
     0
  9
$DIMDEC
 70
     2
  9
$DIMTDEC
 70
     2
  9
$DIMALTU
 70
     2
  9
$DIMALTTD
 70
     2
  9
$DIMTXSTY
  7
Standard
  9
$DIMAUNIT
 70
     0
  9
$DIMADEC
 70
     0
  9
$DIMALTRND
 40
0.0
  9
$DIMAZIN
 70
     0
  9
$DIMDSEP
 70
    46
  9
$DIMATFIT
 70
     3
  9
$DIMFRAC
 70
     0
  9
$DIMLDRBLK
  1

  9
$DIMLUNIT
 70
     2
  9
$DIMLWD
 70
    -2
  9
$DIMLWE
 70
    -2
  9
$DIMTMOVE
 70
     0
  9
$LUNITS
 70
     2
  9
$LUPREC
 70
     4
  9
$SKETCHINC
 40
0.1
  9
$FILLETRAD
 40
0.02
  9
$AUNITS
 70
     0
  9
$AUPREC
 70
     0
  9
$MENU
  1
.
  9
$ELEVATION
 40
0.0000000218863399
  9
$PELEVATION
 40
0.0
  9
$THICKNESS
 40
0.0
  9
$LIMCHECK
 70
     0
  9
$CHAMFERA
 40
0.5
  9
$CHAMFERB
 40
0.5
  9
$CHAMFERC
 40
1.0
  9
$CHAMFERD
 40
0.0
  9
$SKPOLY
 70
     0
  9
$TDCREATE
 40
2453353.383792488
  9
$TDUCREATE
 40
2453353.717125822
  9
$TDUPDATE
 40
2454922.609675417
  9
$TDUUPDATE
 40
2454922.94300875
  9
$TDINDWG
 40
16.1061690278
  9
$TDUSRTIMER
 40
16.1061574653
  9
$USRTIMER
 70
     1
  9
$ANGBASE
 50
0.0
  9
$ANGDIR
 70
     0
  9
$PDMODE
 70
     0
  9
$PDSIZE
 40
0.0
  9
$PLINEWID
 40
0.0
  9
$SPLFRAME
 70
     0
  9
$SPLINETYPE
 70
     6
  9
$SPLINESEGS
 70
     8
  9
$HANDSEED
  5
176C
  9
$SURFTAB1
 70
     6
  9
$SURFTAB2
 70
     6
  9
$SURFTYPE
 70
     6
  9
$SURFU
 70
     6
  9
$SURFV
 70
     6
  9
$UCSBASE
  2

  9
$UCSNAME
  2

  9
$UCSORG
 10
2.013485966772841
 20
0.0000000072954466
 30
9.760396453725585
  9
$UCSXDIR
 10
1.0
 20
0.0
 30
0.0
  9
$UCSYDIR
 10
0.0
 20
0.0
 30
1.0
  9
$UCSORTHOREF
  2

  9
$UCSORTHOVIEW
 70
     0
  9
$UCSORGTOP
 10
0.0
 20
0.0
 30
0.0
  9
$UCSORGBOTTOM
 10
0.0
 20
0.0
 30
0.0
  9
$UCSORGLEFT
 10
0.0
 20
0.0
 30
0.0
  9
$UCSORGRIGHT
 10
0.0
 20
0.0
 30
0.0
  9
$UCSORGFRONT
 10
0.0
 20
0.0
 30
0.0
  9
$UCSORGBACK
 10
0.0
 20
0.0
 30
0.0
  9
$PUCSBASE
  2

  9
$PUCSNAME
  2

  9
$PUCSORG
 10
0.0
 20
0.0
 30
0.0
  9
$PUCSXDIR
 10
1.0
 20
0.0
 30
0.0
  9
$PUCSYDIR
 10
0.0
 20
1.0
 30
0.0
  9
$PUCSORTHOREF
  2

  9
$PUCSORTHOVIEW
 70
     0
  9
$PUCSORGTOP
 10
0.0
 20
0.0
 30
0.0
  9
$PUCSORGBOTTOM
 10
0.0
 20
0.0
 30
0.0
  9
$PUCSORGLEFT
 10
0.0
 20
0.0
 30
0.0
  9
$PUCSORGRIGHT
 10
0.0
 20
0.0
 30
0.0
  9
$PUCSORGFRONT
 10
0.0
 20
0.0
 30
0.0
  9
$PUCSORGBACK
 10
0.0
 20
0.0
 30
0.0
  9
$USERI1
 70
     0
  9
$USERI2
 70
     0
  9
$USERI3
 70
     0
  9
$USERI4
 70
     0
  9
$USERI5
 70
     0
  9
$USERR1
 40
0.0
  9
$USERR2
 40
0.0
  9
$USERR3
 40
0.0
  9
$USERR4
 40
0.0
  9
$USERR5
 40
0.0
  9
$WORLDVIEW
 70
     1
  9
$SHADEDGE
 70
     3
  9
$SHADEDIF
 70
    70
  9
$TILEMODE
 70
     1
  9
$MAXACTVP
 70
    48
  9
$PINSBASE
 10
0.0
 20
0.0
 30
0.0
  9
$PLIMCHECK
 70
     0
  9
$PEXTMIN
 10
1.000000000000000E+20
 20
1.000000000000000E+20
 30
1.000000000000000E+20
  9
$PEXTMAX
 10
-1.000000000000000E+20
 20
-1.000000000000000E+20
 30
-1.000000000000000E+20
  9
$PLIMMIN
 10
0.0
 20
0.0
  9
$PLIMMAX
 10
12.0
 20
9.0
  9
$UNITMODE
 70
     0
  9
$VISRETAIN
 70
     1
  9
$PLINEGEN
 70
     0
  9
$PSLTSCALE
 70
     1
  9
$TREEDEPTH
 70
  3020
  9
$CMLSTYLE
  2
Standard
  9
$CMLJUST
 70
     0
  9
$CMLSCALE
 40
1.0
  9
$PROXYGRAPHICS
 70
     1
  9
$MEASUREMENT
 70
     0
  9
$CELWEIGHT
370
    -1
  9
$ENDCAPS
280
     0
  9
$JOINSTYLE
280
     0
  9
$LWDISPLAY
290
     0
  9
$INSUNITS
 70
     0
  9
$HYPERLINKBASE
  1

  9
$STYLESHEET
  1

  9
$XEDIT
290
     0
  9
$CEPSNTYPE
380
     0
  9
$PSTYLEMODE
290
     1
  9
$FINGERPRINTGUID
  2
{09EC6D80-F6D6-11D3-86B9-A2855DFC3C3B}
  9
$VERSIONGUID
  2
{438A1E0D-7267-4EC3-ADC9-CC0760F79F4A}
  9
$EXTNAMES
290
     1
  9
$PSVPSCALE
 40
0.0
  9
$OLESTARTUP
290
     0
  0
ENDSEC
  0
SECTION
  2
CLASSES
  0
CLASS
  1
ACDBDICTIONARYWDFLT
  2
AcDbDictionaryWithDefault
  3
ObjectDBX Classes
 90
        0
280
     0
281
     0
  0
CLASS
  1
ACDBPLACEHOLDER
  2
AcDbPlaceHolder
  3
ObjectDBX Classes
 90
        0
280
     0
281
     0
  0
CLASS
  1
LAYOUT
  2
AcDbLayout
  3
ObjectDBX Classes
 90
        0
280
     0
281
     0
  0
CLASS
  1
DICTIONARYVAR
  2
AcDbDictionaryVar
  3
ObjectDBX Classes
 90
        0
280
     0
281
     0
  0
CLASS
  1
TABLESTYLE
  2
AcDbTableStyle
  3
ObjectDBX Classes
 90
     4095
280
     0
281
     0
  0
CLASS
  1
SCALE
  2
AcDbScale
  3
ObjectDBX Classes
 90
     1153
280
     0
281
     0
  0
CLASS
  1
WIPEOUTVARIABLES
  2
AcDbWipeoutVariables
  3
WipeOut|AutoCAD Express Tool|expresstools@autodesk.com
 90
        0
280
     0
281
     0
  0
ENDSEC
  0
SECTION
  2
TABLES
  0
TABLE
  2
VPORT
  5
8
330
0
100
AcDbSymbolTable
 70
     2
  0
VPORT
  5
97
330
8
100
AcDbSymbolTableRecord
100
AcDbViewportTableRecord
  2
*Active
 70
     0
 10
0.0
 20
0.0
 11
1.0
 21
1.0
 12
3.969999978317095
 22
5.22
 13
0.0
 23
0.0
 14
0.5
 24
0.5
 15
0.5
 25
0.5
 16
0.0
 26
-1.0
 36
0.0
 17
0.0
 27
0.0
 37
0.0
 40
10.6488
 41
1.704119850187266
 42
50.0
 43
0.0
 44
0.0
 50
0.0
 51
0.0
 71
    16
 72
   100
 73
     1
 74
     0
 75
     0
 76
     0
 77
     0
 78
     0
281
     0
 65
     0
110
0.0
120
0.0
130
0.0
111
1.0
121
0.0
131
0.0
112
0.0
122
1.0
132
0.0
 79
     0
146
0.0
  0
ENDTAB
  0
TABLE
  2
LTYPE
  5
5
330
0
100
AcDbSymbolTable
 70
     1
  0
LTYPE
  5
14
330
5
100
AcDbSymbolTableRecord
100
AcDbLinetypeTableRecord
  2
ByBlock
 70
     0
  3

 72
    65
 73
     0
 40
0.0
  0
LTYPE
  5
15
330
5
100
AcDbSymbolTableRecord
100
AcDbLinetypeTableRecord
  2
ByLayer
 70
     0
  3

 72
    65
 73
     0
 40
0.0
  0
LTYPE
  5
16
330
5
100
AcDbSymbolTableRecord
100
AcDbLinetypeTableRecord
  2
Continuous
 70
     0
  3
Solid line
 72
    65
 73
     0
 40
0.0
  0
ENDTAB
  0
TABLE
  2
LAYER
  5
2
330
0
100
AcDbSymbolTable
 70
     5
  0
LAYER
  5
10
330
2
100
AcDbSymbolTableRecord
100
AcDbLayerTableRecord
  2
0
 70
     0
 62
     7
  6
Continuous
370
    -3
390
F
  0
LAYER
  5
31
330
2
100
AcDbSymbolTableRecord
100
AcDbLayerTableRecord
  2
AME_FRZ
 70
     0
 62
     7
  6
Continuous
370
    -3
390
F
  0
LAYER
  5
2E1
330
2
100
AcDbSymbolTableRecord
100
AcDbLayerTableRecord
  2
DEFPOINTS
 70
     0
 62
     7
  6
Continuous
290
     0
370
    -3
390
F
  0
LAYER
  5
F8C
330
2
100
AcDbSymbolTableRecord
100
AcDbLayerTableRecord
  2
LOGO
 70
     0
 62
     3
  6
Continuous
370
    -3
390
F
  0
LAYER
  5
16BA
330
2
100
AcDbSymbolTableRecord
100
AcDbLayerTableRecord
  2
DET-IMAGE
 70
     0
 62
     5
  6
Continuous
370
    -3
390
F
  0
ENDTAB
  0
TABLE
  2
STYLE
  5
3
330
0
100
AcDbSymbolTable
 70
     1
  0
STYLE
  5
11
330
3
100
AcDbSymbolTableRecord
100
AcDbTextStyleTableRecord
  2
Standard
 70
     0
 40
0.0
 41
1.0
 50
0.0
 71
     0
 42
0.0668950827358694
  3
TXT.SHX
  4

  0
ENDTAB
  0
TABLE
  2
VIEW
  5
6
330
0
100
AcDbSymbolTable
 70
     0
  0
ENDTAB
  0
TABLE
  2
UCS
  5
7
330
0
100
AcDbSymbolTable
 70
     0
  0
ENDTAB
  0
TABLE
  2
APPID
  5
9
330
0
100
AcDbSymbolTable
 70
     2
  0
APPID
  5
12
330
9
100
AcDbSymbolTableRecord
100
AcDbRegAppTableRecord
  2
ACAD
 70
     0
  0
APPID
  5
174F
330
9
100
AcDbSymbolTableRecord
100
AcDbRegAppTableRecord
  2
DCO15
 70
     0
  0
ENDTAB
  0
TABLE
  2
DIMSTYLE
  5
A
330
0
100
AcDbSymbolTable
 70
     2
100
AcDbDimStyleTable
  0
DIMSTYLE
105
27
330
A
100
AcDbSymbolTableRecord
100
AcDbDimStyleTableRecord
  2
Standard
 70
     0
340
11
  0
DIMSTYLE
105
32
330
A
100
AcDbSymbolTableRecord
100
AcDbDimStyleTableRecord
  2
TOP12
 70
     0
271
     2
272
     2
273
     5
277
     5
279
     2
340
11
  0
ENDTAB
  0
TABLE
  2
BLOCK_RECORD
  5
1
330
0
100
AcDbSymbolTable
 70
    11
  0
BLOCK_RECORD
  5
1F
102
{ACAD_XDICTIONARY
360
1767
102
}
330
1
100
AcDbSymbolTableRecord
100
AcDbBlockTableRecord
  2
*Model_Space
340
22
  0
BLOCK_RECORD
  5
73
330
1
100
AcDbSymbolTableRecord
100
AcDbBlockTableRecord
  2
*Paper_Space
340
74
  0
BLOCK_RECORD
  5
164D
330
1
100
AcDbSymbolTableRecord
100
AcDbBlockTableRecord
  2
A$C149605FD
340
0
102
{BLKREFS
331
29
102
}
  0
BLOCK_RECORD
  5
28
330
1
100
AcDbSymbolTableRecord
100
AcDbBlockTableRecord
  2
A$C55D13F06
340
0
102
{BLKREFS
331
2D
102
}
  0
BLOCK_RECORD
  5
2C
330
1
100
AcDbSymbolTableRecord
100
AcDbBlockTableRecord
  2
A$C312B0BB1
340
0
  0
BLOCK_RECORD
  5
33
330
1
100
AcDbSymbolTableRecord
100
AcDbBlockTableRecord
  2
A$C79A550F1
340
0
  0
BLOCK_RECORD
  5
33D
330
1
100
AcDbSymbolTableRecord
100
AcDbBlockTableRecord
  2
A$C73102F95
340
0
  0
BLOCK_RECORD
  5
4C6
330
1
100
AcDbSymbolTableRecord
100
AcDbBlockTableRecord
  2
A$C2E7D3BBB
340
0
  0
BLOCK_RECORD
  5
925
330
1
100
AcDbSymbolTableRecord
100
AcDbBlockTableRecord
  2
A$C027A6829
340
0
  0
BLOCK_RECORD
  5
944
330
1
100
AcDbSymbolTableRecord
100
AcDbBlockTableRecord
  2
A$C79F71D6E
340
0
  0
BLOCK_RECORD
  5
DA6
330
1
100
AcDbSymbolTableRecord
100
AcDbBlockTableRecord
  2
A$C7B224919
340
0
  0
BLOCK_RECORD
  5
F8D
330
1
100
AcDbSymbolTableRecord
100
AcDbBlockTableRecord
  2
A$C3FF5331E
340
0
  0
BLOCK_RECORD
  5
114D
330
1
100
AcDbSymbolTableRecord
100
AcDbBlockTableRecord
  2
A$C6F081CB3
340
0
  0
ENDTAB
  0
ENDSEC
  0
SECTION
  2
BLOCKS
  0
BLOCK
  5
20
330
1F
100
AcDbEntity
  8
0
100
AcDbBlockBegin
  2
*Model_Space
 70
     0
 10
0.0
 20
0.0
 30
0.0
  3
*Model_Space
  1

  0
ENDBLK
  5
21
330
1F
100
AcDbEntity
  8
0
100
AcDbBlockEnd
  0
BLOCK
  5
75
330
73
100
AcDbEntity
 67
     1
  8
0
100
AcDbBlockBegin
  2
*Paper_Space
 70
     0
 10
0.0
 20
0.0
 30
0.0
  3
*Paper_Space
  1

  0
ENDBLK
  5
76
330
73
100
AcDbEntity
 67
     1
  8
0
100
AcDbBlockEnd
  0
BLOCK
  5
1751
330
164D
100
AcDbEntity
  8
0
100
AcDbBlockBegin
  2
A$C149605FD
 70
     0
 10
0.0
 20
0.0
 30
0.0
  3
A$C149605FD
  1

  0
LINE
  5
1664
330
164D
100
AcDbEntity
  8
0
100
AcDbLine
 10
0.0000000188713258
 20
5.219999994384193
 30
0.0
 11
7.940000018871325
 21
5.219999994384193
 31
0.0
  0
LINE
  5
1665
330
164D
100
AcDbEntity
  8
0
100
AcDbLine
 10
7.940000018871326
 20
10.43999999438419
 30
0.0
 11
7.940000018871326
 21
-0.0000000056158065
 31
0.0
  0
LINE
  5
23
330
164D
100
AcDbEntity
  8
0
100
AcDbLine
 10
0.0000000188713258
 20
-0.0000000056158065
 30
0.0
 11
0.0000000188713258
 21
10.43999999438419
 31
0.0
  0
LINE
  5
24
330
164D
100
AcDbEntity
  8
0
100
AcDbLine
 10
7.940000018871326
 20
10.43999999438419
 30
0.0
 11
0.0000000188713258
 21
10.43999999438419
 31
0.0
  0
LINE
  5
25
330
164D
100
AcDbEntity
  8
0
100
AcDbLine
 10
0.0000000188713258
 20
-0.0000000056158065
 30
0.0
 11
7.940000018871325
 21
-0.0000000056158065
 31
0.0
  0
ENDBLK
  5
1752
330
164D
100
AcDbEntity
  8
0
100
AcDbBlockEnd
  0
BLOCK
  5
1753
330
28
100
AcDbEntity
  8
0
100
AcDbBlockBegin
  2
A$C55D13F06
 70
     0
 10
0.0
 20
0.0
 30
0.0
  3
A$C55D13F06
  1

  0
INSERT
  5
29
330
28
100
AcDbEntity
  8
0
100
AcDbBlockReference
  2
A$C149605FD
 10
-0.0000000093157864
 20
0.0000000051581264
 30
0.0
  0
ENDBLK
  5
1754
330
28
100
AcDbEntity
  8
0
100
AcDbBlockEnd
  0
BLOCK
  5
1755
330
2C
100
AcDbEntity
  8
0
100
AcDbBlockBegin
  2
A$C312B0BB1
 70
     0
 10
0.0
 20
0.0
 30
0.0
  3
A$C312B0BB1
  1

  0
INSERT
  5
2D
330
2C
100
AcDbEntity
  8
0
100
AcDbBlockReference
  2
A$C55D13F06
 10
-0.0000000312384429
 20
0.0000000077531261
 30
0.0
  0
ENDBLK
  5
1756
330
2C
100
AcDbEntity
  8
0
100
AcDbBlockEnd
  0
BLOCK
  5
1757
330
33
100
AcDbEntity
  8
0
100
AcDbBlockBegin
  2
A$C79A550F1
 70
     0
 10
0.0
 20
0.0
 30
0.0
  3
A$C79A550F1
  1

  0
LINE
  5
34
330
33
100
AcDbEntity
  8
0
100
AcDbLine
 10
0.4824754784046519
 20
0.2381640220933088
 30
0.0
 11
7.241308249071572
 21
0.2381640220933088
 31
0.0
210
0.0
220
0.0
230
-1.0
  0
TEXT
  5
35
330
33
100
AcDbEntity
  8
0
100
AcDbText
 10
-0.5579504531301271
 20
0.268582778805901
 30
0.0
 40
0.1216750375201472
  1
T.O.P. 12 ZONE DRIP HEAD USING 1/8" DISTRIBUTION TUBING
 50
180.0
 71
     4
210
0.0
220
0.0
230
-1.0
100
AcDbText
  0
ARC
  5
36
330
33
100
AcDbEntity
  8
0
100
AcDbCircle
 10
4.347981301325894
 20
3.874005865162648
 30
0.0
 40
0.3409260286106134
100
AcDbArc
 50
191.0952904786444
 51
251.9448871942272
  0
ARC
  5
37
330
33
100
AcDbEntity
  8
0
100
AcDbCircle
 10
4.459824473646902
 20
3.634747035939279
 30
0.0
 40
0.6045639457230795
100
AcDbArc
 50
199.2410066624099
 51
242.4470978318544
  0
ARC
  5
38
330
33
100
AcDbEntity
  8
0
100
AcDbCircle
 10
3.776578337218226
 20
2.949715054405623
 30
0.0
 40
0.4986478401442313
100
AcDbArc
 50
29.05759093983166
 51
76.96682355949227
  0
ARC
  5
39
330
33
100
AcDbEntity
  8
0
100
AcDbCircle
 10
3.995312327593396
 20
3.315663820644934
 30
0.0
 40
0.2531026391074491
100
AcDbArc
 50
12.60198035028445
 51
70.90434066296919
  0
ARC
  5
3A
330
33
100
AcDbEntity
  8
0
100
AcDbCircle
 10
4.309444834527347
 20
3.532384607298672
 30
0.0
 40
0.2324181532054964
100
AcDbArc
 50
174.4558509849269
 51
245.3372799051009
  0
ARC
  5
3B
330
33
100
AcDbEntity
  8
0
100
AcDbCircle
 10
4.056720372412808
 20
3.539615285930136
 30
0.0
 40
0.2722465720965986
100
AcDbArc
 50
47.02145205026711
 51
99.15002363501945
  0
CIRCLE
  5
3C
330
33
100
AcDbEntity
  8
0
100
AcDbCircle
 10
-0.2447157117628205
 20
0.2447157163344587
 30
0.0
 40
0.24471571935028
210
0.0
220
0.0
230
-1.0
  0
TEXT
  5
3D
330
33
100
AcDbEntity
  8
0
100
AcDbText
 10
-0.1508731444503244
 20
0.1079297655265608
 30
0.0
 40
0.2792500509676575
  1
A
 50
180.0
 71
     4
210
0.0
220
0.0
230
-1.0
100
AcDbText
  0
LINE
  5
3E
330
33
100
AcDbEntity
  8
0
100
AcDbLine
 10
0.7344591086796214
 20
1.401908879121319
 30
0.0
 11
1.715654480864255
 21
1.401908879121317
 31
0.0
  0
LINE
  5
3F
330
33
100
AcDbEntity
  8
0
100
AcDbLine
 10
1.715654480864255
 20
1.160037761522744
 30
0.0
 11
0.7344591086796215
 21
1.160037761522745
 31
0.0
  0
LINE
  5
40
330
33
100
AcDbEntity
  8
0
100
AcDbLine
 10
1.516661946275839
 20
2.267584899731489
 30
0.0
 11
1.215225015126292
 21
2.26758489973149
 31
0.0
  0
LINE
  5
41
330
33
100
AcDbEntity
  8
0
100
AcDbLine
 10
1.416398944650831
 20
2.324604010753395
 30
0.0
 11
1.516661946275839
 21
2.324604010753395
 31
0.0
  0
LINE
  5
42
330
33
100
AcDbEntity
  8
0
100
AcDbLine
 10
1.432333881280845
 20
2.324604010753395
 30
0.0
 11
1.215225015126292
 21
2.324604010753399
 31
0.0
  0
ARC
  5
43
330
33
100
AcDbEntity
  8
0
100
AcDbCircle
 10
0.7124459526266179
 20
1.341535849828126
 30
0.0
 40
0.0642610434513059
100
AcDbArc
 50
290.0328185300485
 51
69.96718146995138
  0
ARC
  5
44
330
33
100
AcDbEntity
  8
0
100
AcDbCircle
 10
0.756318934215031
 20
1.220695041135294
 30
0.0
 40
0.0641195985183373
100
AcDbArc
 50
109.9330988445268
 51
250.0669011554735
  0
ARC
  5
45
330
33
100
AcDbEntity
  8
0
100
AcDbCircle
 10
0.7564722647326249
 20
1.341535849828126
 30
0.0
 40
0.0642610434513059
100
AcDbArc
 50
110.0328185300486
 51
249.9671814699515
  0
LINE
  5
46
330
33
100
AcDbEntity
  8
0
100
AcDbLine
 10
1.178541949859244
 20
2.356767776863677
 30
0.0
 11
1.178541949859244
 21
2.234623452468488
 31
0.0
  0
LINE
  5
47
330
33
100
AcDbEntity
  8
0
100
AcDbLine
 10
1.215225015126292
 20
2.234623452468488
 30
0.0
 11
1.215225015126292
 21
2.356767776863677
 31
0.0
  0
LINE
  5
48
330
33
100
AcDbEntity
  8
0
100
AcDbLine
 10
1.17835496380053
 20
2.324251576860192
 30
0.0
 11
1.158606632314857
 21
2.324251576860192
 31
0.0
  0
LINE
  5
49
330
33
100
AcDbEntity
  8
0
100
AcDbLine
 10
1.158606632314857
 20
2.267439944418179
 30
0.0
 11
1.178541949859243
 21
2.267439944418181
 31
0.0
  0
LINE
  5
4A
330
33
100
AcDbEntity
  8
0
100
AcDbLine
 10
1.158606632314857
 20
2.324251576860192
 30
0.0
 11
1.158606632314857
 21
2.267439944418179
 31
0.0
  0
LINE
  5
4B
330
33
100
AcDbEntity
  8
0
100
AcDbLine
 10
1.158606632314857
 20
2.324251576860192
 30
0.0
 11
1.13880189792246
 21
2.295845760639185
 31
0.0
  0
LINE
  5
4C
330
33
100
AcDbEntity
  8
0
100
AcDbLine
 10
1.158606632314857
 20
2.267439944418179
 30
0.0
 11
1.13880189792246
 21
2.295845760639185
 31
0.0
  0
LINE
  5
4D
330
33
100
AcDbEntity
  8
0
100
AcDbLine
 10
1.178541949859244
 20
2.234623452468488
 30
0.0
 11
1.215225015126292
 21
2.234623452468488
 31
0.0
  0
LINE
  5
4E
330
33
100
AcDbEntity
  8
0
100
AcDbLine
 10
1.21522501512629
 20
2.356767776863677
 30
0.0
 11
1.178541949859244
 21
2.356767776863677
 31
0.0
  0
LINE
  5
4F
330
33
100
AcDbEntity
  8
0
100
AcDbLine
 10
1.978833285119119
 20
3.630354694784671
 30
0.0
 11
1.978833285119119
 21
3.532547846036609
 31
0.0
  0
LINE
  5
50
330
33
100
AcDbEntity
  8
0
100
AcDbLine
 10
2.236227825420289
 20
3.532547846036609
 30
0.0
 11
2.236227825420287
 21
3.630354694784671
 31
0.0
  0
LINE
  5
51
330
33
100
AcDbEntity
  8
0
100
AcDbLine
 10
2.377572349562493
 20
3.630354694784671
 30
0.0
 11
2.377572349562494
 21
2.656829761029734
 31
0.0
  0
LINE
  5
52
330
33
100
AcDbEntity
  8
0
100
AcDbLine
 10
1.884933597869036
 20
3.630354694784671
 30
0.0
 11
1.884933597869036
 21
2.656829761029733
 31
0.0
  0
LINE
  5
53
330
33
100
AcDbEntity
  8
0
100
AcDbLine
 10
2.320609623142795
 20
3.630354694784671
 30
0.0
 11
2.320609623142795
 21
2.656829761029733
 31
0.0
  0
LINE
  5
54
330
33
100
AcDbEntity
  8
0
100
AcDbLine
 10
1.827970871449338
 20
3.630354694784671
 30
0.0
 11
1.827970871449336
 21
2.656829761029734
 31
0.0
  0
ARC
  5
55
330
33
100
AcDbEntity
  8
0
100
AcDbCircle
 10
2.683189949987603
 20
2.6312383933824
 30
0.0
 40
0.3066871953435002
100
AcDbArc
 50
175.2134150151804
 51
4.786584984819762
  0
LINE
  5
56
330
33
100
AcDbEntity
  8
0
100
AcDbLine
 10
2.497068651613835
 20
1.401908879121316
 30
0.0
 11
3.478264023798458
 21
1.401908879121315
 31
0.0
  0
LINE
  5
57
330
33
100
AcDbEntity
  8
0
100
AcDbLine
 10
3.477189225185283
 20
1.160037761522744
 30
0.0
 11
2.497068651613835
 21
1.160037761522744
 31
0.0
  0
ARC
  5
58
330
33
100
AcDbEntity
  8
0
100
AcDbCircle
 10
2.683189949987603
 20
2.6312383933824
 30
0.0
 40
0.3636499217631997
100
AcDbArc
 50
175.2134150151804
 51
4.786584984819762
  0
LINE
  5
1666
330
33
100
AcDbEntity
  8
0
100
AcDbLine
 10
2.226655905782239
 20
3.532547846036609
 30
0.0
 11
2.226655905782238
 21
1.732445957201705
 31
0.0
  0
LINE
  5
1667
330
33
100
AcDbEntity
  8
0
100
AcDbLine
 10
1.984784788183666
 20
1.728975204414854
 30
0.0
 11
1.984784788183666
 21
3.532547846036609
 31
0.0
  0
LINE
  5
5B
330
33
100
AcDbEntity
  8
0
100
AcDbLine
 10
1.984784788183666
 20
1.716511020571691
 30
0.0
 11
2.226655905782238
 21
1.716511020571691
 31
0.0
  0
LINE
  5
5C
330
33
100
AcDbEntity
  8
0
100
AcDbLine
 10
1.984784788183666
 20
1.684641147311664
 30
0.0
 11
2.226655905782238
 21
1.684641147311664
 31
0.0
  0
LINE
  5
5D
330
33
100
AcDbEntity
  8
0
100
AcDbLine
 10
1.984784788183666
 20
1.700576083941677
 30
0.0
 11
2.226655905782238
 21
1.700576083941677
 31
0.0
  0
LINE
  5
1668
330
33
100
AcDbEntity
  8
0
100
AcDbLine
 10
1.984784788183666
 20
1.66870621068165
 30
0.0
 11
2.226655905782238
 21
1.66870621068165
 31
0.0
  0
LINE
  5
5F
330
33
100
AcDbEntity
  8
0
100
AcDbLine
 10
2.234253566406746
 20
1.657459217245211
 30
0.0
 11
1.977370865856446
 21
1.657459217245211
 31
0.0
  0
LINE
  5
60
330
33
100
AcDbEntity
  8
0
100
AcDbLine
 10
1.954856311324414
 20
1.658036768754934
 30
0.0
 11
2.257866821153676
 21
1.658036768754934
 31
0.0
210
0.0
220
0.0
230
-1.0
  0
LINE
  5
61
330
33
100
AcDbEntity
  8
0
100
AcDbLine
 10
1.984784788183666
 20
1.732445957201705
 30
0.0
 11
2.226655905782238
 21
1.732445957201705
 31
0.0
  0
LINE
  5
62
330
33
100
AcDbEntity
  8
0
100
AcDbLine
 10
1.715654480864255
 20
1.12895281984652
 30
0.0
 11
2.497068651613835
 21
1.12895281984652
 31
0.0
210
0.0
220
0.0
230
-1.0
  0
ARC
  5
63
330
33
100
AcDbEntity
  8
0
100
AcDbCircle
 10
2.106361566239046
 20
1.564666296006975
 30
0.0
 40
0.2014048647372879
100
AcDbArc
 50
221.2150136800274
 51
318.7849863199726
  0
LINE
  5
64
330
33
100
AcDbEntity
  8
0
100
AcDbLine
 10
1.715654480864255
 20
1.431963329675781
 30
0.0
 11
1.954856311324414
 21
1.431963329675781
 31
0.0
  0
LINE
  5
65
330
33
100
AcDbEntity
  8
0
100
AcDbLine
 10
1.715654480864255
 20
1.431963329675781
 30
0.0
 11
1.715654480864255
 21
1.12895281984652
 31
0.0
210
0.0
220
0.0
230
-1.0
  0
LINE
  5
66
330
33
100
AcDbEntity
  8
0
100
AcDbLine
 10
1.954856311324414
 20
1.431963329675781
 30
0.0
 11
1.954856311324414
 21
1.658036768754934
 31
0.0
210
0.0
220
0.0
230
-1.0
  0
LINE
  5
67
330
33
100
AcDbEntity
  8
0
100
AcDbLine
 10
1.984784788183666
 20
1.657459217245211
 30
0.0
 11
1.984784788183666
 21
1.732445957201705
 31
0.0
  0
LINE
  5
68
330
33
100
AcDbEntity
  8
0
100
AcDbLine
 10
2.257866821153676
 20
1.431963329675781
 30
0.0
 11
2.497068651613835
 21
1.431963329675781
 31
0.0
  0
LINE
  5
69
330
33
100
AcDbEntity
  8
0
100
AcDbLine
 10
2.257866821153676
 20
1.431963329675781
 30
0.0
 11
2.257866821153676
 21
1.658036768754934
 31
0.0
210
0.0
220
0.0
230
-1.0
  0
LINE
  5
6A
330
33
100
AcDbEntity
  8
0
100
AcDbLine
 10
2.226655905782238
 20
1.732445957201705
 30
0.0
 11
2.226655905782238
 21
1.657459217245211
 31
0.0
  0
LINE
  5
1669
330
33
100
AcDbEntity
  8
0
100
AcDbLine
 10
2.497068651613835
 20
1.431963329675781
 30
0.0
 11
2.497068651613835
 21
1.12895281984652
 31
0.0
210
0.0
220
0.0
230
-1.0
  0
LINE
  5
166A
330
33
100
AcDbEntity
  8
0
100
AcDbLine
 10
1.984784788183666
 20
3.494391243961294
 30
0.0
 11
2.226655905782239
 21
3.494391243961294
 31
0.0
  0
LINE
  5
6D
330
33
100
AcDbEntity
  8
0
100
AcDbLine
 10
1.978833285119119
 20
3.532547846036609
 30
0.0
 11
2.236227825420289
 21
3.532547846036609
 31
0.0
  0
LINE
  5
6E
330
33
100
AcDbEntity
  8
0
100
AcDbLine
 10
1.984784788183666
 20
3.521614405399461
 30
0.0
 11
2.226655905782239
 21
3.521614405399461
 31
0.0
  0
LINE
  5
6F
330
33
100
AcDbEntity
  8
0
100
AcDbLine
 10
1.984784788183666
 20
3.510680964762315
 30
0.0
 11
2.226655905782239
 21
3.510680964762315
 31
0.0
  0
LINE
  5
70
330
33
100
AcDbEntity
  8
0
100
AcDbLine
 10
1.984784788183666
 20
3.50217717487932
 30
0.0
 11
2.226655905782239
 21
3.50217717487932
 31
0.0
  0
ARC
  5
71
330
33
100
AcDbEntity
  8
0
100
AcDbCircle
 10
1.522353271024228
 20
2.6312383933824
 30
0.0
 40
0.3636499217631997
100
AcDbArc
 50
269.1032523811816
 51
4.786584984819609
  0
ARC
  5
72
330
33
100
AcDbEntity
  8
0
100
AcDbCircle
 10
1.522353271024228
 20
2.6312383933824
 30
0.0
 40
0.3066871953435002
100
AcDbArc
 50
268.9366768091984
 51
4.786584984819609
  0
LINE
  5
166B
330
33
100
AcDbEntity
  8
0
100
AcDbLine
 10
1.984784788183666
 20
2.576825468938324
 30
0.0
 11
1.984784788183666
 21
2.109685640129952
 31
0.0
  0
ARC
  5
166C
330
33
100
AcDbEntity
  8
0
100
AcDbCircle
 10
3.456404198263058
 20
1.220695041135294
 30
0.0
 40
0.0641195985183373
100
AcDbArc
 50
288.9147084934261
 51
70.06690115547315
  0
ARC
  5
166D
330
33
100
AcDbEntity
  8
0
100
AcDbCircle
 10
3.456250867745465
 20
1.341535849828126
 30
0.0
 40
0.0642610434513059
100
AcDbArc
 50
290.0328185300485
 51
69.96718146995138
  0
ARC
  5
166E
330
33
100
AcDbEntity
  8
0
100
AcDbCircle
 10
3.500277179851472
 20
1.341535849828126
 30
0.0
 40
0.0642610434513059
100
AcDbArc
 50
110.0328185300486
 51
249.9671814699515
  0
LINE
  5
77
330
33
100
AcDbEntity
  8
0
100
AcDbLine
 10
3.404553773729475
 20
3.391468527738985
 30
0.0
 11
3.444940466017465
 21
3.391468527738985
 31
0.0
  0
LINE
  5
78
330
33
100
AcDbEntity
  8
0
100
AcDbLine
 10
3.374277930670631
 20
3.334449416717076
 30
0.0
 11
3.444940466017467
 21
3.334449416717078
 31
0.0
  0
LINE
  5
79
330
33
100
AcDbEntity
  8
0
100
AcDbLine
 10
3.045571614991807
 20
3.239195229030868
 30
0.0
 11
3.045571614991808
 21
2.652076533323673
 31
0.0
  0
LINE
  5
7A
330
33
100
AcDbEntity
  8
0
100
AcDbLine
 10
2.988608888572108
 20
3.241304383799696
 30
0.0
 11
2.988608888572108
 21
2.652076533323672
 31
0.0
  0
LINE
  5
7B
330
33
100
AcDbEntity
  8
0
100
AcDbLine
 10
3.331314114519182
 20
3.391468527738986
 30
0.0
 11
3.331314114519182
 21
2.398638785953445
 31
0.0
  0
LINE
  5
7C
330
33
100
AcDbEntity
  8
0
100
AcDbLine
 10
3.374277930670631
 20
3.391468527738985
 30
0.0
 11
3.374277930670631
 21
2.441918531093439
 31
0.0
  0
LINE
  5
7D
330
33
100
AcDbEntity
  8
0
100
AcDbLine
 10
3.331314114519182
 20
2.398638785953445
 30
0.0
 11
3.331314114519182
 21
2.252792921853761
 31
0.0
  0
LINE
  5
7E
330
33
100
AcDbEntity
  8
0
100
AcDbLine
 10
3.331314114519182
 20
2.252792921853761
 30
0.0
 11
3.374277930670631
 21
2.441918531093439
 31
0.0
  0
ARC
  5
7F
330
33
100
AcDbEntity
  8
0
100
AcDbCircle
 10
3.149257804449871
 20
3.230563829015317
 30
0.0
 40
0.1610075578653892
100
AcDbArc
 50
92.04813731606849
 51
183.8249495699765
  0
ARC
  5
80
330
33
100
AcDbEntity
  8
0
100
AcDbCircle
 10
3.149257804449871
 20
3.230563829015317
 30
0.0
 40
0.1040448314456897
100
AcDbArc
 50
93.17039936126888
 51
183.8249495699765
  0
LINE
  5
81
330
33
100
AcDbEntity
  8
0
100
AcDbLine
 10
3.227831599862912
 20
3.391468527738985
 30
0.0
 11
3.331314114519182
 21
3.391468527738986
 31
0.0
  0
LINE
  5
82
330
33
100
AcDbEntity
  8
0
100
AcDbLine
 10
3.143503534867918
 20
3.334449416717078
 30
0.0
 11
3.331314114519182
 21
3.334449416717078
 31
0.0
  0
LINE
  5
83
330
33
100
AcDbEntity
  8
0
100
AcDbLine
 10
3.243766536492926
 20
3.391468527738985
 30
0.0
 11
3.143503534867918
 21
3.391468527738985
 31
0.0
  0
LINE
  5
84
330
33
100
AcDbEntity
  8
0
100
AcDbLine
 10
3.374277930670631
 20
3.444605992117365
 30
0.0
 11
3.374277930670631
 21
3.391468527738985
 31
0.0
  0
LINE
  5
85
330
33
100
AcDbEntity
  8
0
100
AcDbLine
 10
3.331314114519182
 20
3.444605992117367
 30
0.0
 11
3.331314114519182
 21
3.391468527738986
 31
0.0
  0
LINE
  5
86
330
33
100
AcDbEntity
  8
0
100
AcDbLine
 10
3.374277930670631
 20
3.391468527738986
 30
0.0
 11
3.404553773729475
 21
3.391468527738985
 31
0.0
  0
LINE
  5
87
330
33
100
AcDbEntity
  8
0
100
AcDbLine
 10
3.374277930670631
 20
3.444605992117365
 30
0.0
 11
3.331314114519182
 21
3.444605992117367
 31
0.0
  0
POINT
  5
88
330
33
100
AcDbEntity
  8
0
100
AcDbPoint
 10
3.347249051149195
 20
3.444605992117367
 30
0.0
  0
LINE
  5
89
330
33
100
AcDbEntity
  8
0
100
AcDbLine
 10
3.444940466017465
 20
3.301487969454078
 30
0.0
 11
3.444940466017465
 21
3.423632293849266
 31
0.0
  0
LINE
  5
8A
330
33
100
AcDbEntity
  8
0
100
AcDbLine
 10
3.481623531284513
 20
3.423632293849266
 30
0.0
 11
3.481623531284513
 21
3.301487969454078
 31
0.0
  0
LINE
  5
8B
330
33
100
AcDbEntity
  8
0
100
AcDbLine
 10
3.5015588488289
 20
3.334304461403768
 30
0.0
 11
3.521363583221297
 21
3.362710277624775
 31
0.0
  0
LINE
  5
8C
330
33
100
AcDbEntity
  8
0
100
AcDbLine
 10
3.5015588488289
 20
3.391116093845781
 30
0.0
 11
3.521363583221297
 21
3.362710277624775
 31
0.0
  0
LINE
  5
8D
330
33
100
AcDbEntity
  8
0
100
AcDbLine
 10
3.5015588488289
 20
3.391116093845781
 30
0.0
 11
3.5015588488289
 21
3.334304461403768
 31
0.0
  0
LINE
  5
8E
330
33
100
AcDbEntity
  8
0
100
AcDbLine
 10
3.481623531284513
 20
3.301487969454078
 30
0.0
 11
3.444940466017465
 21
3.301487969454078
 31
0.0
  0
LINE
  5
8F
330
33
100
AcDbEntity
  8
0
100
AcDbLine
 10
3.5015588488289
 20
3.334304461403768
 30
0.0
 11
3.481623531284514
 21
3.33430446140377
 31
0.0
  0
LINE
  5
90
330
33
100
AcDbEntity
  8
0
100
AcDbLine
 10
3.481810517343227
 20
3.391116093845781
 30
0.0
 11
3.5015588488289
 21
3.391116093845781
 31
0.0
  0
LINE
  5
91
330
33
100
AcDbEntity
  8
0
100
AcDbLine
 10
3.444940466017467
 20
3.423632293849266
 30
0.0
 11
3.481623531284513
 21
3.423632293849266
 31
0.0
  0
LINE
  5
166F
330
33
100
AcDbEntity
  8
0
100
AcDbLine
 10
2.422087736572895
 20
3.795744189789325
 30
0.0
 11
1.692925972474596
 21
3.795744189789325
 31
0.0
  0
LINE
  5
1670
330
33
100
AcDbEntity
  8
0
100
AcDbLine
 10
1.692925972474595
 20
4.000045232980082
 30
0.0
 11
2.512853122212025
 21
4.000045232980083
 31
0.0
  0
ARC
  5
94
330
33
100
AcDbEntity
  8
0
100
AcDbCircle
 10
2.103545356940228
 20
3.345672365584479
 30
0.0
 40
0.7725361664559662
100
AcDbArc
 50
58.00647418979874
 51
122.1082969094359
  0
LINE
  5
95
330
33
100
AcDbEntity
  8
0
100
AcDbLine
 10
1.771317067408229
 20
3.630354694784671
 30
0.0
 11
2.422087736572895
 21
3.630354694784671
 31
0.0
  0
LINE
  5
96
330
33
100
AcDbEntity
  8
0
100
AcDbLine
 10
1.859198900475805
 20
3.630354694784671
 30
0.0
 11
2.326195349359775
 21
3.630354694784671
 31
0.0
  0
LINE
  5
1671
330
33
100
AcDbEntity
  8
0
100
AcDbLine
 10
2.069815753661925
 20
3.998011084233191
 30
0.0
 11
2.095336172060538
 21
3.998011084233191
 31
0.0
  0
LINE
  5
1672
330
33
100
AcDbEntity
  8
0
100
AcDbLine
 10
1.692925972474596
 20
3.795744189789325
 30
0.0
 11
1.692925972474595
 21
4.000866445053063
 31
0.0
  0
LINE
  5
1673
330
33
100
AcDbEntity
  8
0
100
AcDbLine
 10
1.822357904205456
 20
3.630354694784671
 30
0.0
 11
1.84326396384579
 21
3.630354694784671
 31
0.0
  0
LINE
  5
1674
330
33
100
AcDbEntity
  8
0
100
AcDbLine
 10
1.771317067408229
 20
3.795744189789325
 30
0.0
 11
1.771317067408229
 21
3.630354694784671
 31
0.0
  0
LINE
  5
1675
330
33
100
AcDbEntity
  8
0
100
AcDbLine
 10
1.809597695006149
 20
3.795744189789325
 30
0.0
 11
1.809597695006149
 21
3.630354694784671
 31
0.0
  0
LINE
  5
1676
330
33
100
AcDbEntity
  8
0
100
AcDbLine
 10
1.89210550921376
 20
3.795744189789325
 30
0.0
 11
1.89210550921376
 21
3.630354694784671
 31
0.0
  0
LINE
  5
1677
330
33
100
AcDbEntity
  8
0
100
AcDbLine
 10
2.00601470766539
 20
3.795744189789325
 30
0.0
 11
2.006014707665388
 21
3.998011084233191
 31
0.0
  0
LINE
  5
1678
330
33
100
AcDbEntity
  8
0
100
AcDbLine
 10
2.069815753661925
 20
3.795744189789325
 30
0.0
 11
2.069815753661925
 21
3.998011084233191
 31
0.0
  0
LINE
  5
1679
330
33
100
AcDbEntity
  8
0
100
AcDbLine
 10
2.031535126064003
 20
3.998011084233191
 30
0.0
 11
2.031535126064003
 21
3.795744189789325
 31
0.0
  0
LINE
  5
167A
330
33
100
AcDbEntity
  8
0
100
AcDbLine
 10
1.930386136811681
 20
3.795744189789325
 30
0.0
 11
1.930386136811681
 21
3.630354694784671
 31
0.0
  0
LINE
  5
167B
330
33
100
AcDbEntity
  8
0
100
AcDbLine
 10
2.027175785735917
 20
3.795744189789325
 30
0.0
 11
2.027175785735917
 21
3.630354694784671
 31
0.0
  0
LINE
  5
167C
330
33
100
AcDbEntity
  8
0
100
AcDbLine
 10
2.065456413333838
 20
3.795744189789325
 30
0.0
 11
2.065456413333838
 21
3.630354694784671
 31
0.0
  0
LINE
  5
167D
330
33
100
AcDbEntity
  8
0
100
AcDbLine
 10
2.006014707665388
 20
3.998011084233191
 30
0.0
 11
2.031535126064003
 21
3.998011084233191
 31
0.0
  0
LINE
  5
167E
330
33
100
AcDbEntity
  8
0
100
AcDbLine
 10
2.422087736572895
 20
3.795744189789325
 30
0.0
 11
2.512853122212025
 21
3.795744189789325
 31
0.0
  0
LINE
  5
167F
330
33
100
AcDbEntity
  8
0
100
AcDbLine
 10
2.095336172060538
 20
3.998011084233191
 30
0.0
 11
2.095336172060538
 21
3.795744189789325
 31
0.0
  0
LINE
  5
1680
330
33
100
AcDbEntity
  8
0
100
AcDbLine
 10
2.159075918580593
 20
3.998011084233191
 30
0.0
 11
2.159075918580593
 21
3.795744189789325
 31
0.0
  0
LINE
  5
1681
330
33
100
AcDbEntity
  8
0
100
AcDbLine
 10
2.133555500181978
 20
3.795744189789325
 30
0.0
 11
2.133555500181978
 21
3.998011084233191
 31
0.0
  0
LINE
  5
1682
330
33
100
AcDbEntity
  8
0
100
AcDbLine
 10
2.222815665100645
 20
3.998011084233191
 30
0.0
 11
2.222815665100645
 21
3.795744189789325
 31
0.0
  0
LINE
  5
1683
330
33
100
AcDbEntity
  8
0
100
AcDbLine
 10
2.197295246702032
 20
3.795744189789325
 30
0.0
 11
2.197295246702032
 21
3.998011084233191
 31
0.0
  0
LINE
  5
1684
330
33
100
AcDbEntity
  8
0
100
AcDbLine
 10
2.155105115659471
 20
3.795744189789325
 30
0.0
 11
2.155105115659471
 21
3.630354694784671
 31
0.0
  0
LINE
  5
1685
330
33
100
AcDbEntity
  8
0
100
AcDbLine
 10
2.193385743257393
 20
3.795744189789325
 30
0.0
 11
2.193385743257393
 21
3.630354694784671
 31
0.0
  0
LINE
  5
1686
330
33
100
AcDbEntity
  8
0
100
AcDbLine
 10
2.133555500181978
 20
3.998011084233191
 30
0.0
 11
2.159075918580593
 21
3.998011084233191
 31
0.0
  0
LINE
  5
1687
330
33
100
AcDbEntity
  8
0
100
AcDbLine
 10
2.197295246702032
 20
3.998011084233191
 30
0.0
 11
2.222815665100645
 21
3.998011084233191
 31
0.0
  0
LINE
  5
1688
330
33
100
AcDbEntity
  8
0
100
AcDbLine
 10
2.314781250627847
 20
3.795744189789325
 30
0.0
 11
2.314781250627847
 21
3.630354694784671
 31
0.0
  0
LINE
  5
1689
330
33
100
AcDbEntity
  8
0
100
AcDbLine
 10
2.276500623029925
 20
3.795744189789325
 30
0.0
 11
2.276500623029925
 21
3.630354694784671
 31
0.0
  0
LINE
  5
168A
330
33
100
AcDbEntity
  8
0
100
AcDbLine
 10
2.383807108974973
 20
3.795744189789325
 30
0.0
 11
2.383807108974975
 21
3.630354694784671
 31
0.0
  0
LINE
  5
168B
330
33
100
AcDbEntity
  8
0
100
AcDbLine
 10
2.342130285989788
 20
3.630354694784671
 30
0.0
 11
2.390187223927855
 21
3.630354694784671
 31
0.0
  0
LINE
  5
168C
330
33
100
AcDbEntity
  8
0
100
AcDbLine
 10
2.422087736572895
 20
3.795744189789325
 30
0.0
 11
2.422087736572895
 21
3.630354694784671
 31
0.0
  0
LINE
  5
168D
330
33
100
AcDbEntity
  8
0
100
AcDbLine
 10
2.512853122212025
 20
3.795744189789325
 30
0.0
 11
2.512853122212025
 21
4.000866445053063
 31
0.0
  0
TEXT
  5
168E
330
33
100
AcDbEntity
  8
0
100
AcDbText
 10
5.555360591030507
 20
4.71816045282257
 30
0.0
 40
0.0684360496240188
  1
BUG PLUG, DIG MODEL 10-016
100
AcDbText
  0
TEXT
  5
168F
330
33
100
AcDbEntity
  8
0
100
AcDbText
 10
5.555360591030507
 20
4.446613700084704
 30
0.0
 40
0.0684360496240188
  1
DISTRIBUTION TUBING, DIG MODEL 
100
AcDbText
  0
TEXT
  5
1690
330
33
100
AcDbEntity
  8
0
100
AcDbText
 10
5.555360591030507
 20
4.546659815044823
 30
0.0
 40
0.0684360496240188
  1
"V" STAKE FOR 1/2" AND 1/4"
100
AcDbText
  0
TEXT
  5
1691
330
33
100
AcDbEntity
  8
0
100
AcDbText
 10
5.555360591030507
 20
3.989561479023131
 30
0.0
 40
0.0684360496240188
  1
12-006, 100' 12-019, 3000'
100
AcDbText
  0
TEXT
  5
1692
330
33
100
AcDbEntity
  8
0
100
AcDbText
 10
5.555360591030507
 20
4.082461437705462
 30
0.0
 40
0.0684360496240188
  1
118 ID X 187 OD, DIG MODEL
100
AcDbText
  0
TEXT
  5
1693
330
33
100
AcDbEntity
  8
0
100
AcDbText
 10
5.555360591030507
 20
4.175361396387792
 30
0.0
 40
0.0684360496240188
  1
1/8" VINYL DISTRIBUTION TUBING
100
AcDbText
  0
TEXT
  5
1694
330
33
100
AcDbEntity
  8
0
100
AcDbText
 10
5.555360591030507
 20
3.621032227189733
 30
0.0
 40
0.0684360496240188
  1
TOP-020, 2.2 GPH AND TOP-030, 3.3
100
AcDbText
  0
TEXT
  5
BB
330
33
100
AcDbEntity
  8
0
100
AcDbText
 10
5.555360591030507
 20
3.813978300832186
 30
0.0
 40
0.0684360496240188
  1
T.O.P. 12 ZONE DRIP HEAD, DIG MODEL,
100
AcDbText
  0
TEXT
  5
BC
330
33
100
AcDbEntity
  8
0
100
AcDbText
 10
5.555360591030507
 20
3.721078342149852
 30
0.0
 40
0.0684360496240188
  1
TOP-005, 5 GPH, TOP-010, 1 GPH
100
AcDbText
  0
TEXT
  5
BD
330
33
100
AcDbEntity
  8
0
100
AcDbText
 10
5.555360591030507
 20
3.316478746689661
 30
0.0
 40
0.0684360496240188
  1
1/2" SCH 80 PVC NIPPLE
100
AcDbText
  0
ARC
  5
BE
330
33
100
AcDbEntity
  8
0
100
AcDbCircle
 10
4.556980876736853
 20
3.54781766284348
 30
0.0
 40
0.299742743432309
100
AcDbArc
 50
99.78513279458583
 51
179.6081838697481
  0
ARC
  5
BF
330
33
100
AcDbEntity
  8
0
100
AcDbCircle
 10
4.230149150703078
 20
3.794975391772846
 30
0.0
 40
0.2466011043095558
100
AcDbArc
 50
276.3082723688813
 51
320.8726341196924
  0
ARC
  5
C0
330
33
100
AcDbEntity
  8
0
100
AcDbCircle
 10
3.859820617716514
 20
3.644330379728359
 30
0.0
 40
0.3939887487734416
100
AcDbArc
 50
346.1275934498765
 51
13.87240655012029
  0
TEXT
  5
C1
330
33
100
AcDbEntity
  8
0
100
AcDbText
 10
-5.35421140557828
 20
3.316125233410004
 30
0.0
 40
0.0888620774192805
  1
5
 50
180.0
 71
     4
210
0.0
220
0.0
230
-1.0
100
AcDbText
  0
CIRCLE
  5
C2
330
33
100
AcDbEntity
  8
0
100
AcDbCircle
 10
-5.378996620370761
 20
3.360934071118585
 30
0.0
 40
0.0980395409819625
210
0.0
220
0.0
230
-1.0
  0
CIRCLE
  5
C3
330
33
100
AcDbEntity
  8
0
100
AcDbCircle
 10
-5.378996620370761
 20
3.360934071118585
 30
0.0
 40
0.0980395409819625
210
0.0
220
0.0
230
-1.0
  0
CIRCLE
  5
C4
330
33
100
AcDbEntity
  8
0
100
AcDbCircle
 10
-5.378996620370761
 20
3.360934071118585
 30
0.0
 40
0.0980395409819625
210
0.0
220
0.0
230
-1.0
  0
CIRCLE
  5
C5
330
33
100
AcDbEntity
  8
0
100
AcDbCircle
 10
-5.378996620370761
 20
3.360934071118585
 30
0.0
 40
0.0980395409819625
210
0.0
220
0.0
230
-1.0
  0
CIRCLE
  5
C6
330
33
100
AcDbEntity
  8
0
100
AcDbCircle
 10
-5.378996620370761
 20
3.360934071118585
 30
0.0
 40
0.0980395409819625
210
0.0
220
0.0
230
-1.0
  0
CIRCLE
  5
C7
330
33
100
AcDbEntity
  8
0
100
AcDbCircle
 10
-5.378996620370761
 20
3.360934071118585
 30
0.0
 40
0.0980395409819625
210
0.0
220
0.0
230
-1.0
  0
CIRCLE
  5
C8
330
33
100
AcDbEntity
  8
0
100
AcDbCircle
 10
-5.378996620370761
 20
3.360934071118585
 30
0.0
 40
0.0980395409819625
210
0.0
220
0.0
230
-1.0
  0
CIRCLE
  5
C9
330
33
100
AcDbEntity
  8
0
100
AcDbCircle
 10
-5.378996620370761
 20
3.360934071118585
 30
0.0
 40
0.0980395409819625
210
0.0
220
0.0
230
-1.0
  0
CIRCLE
  5
CA
330
33
100
AcDbEntity
  8
0
100
AcDbCircle
 10
-5.378996620370761
 20
3.360934071118585
 30
0.0
 40
0.0980395409819625
210
0.0
220
0.0
230
-1.0
  0
CIRCLE
  5
CB
330
33
100
AcDbEntity
  8
0
100
AcDbCircle
 10
-5.378996620370761
 20
3.360934071118585
 30
0.0
 40
0.0980395409819625
210
0.0
220
0.0
230
-1.0
  0
CIRCLE
  5
CC
330
33
100
AcDbEntity
  8
0
100
AcDbCircle
 10
-5.378996620370761
 20
3.360934071118585
 30
0.0
 40
0.0980395409819625
210
0.0
220
0.0
230
-1.0
  0
CIRCLE
  5
CD
330
33
100
AcDbEntity
  8
0
100
AcDbCircle
 10
-5.378996620370761
 20
2.877726805222377
 30
0.0
 40
0.0980395409819625
210
0.0
220
0.0
230
-1.0
  0
CIRCLE
  5
CE
330
33
100
AcDbEntity
  8
0
100
AcDbCircle
 10
-5.378996620370761
 20
2.877726805222377
 30
0.0
 40
0.0980395409819625
210
0.0
220
0.0
230
-1.0
  0
CIRCLE
  5
CF
330
33
100
AcDbEntity
  8
0
100
AcDbCircle
 10
-5.378996620370761
 20
2.877726805222377
 30
0.0
 40
0.0980395409819625
210
0.0
220
0.0
230
-1.0
  0
CIRCLE
  5
D0
330
33
100
AcDbEntity
  8
0
100
AcDbCircle
 10
-5.378996620370761
 20
2.877726805222377
 30
0.0
 40
0.0980395409819625
210
0.0
220
0.0
230
-1.0
  0
CIRCLE
  5
D1
330
33
100
AcDbEntity
  8
0
100
AcDbCircle
 10
-5.378996620370761
 20
2.877726805222377
 30
0.0
 40
0.0980395409819625
210
0.0
220
0.0
230
-1.0
  0
CIRCLE
  5
D2
330
33
100
AcDbEntity
  8
0
100
AcDbCircle
 10
-5.378996620370761
 20
2.877726805222377
 30
0.0
 40
0.0980395409819625
210
0.0
220
0.0
230
-1.0
  0
CIRCLE
  5
D3
330
33
100
AcDbEntity
  8
0
100
AcDbCircle
 10
-5.378996620370761
 20
2.877726805222377
 30
0.0
 40
0.0980395409819625
210
0.0
220
0.0
230
-1.0
  0
CIRCLE
  5
D4
330
33
100
AcDbEntity
  8
0
100
AcDbCircle
 10
-5.378996620370761
 20
2.877726805222377
 30
0.0
 40
0.0980395409819625
210
0.0
220
0.0
230
-1.0
  0
CIRCLE
  5
D5
330
33
100
AcDbEntity
  8
0
100
AcDbCircle
 10
-5.378996620370761
 20
2.877726805222377
 30
0.0
 40
0.0980395409819625
210
0.0
220
0.0
230
-1.0
  0
CIRCLE
  5
D6
330
33
100
AcDbEntity
  8
0
100
AcDbCircle
 10
-5.378996620370761
 20
2.877726805222377
 30
0.0
 40
0.0980395409819625
210
0.0
220
0.0
230
-1.0
  0
CIRCLE
  5
D7
330
33
100
AcDbEntity
  8
0
100
AcDbCircle
 10
-5.378996620370761
 20
2.877726805222377
 30
0.0
 40
0.0980395409819625
210
0.0
220
0.0
230
-1.0
  0
TEXT
  5
D8
330
33
100
AcDbEntity
  8
0
100
AcDbText
 10
-5.35421140557828
 20
3.068740930203704
 30
0.0
 40
0.0888620774192805
  1
6
 50
180.0
 71
     4
210
0.0
220
0.0
230
-1.0
100
AcDbText
  0
CIRCLE
  5
D9
330
33
100
AcDbEntity
  8
0
100
AcDbCircle
 10
-5.378996620370761
 20
3.113549767912286
 30
0.0
 40
0.0980395409819625
210
0.0
220
0.0
230
-1.0
  0
CIRCLE
  5
DA
330
33
100
AcDbEntity
  8
0
100
AcDbCircle
 10
-5.378996620370761
 20
3.113549767912286
 30
0.0
 40
0.0980395409819625
210
0.0
220
0.0
230
-1.0
  0
CIRCLE
  5
DB
330
33
100
AcDbEntity
  8
0
100
AcDbCircle
 10
-5.378996620370761
 20
3.113549767912286
 30
0.0
 40
0.0980395409819625
210
0.0
220
0.0
230
-1.0
  0
CIRCLE
  5
DC
330
33
100
AcDbEntity
  8
0
100
AcDbCircle
 10
-5.378996620370761
 20
3.113549767912286
 30
0.0
 40
0.0980395409819625
210
0.0
220
0.0
230
-1.0
  0
CIRCLE
  5
DD
330
33
100
AcDbEntity
  8
0
100
AcDbCircle
 10
-5.378996620370761
 20
3.113549767912286
 30
0.0
 40
0.0980395409819625
210
0.0
220
0.0
230
-1.0
  0
CIRCLE
  5
DE
330
33
100
AcDbEntity
  8
0
100
AcDbCircle
 10
-5.378996620370761
 20
3.113549767912286
 30
0.0
 40
0.0980395409819625
210
0.0
220
0.0
230
-1.0
  0
CIRCLE
  5
DF
330
33
100
AcDbEntity
  8
0
100
AcDbCircle
 10
-5.378996620370761
 20
3.113549767912286
 30
0.0
 40
0.0980395409819625
210
0.0
220
0.0
230
-1.0
  0
CIRCLE
  5
E0
330
33
100
AcDbEntity
  8
0
100
AcDbCircle
 10
-5.378996620370761
 20
3.113549767912286
 30
0.0
 40
0.0980395409819625
210
0.0
220
0.0
230
-1.0
  0
CIRCLE
  5
E1
330
33
100
AcDbEntity
  8
0
100
AcDbCircle
 10
-5.378996620370761
 20
3.113549767912286
 30
0.0
 40
0.0980395409819625
210
0.0
220
0.0
230
-1.0
  0
CIRCLE
  5
E2
330
33
100
AcDbEntity
  8
0
100
AcDbCircle
 10
-5.378996620370761
 20
3.113549767912286
 30
0.0
 40
0.0980395409819625
210
0.0
220
0.0
230
-1.0
  0
CIRCLE
  5
E3
330
33
100
AcDbEntity
  8
0
100
AcDbCircle
 10
-5.378996620370761
 20
3.113549767912286
 30
0.0
 40
0.0980395409819625
210
0.0
220
0.0
230
-1.0
  0
TEXT
  5
E4
330
33
100
AcDbEntity
  8
0
100
AcDbText
 10
-5.35421140557828
 20
2.832917967513795
 30
0.0
 40
0.0888620774192805
  1
7
 50
180.0
 71
     4
210
0.0
220
0.0
230
-1.0
100
AcDbText
  0
ARC
  5
E5
330
33
100
AcDbEntity
  8
0
100
AcDbCircle
 10
3.520898173649063
 20
2.940797123201259
 30
0.0
 40
0.6885725146518209
100
AcDbArc
 50
337.0804406826592
 51
11.51444845244014
  0
ARC
  5
E6
330
33
100
AcDbEntity
  8
0
100
AcDbCircle
 10
5.933244807041973
 20
2.790655124477421
 30
0.0
 40
1.694057971155556
100
AcDbArc
 50
170.3240297796004
 51
184.059933668194
  0
ARC
  5
E7
330
33
100
AcDbEntity
  8
0
100
AcDbCircle
 10
4.580666263599754
 20
2.958765873396702
 30
0.0
 40
0.3820139622499275
100
AcDbArc
 50
81.00601015116453
 51
147.846053035324
  0
ARC
  5
E8
330
33
100
AcDbEntity
  8
0
100
AcDbCircle
 10
4.17325130397069
 20
3.99695950701101
 30
0.0
 40
0.9044123971012575
100
AcDbArc
 50
277.3461187532446
 51
290.0117396001257
  0
LINE
  5
E9
330
33
100
AcDbEntity
  8
0
100
AcDbLine
 10
4.212462350209615
 20
3.191902576171357
 30
0.0
 11
4.212462350209615
 21
3.32116766745952
 31
0.0
  0
LINE
  5
EA
330
33
100
AcDbEntity
  8
0
100
AcDbLine
 10
4.257245141986409
 20
3.162072158219022
 30
0.0
 11
4.257245141986409
 21
3.296308975198189
 31
0.0
  0
ARC
  5
EB
330
33
100
AcDbEntity
  8
0
100
AcDbCircle
 10
4.166366830447283
 20
3.072288721648629
 30
0.0
 40
0.0298466024765474
100
AcDbArc
 50
11.51444845243995
 51
62.44709783185456
  0
ARC
  5
EC
330
33
100
AcDbEntity
  8
0
100
AcDbCircle
 10
4.292708431682559
 20
3.070369051129369
 30
0.0
 40
0.0298466024765474
100
AcDbArc
 50
97.34611875324653
 51
170.3240297795998
  0
ARC
  5
ED
330
33
100
AcDbEntity
  8
0
100
AcDbCircle
 10
4.377062917369809
 20
3.306299095155667
 30
0.0
 40
0.1494244216256248
100
AcDbArc
 50
81.86043615682463
 51
154.3907604692247
  0
LINE
  5
EE
330
33
100
AcDbEntity
  8
0
100
AcDbLine
 10
4.242317527092667
 20
3.549867432083518
 30
0.0
 11
4.257245141986409
 21
3.549867432083518
 31
0.0
  0
LINE
  5
EF
330
33
100
AcDbEntity
  8
0
100
AcDbLine
 10
4.242317527092667
 20
3.370884988175838
 30
0.0
 11
4.242317527092667
 21
3.549867432083518
 31
0.0
  0
ARC
  5
F0
330
33
100
AcDbEntity
  8
0
100
AcDbCircle
 10
3.99255072445124
 20
3.729081234728831
 30
0.0
 40
0.5073016492123207
100
AcDbArc
 50
301.4510064698043
 51
324.638741481539
  0
LINE
  5
F1
330
33
100
AcDbEntity
  8
0
100
AcDbLine
 10
4.257245141986409
 20
3.549867432083518
 30
0.0
 11
4.257245141986409
 21
3.395581559729214
 31
0.0
  0
ARC
  5
F2
330
33
100
AcDbEntity
  8
0
100
AcDbCircle
 10
4.396528818078253
 20
3.442399861451918
 30
0.0
 40
0.011938640990619
100
AcDbArc
 50
324.63874148154
 51
81.86043615682343
  0
ARC
  5
F3
330
33
100
AcDbEntity
  8
0
100
AcDbCircle
 10
4.821361390247869
 20
3.045545943441583
 30
0.0
 40
0.3422915413993274
100
AcDbArc
 50
121.9186506451687
 51
159.6106949285215
  0
ARC
  5
F4
330
33
100
AcDbEntity
  8
0
100
AcDbCircle
 10
4.472538803277376
 20
3.175197788575367
 30
0.0
 40
0.0298466024765474
100
AcDbArc
 50
290.0117396001253
 51
339.6106949285215
  0
TEXT
  5
F5
330
33
100
AcDbEntity
  8
0
100
AcDbText
 10
5.555360591030507
 20
2.833271480793453
 30
0.0
 40
0.0684360496240188
  1
PVC LATERAL PIPE
100
AcDbText
  0
TEXT
  5
F6
330
33
100
AcDbEntity
  8
0
100
AcDbText
 10
5.555360591030507
 20
3.069094443483362
 30
0.0
 40
0.0684360496240188
  1
PVC SCH 80 TEE
100
AcDbText
  0
TEXT
  5
F7
330
33
100
AcDbEntity
  8
0
100
AcDbText
 10
5.555360591030507
 20
3.520986136539246
 30
0.0
 40
0.0684360496240188
  1
GPH
100
AcDbText
  0
CIRCLE
  5
F8
330
33
100
AcDbEntity
  8
0
100
AcDbCircle
 10
-5.378996620370761
 20
4.52439777231795
 30
0.0
 40
0.0980395409819625
210
0.0
220
0.0
230
-1.0
  0
CIRCLE
  5
F9
330
33
100
AcDbEntity
  8
0
100
AcDbCircle
 10
-5.378996620370761
 20
4.52439777231795
 30
0.0
 40
0.0980395409819625
210
0.0
220
0.0
230
-1.0
  0
CIRCLE
  5
FA
330
33
100
AcDbEntity
  8
0
100
AcDbCircle
 10
-5.378996620370761
 20
4.52439777231795
 30
0.0
 40
0.0980395409819625
210
0.0
220
0.0
230
-1.0
  0
CIRCLE
  5
FB
330
33
100
AcDbEntity
  8
0
100
AcDbCircle
 10
-5.378996620370761
 20
4.52439777231795
 30
0.0
 40
0.0980395409819625
210
0.0
220
0.0
230
-1.0
  0
CIRCLE
  5
FC
330
33
100
AcDbEntity
  8
0
100
AcDbCircle
 10
-5.378996620370761
 20
4.52439777231795
 30
0.0
 40
0.0980395409819625
210
0.0
220
0.0
230
-1.0
  0
CIRCLE
  5
FD
330
33
100
AcDbEntity
  8
0
100
AcDbCircle
 10
-5.378996620370761
 20
4.52439777231795
 30
0.0
 40
0.0980395409819625
210
0.0
220
0.0
230
-1.0
  0
CIRCLE
  5
FE
330
33
100
AcDbEntity
  8
0
100
AcDbCircle
 10
-5.378996620370761
 20
4.52439777231795
 30
0.0
 40
0.0980395409819625
210
0.0
220
0.0
230
-1.0
  0
CIRCLE
  5
FF
330
33
100
AcDbEntity
  8
0
100
AcDbCircle
 10
-5.378996620370761
 20
4.52439777231795
 30
0.0
 40
0.0980395409819625
210
0.0
220
0.0
230
-1.0
  0
CIRCLE
  5
100
330
33
100
AcDbEntity
  8
0
100
AcDbCircle
 10
-5.378996620370761
 20
4.52439777231795
 30
0.0
 40
0.0980395409819625
210
0.0
220
0.0
230
-1.0
  0
CIRCLE
  5
101
330
33
100
AcDbEntity
  8
0
100
AcDbCircle
 10
-5.378996620370761
 20
4.52439777231795
 30
0.0
 40
0.0980395409819625
210
0.0
220
0.0
230
-1.0
  0
CIRCLE
  5
102
330
33
100
AcDbEntity
  8
0
100
AcDbCircle
 10
-5.378996620370761
 20
4.52439777231795
 30
0.0
 40
0.0980395409819625
210
0.0
220
0.0
230
-1.0
  0
CIRCLE
  5
103
330
33
100
AcDbEntity
  8
0
100
AcDbCircle
 10
-5.378996620370761
 20
4.753067611698729
 30
0.0
 40
0.0980395409819625
210
0.0
220
0.0
230
-1.0
  0
CIRCLE
  5
104
330
33
100
AcDbEntity
  8
0
100
AcDbCircle
 10
-5.378996620370761
 20
4.753067611698729
 30
0.0
 40
0.0980395409819625
210
0.0
220
0.0
230
-1.0
  0
CIRCLE
  5
105
330
33
100
AcDbEntity
  8
0
100
AcDbCircle
 10
-5.378996620370761
 20
4.753067611698729
 30
0.0
 40
0.0980395409819625
210
0.0
220
0.0
230
-1.0
  0
CIRCLE
  5
106
330
33
100
AcDbEntity
  8
0
100
AcDbCircle
 10
-5.378996620370761
 20
4.753067611698729
 30
0.0
 40
0.0980395409819625
210
0.0
220
0.0
230
-1.0
  0
CIRCLE
  5
107
330
33
100
AcDbEntity
  8
0
100
AcDbCircle
 10
-5.378996620370761
 20
4.753067611698729
 30
0.0
 40
0.0980395409819625
210
0.0
220
0.0
230
-1.0
  0
CIRCLE
  5
108
330
33
100
AcDbEntity
  8
0
100
AcDbCircle
 10
-5.378996620370761
 20
4.753067611698729
 30
0.0
 40
0.0980395409819625
210
0.0
220
0.0
230
-1.0
  0
CIRCLE
  5
109
330
33
100
AcDbEntity
  8
0
100
AcDbCircle
 10
-5.378996620370761
 20
4.753067611698729
 30
0.0
 40
0.0980395409819625
210
0.0
220
0.0
230
-1.0
  0
CIRCLE
  5
10A
330
33
100
AcDbEntity
  8
0
100
AcDbCircle
 10
-5.378996620370761
 20
4.753067611698729
 30
0.0
 40
0.0980395409819625
210
0.0
220
0.0
230
-1.0
  0
CIRCLE
  5
10B
330
33
100
AcDbEntity
  8
0
100
AcDbCircle
 10
-5.378996620370761
 20
4.753067611698729
 30
0.0
 40
0.0980395409819625
210
0.0
220
0.0
230
-1.0
  0
CIRCLE
  5
10C
330
33
100
AcDbEntity
  8
0
100
AcDbCircle
 10
-5.378996620370761
 20
4.753067611698729
 30
0.0
 40
0.0980395409819625
210
0.0
220
0.0
230
-1.0
  0
CIRCLE
  5
10D
330
33
100
AcDbEntity
  8
0
100
AcDbCircle
 10
-5.378996620370761
 20
4.753067611698729
 30
0.0
 40
0.0980395409819625
210
0.0
220
0.0
230
-1.0
  0
CIRCLE
  5
10E
330
33
100
AcDbEntity
  8
0
100
AcDbCircle
 10
-5.378996620370761
 20
4.126916762134382
 30
0.0
 40
0.0980395409819625
210
0.0
220
0.0
230
-1.0
  0
CIRCLE
  5
10F
330
33
100
AcDbEntity
  8
0
100
AcDbCircle
 10
-5.378996620370761
 20
4.126916762134382
 30
0.0
 40
0.0980395409819625
210
0.0
220
0.0
230
-1.0
  0
CIRCLE
  5
110
330
33
100
AcDbEntity
  8
0
100
AcDbCircle
 10
-5.378996620370761
 20
4.126916762134382
 30
0.0
 40
0.0980395409819625
210
0.0
220
0.0
230
-1.0
  0
CIRCLE
  5
111
330
33
100
AcDbEntity
  8
0
100
AcDbCircle
 10
-5.378996620370761
 20
4.126916762134382
 30
0.0
 40
0.0980395409819625
210
0.0
220
0.0
230
-1.0
  0
CIRCLE
  5
112
330
33
100
AcDbEntity
  8
0
100
AcDbCircle
 10
-5.378996620370761
 20
4.126916762134382
 30
0.0
 40
0.0980395409819625
210
0.0
220
0.0
230
-1.0
  0
CIRCLE
  5
113
330
33
100
AcDbEntity
  8
0
100
AcDbCircle
 10
-5.378996620370761
 20
4.126916762134382
 30
0.0
 40
0.0980395409819625
210
0.0
220
0.0
230
-1.0
  0
CIRCLE
  5
114
330
33
100
AcDbEntity
  8
0
100
AcDbCircle
 10
-5.378996620370761
 20
4.126916762134382
 30
0.0
 40
0.0980395409819625
210
0.0
220
0.0
230
-1.0
  0
CIRCLE
  5
115
330
33
100
AcDbEntity
  8
0
100
AcDbCircle
 10
-5.378996620370761
 20
4.126916762134382
 30
0.0
 40
0.0980395409819625
210
0.0
220
0.0
230
-1.0
  0
CIRCLE
  5
116
330
33
100
AcDbEntity
  8
0
100
AcDbCircle
 10
-5.378996620370761
 20
4.126916762134382
 30
0.0
 40
0.0980395409819625
210
0.0
220
0.0
230
-1.0
  0
CIRCLE
  5
117
330
33
100
AcDbEntity
  8
0
100
AcDbCircle
 10
-5.378996620370761
 20
4.126916762134382
 30
0.0
 40
0.0980395409819625
210
0.0
220
0.0
230
-1.0
  0
CIRCLE
  5
118
330
33
100
AcDbEntity
  8
0
100
AcDbCircle
 10
-5.378996620370761
 20
4.126916762134382
 30
0.0
 40
0.0980395409819625
210
0.0
220
0.0
230
-1.0
  0
TEXT
  5
119
330
33
100
AcDbEntity
  8
0
100
AcDbText
 10
-5.35421140557828
 20
4.479588934609369
 30
0.0
 40
0.0888620774192805
  1
2
 50
180.0
 71
     4
210
0.0
220
0.0
230
-1.0
100
AcDbText
  0
TEXT
  5
11A
330
33
100
AcDbEntity
  8
0
100
AcDbText
 10
-5.35421140557828
 20
4.082107924425801
 30
0.0
 40
0.0888620774192805
  1
3
 50
180.0
 71
     4
210
0.0
220
0.0
230
-1.0
100
AcDbText
  0
CIRCLE
  5
11B
330
33
100
AcDbEntity
  8
0
100
AcDbCircle
 10
-5.378996620370761
 20
3.794118267380291
 30
0.0
 40
0.0980395409819625
210
0.0
220
0.0
230
-1.0
  0
CIRCLE
  5
11C
330
33
100
AcDbEntity
  8
0
100
AcDbCircle
 10
-5.378996620370761
 20
3.794118267380291
 30
0.0
 40
0.0980395409819625
210
0.0
220
0.0
230
-1.0
  0
CIRCLE
  5
11D
330
33
100
AcDbEntity
  8
0
100
AcDbCircle
 10
-5.378996620370761
 20
3.794118267380291
 30
0.0
 40
0.0980395409819625
210
0.0
220
0.0
230
-1.0
  0
CIRCLE
  5
11E
330
33
100
AcDbEntity
  8
0
100
AcDbCircle
 10
-5.378996620370761
 20
3.794118267380291
 30
0.0
 40
0.0980395409819625
210
0.0
220
0.0
230
-1.0
  0
CIRCLE
  5
11F
330
33
100
AcDbEntity
  8
0
100
AcDbCircle
 10
-5.378996620370761
 20
3.794118267380291
 30
0.0
 40
0.0980395409819625
210
0.0
220
0.0
230
-1.0
  0
CIRCLE
  5
120
330
33
100
AcDbEntity
  8
0
100
AcDbCircle
 10
-5.378996620370761
 20
3.794118267380291
 30
0.0
 40
0.0980395409819625
210
0.0
220
0.0
230
-1.0
  0
CIRCLE
  5
121
330
33
100
AcDbEntity
  8
0
100
AcDbCircle
 10
-5.378996620370761
 20
3.794118267380291
 30
0.0
 40
0.0980395409819625
210
0.0
220
0.0
230
-1.0
  0
CIRCLE
  5
122
330
33
100
AcDbEntity
  8
0
100
AcDbCircle
 10
-5.378996620370761
 20
3.794118267380291
 30
0.0
 40
0.0980395409819625
210
0.0
220
0.0
230
-1.0
  0
CIRCLE
  5
123
330
33
100
AcDbEntity
  8
0
100
AcDbCircle
 10
-5.378996620370761
 20
3.794118267380291
 30
0.0
 40
0.0980395409819625
210
0.0
220
0.0
230
-1.0
  0
CIRCLE
  5
124
330
33
100
AcDbEntity
  8
0
100
AcDbCircle
 10
-5.378996620370761
 20
3.794118267380291
 30
0.0
 40
0.0980395409819625
210
0.0
220
0.0
230
-1.0
  0
CIRCLE
  5
125
330
33
100
AcDbEntity
  8
0
100
AcDbCircle
 10
-5.378996620370761
 20
3.794118267380291
 30
0.0
 40
0.0980395409819625
210
0.0
220
0.0
230
-1.0
  0
TEXT
  5
126
330
33
100
AcDbEntity
  8
0
100
AcDbText
 10
-5.35421140557828
 20
3.74930942967171
 30
0.0
 40
0.0888620774192805
  1
4
 50
180.0
 71
     4
210
0.0
220
0.0
230
-1.0
100
AcDbText
  0
ARC
  5
127
330
33
100
AcDbEntity
  8
0
100
AcDbCircle
 10
4.276363531390118
 20
4.02953645312493
 30
0.0
 40
0.2572245086918994
100
AcDbArc
 50
275.7261754045106
 51
14.00499625111253
  0
ARC
  5
128
330
33
100
AcDbEntity
  8
0
100
AcDbCircle
 10
4.741570494701207
 20
3.688263144439654
 30
0.0
 40
0.4575223879415167
100
AcDbArc
 50
118.1184666773611
 51
164.2832232115838
  0
ARC
  5
129
330
33
100
AcDbEntity
  8
0
100
AcDbCircle
 10
3.822028092668611
 20
3.757104290935892
 30
0.0
 40
0.482282787373453
100
AcDbArc
 50
353.7343055553095
 51
49.09591154482351
  0
ARC
  5
12A
330
33
100
AcDbEntity
  8
0
100
AcDbCircle
 10
4.907894031717536
 20
4.047040862569006
 30
0.0
 40
0.7736723656053133
100
AcDbArc
 50
174.4685428755256
 51
200.0511708073916
  0
POINT
  5
12B
330
33
100
AcDbEntity
  8
0
100
AcDbPoint
 10
4.295915966956247
 20
3.83485124866886
 30
0.0
  0
POINT
  5
12C
330
33
100
AcDbEntity
  8
0
100
AcDbPoint
 10
4.14889578399006
 20
4.126706842758905
 30
0.0
  0
ARC
  5
12D
330
33
100
AcDbEntity
  8
0
100
AcDbCircle
 10
4.056281017716057
 20
3.91036749107715
 30
0.0
 40
0.4547452697282272
100
AcDbArc
 50
323.4190824324316
 51
351.5061018695616
  0
POINT
  5
12E
330
33
100
AcDbEntity
  8
0
100
AcDbPoint
 10
4.423594796062735
 20
4.019787027582227
 30
0.0
  0
TEXT
  5
12F
330
33
100
AcDbEntity
  8
0
100
AcDbText
 10
-5.370142819598417
 20
4.708258773990147
 30
0.0
 40
0.0888620774192805
  1
1
 50
180.0
 71
     4
210
0.0
220
0.0
230
-1.0
100
AcDbText
  0
TEXT
  5
130
330
33
100
AcDbEntity
  8
0
100
AcDbText
 10
5.555360591030507
 20
4.339421453156429
 30
0.0
 40
0.0684360496240188
  1
16-016
100
AcDbText
  0
ENDBLK
  5
1758
330
33
100
AcDbEntity
  8
0
100
AcDbBlockEnd
  0
BLOCK
  5
1759
330
33D
100
AcDbEntity
  8
0
100
AcDbBlockBegin
  2
A$C73102F95
 70
     0
 10
0.0
 20
0.0
 30
0.0
  3
A$C73102F95
  1

  0
TEXT
  5
33E
330
33D
100
AcDbEntity
  8
0
100
AcDbText
 10
-0.3087257888727351
 20
0.0920977512059817
 30
0.0
 40
0.0888620774192805
  1
10
 50
180.0
 71
     4
210
0.0
220
0.0
230
-1.0
100
AcDbText
  0
CIRCLE
  5
33F
330
33D
100
AcDbEntity
  8
0
100
AcDbCircle
 10
-0.39684117339021
 20
0.1375672617211334
 30
0.0
 40
0.0980395409819625
210
0.0
220
0.0
230
-1.0
  0
LINE
  5
340
330
33D
100
AcDbEntity
  8
0
100
AcDbLine
 10
0.0000000090227408
 20
-0.0000000037256633
 30
0.0
 11
0.3005747860635299
 21
0.119005627444392
 31
0.0
210
0.0
220
0.0
230
-1.0
  0
SOLID
  5
341
330
33D
100
AcDbEntity
  8
0
100
AcDbTrace
 10
-0.0997213807469057
 20
0.0618471438657409
 30
0.0
 11
-0.0000000090227417
 21
-0.0000000037256633
 31
0.0
 12
-0.1143895706833513
 22
0.0261619883016113
 32
0.0
 13
-0.1143895706833513
 23
0.0261619883016113
 33
0.0
210
0.0
220
0.0
230
-1.0
  0
ENDBLK
  5
175A
330
33D
100
AcDbEntity
  8
0
100
AcDbBlockEnd
  0
BLOCK
  5
175B
330
4C6
100
AcDbEntity
  8
0
100
AcDbBlockBegin
  2
A$C2E7D3BBB
 70
     0
 10
0.0
 20
0.0
 30
0.0
  3
A$C2E7D3BBB
  1

  0
LINE
  5
4C7
330
4C6
100
AcDbEntity
  8
0
100
AcDbLine
 10
1.389203700159665
 20
1.406198802593307
 30
0.0
 11
1.525369903644106
 21
1.406198802593306
 31
0.0
  0
LINE
  5
4C8
330
4C6
100
AcDbEntity
  8
0
100
AcDbLine
 10
1.726842320542346
 20
1.448380403227189
 30
0.0
 11
1.368112899842724
 21
1.448380403227189
 31
0.0
  0
LINE
  5
4C9
330
4C6
100
AcDbEntity
  8
0
100
AcDbLine
 10
1.368112899842724
 20
1.30645932527691
 30
0.0
 11
1.726842320542346
 21
1.306459325276909
 31
0.0
  0
HATCH
  5
4CA
330
4C6
100
AcDbEntity
  8
0
100
AcDbHatch
 10
0.0
 20
0.0
 30
0.0
210
0.0
220
0.0
230
1.0
  2
AR-CONC
 70
     0
 71
     1
 91
        2
 92
        7
 72
     1
 73
     1
 93
      206
 10
0.9763356630689453
 20
0.4157402203071792
 42
0.0
 10
0.9763356630689453
 20
0.4196256473648967
 42
0.0
 10
0.929658257913311
 20
0.4196256473648958
 42
0.0
 10
0.9296582579133101
 20
0.4235110689045545
 42
0.0
 10
0.8635319347851098
 20
0.4235110689045545
 42
0.0
 10
0.8635319347851098
 20
0.4273964904442122
 42
0.0
 10
0.7935158321053288
 20
0.4273964904442122
 42
0.0
 10
0.7935158321053271
 20
0.4312819119838709
 42
0.0
 10
0.711532690178907
 20
0.4312819119838709
 42
-0.0405295014900261
 10
0.7047055078021485
 20
0.4312819119838709
 42
0.0
 10
0.2878439749258757
 20
0.4312819119838718
 42
0.0
 10
0.2878439749258757
 20
0.4273964904442122
 42
0.0
 10
0.1322526311453247
 20
0.4273964904442131
 42
0.0
 10
0.1322526311453229
 20
0.4312819119838709
 42
0.0
 10
0.1166934927243304
 20
0.4312819119838718
 42
0.0
 10
0.1166934927243313
 20
0.4273964904442114
 42
0.0
 10
0.1011343644106821
 20
0.4273964904442122
 42
0.0
 10
0.1011343644106812
 20
0.4235110689045563
 42
0.0
 10
0.0933547952001863
 20
0.4235110689045563
 42
0.0
 10
0.0933547952001863
 20
0.4157402203071792
 42
0.0
 10
0.0855752259896896
 20
0.4157402203071792
 42
0.0
 10
0.0855752259896887
 20
0.4118547987675205
 42
0.0
 10
0.0777956668865327
 20
0.4118547987675214
 42
0.0
 10
0.0777956668865336
 20
0.4040839556882068
 42
0.0
 10
0.0700160976760378
 20
0.4040839556882077
 42
0.0
 10
0.0700160976760396
 20
0.3963131070908306
 42
0.0
 10
0.0622365284655428
 20
0.3963131070908279
 42
0.0
 10
0.0622365284655446
 20
0.3924276855511728
 42
0.0
 10
0.054456959255047
 20
0.3924276855511719
 42
0.0
 10
0.054456959255047
 20
0.3691151507951673
 42
0.0
 10
0.0466773900445512
 20
0.3691151507951673
 42
0.0
 10
0.0466773900445512
 20
0.3458026160391601
 42
0.0
 10
0.0427876104929732
 20
0.3458026160391601
 42
0.0
 10
0.0427876104929723
 20
0.338031767441783
 42
0.0
 10
0.038897830941397
 20
0.338031767441783
 42
0.0
 10
0.038897830941397
 20
0.3224900812831528
 42
0.0
 10
0.0350080412824765
 20
0.3224900812831528
 42
0.0
 10
0.0350080412824783
 20
0.3108338111461197
 42
0.0
 10
0.0311182617309012
 20
0.3108338111461197
 42
0.0
 10
0.0311182617309012
 20
0.2991775410090849
 42
0.0
 10
0.0233386925204062
 20
0.2991775410090849
 42
0.0
 10
0.0233386925204062
 20
0.2875212763901125
 42
0.0
 10
0.0194489129688264
 20
0.2875212763901125
 42
0.0
 10
0.0194489129688273
 20
0.2719795847134217
 42
0.0
 10
0.0116693437583324
 20
0.2719795847134217
 42
0.0
 10
0.0116693437583333
 20
0.2564378930367317
 42
0.0
 10
0.0077795540994119
 20
0.2564378930367308
 42
0.0
 10
0.0077795540994119
 20
0.2486670499574153
 42
0.0
 10
0.0038897745478348
 20
0.2486670499574162
 42
0.0
 10
0.0038897745478348
 20
0.2408962068781006
 42
0.0
 10
-0.0000000050037414
 20
0.2408962068781006
 42
0.0
 10
-0.0000000050037414
 20
0.1204481005222888
 42
0.0
 10
0.0038897745478348
 20
0.1204481005222888
 42
0.0
 10
0.0038897745478348
 20
0.1049064143636587
 42
0.0
 10
0.0077795540994119
 20
0.1049064143636578
 42
0.0
 10
0.0077795540994128
 20
0.0971355657662825
 42
0.0
 10
0.0155591233099077
 20
0.0971355657662825
 42
0.0
 10
0.0155591233099077
 20
0.0854793011473092
 42
0.0
 10
0.0233386925204053
 20
0.0854793011473101
 42
0.0
 10
0.0233386925204044
 20
0.0777084525499321
 42
0.0
 10
0.0311182617309003
 20
0.077708452549933
 42
0.0
 10
0.0311182617309003
 20
0.0738230310102761
 42
0.0
 10
0.0388978309413952
 20
0.073823031010277
 42
0.0
 10
0.0388978309413943
 20
0.0699376094706174
 42
0.0
 10
0.0933547952001845
 20
0.0699376094706174
 42
0.0
 10
0.0933547952001845
 20
0.0738230310102761
 42
0.0
 10
0.1050241439622557
 20
0.0738230310102761
 42
0.0
 10
0.1050241439622566
 20
0.077708452549933
 42
0.0
 10
0.2333870005597438
 20
0.077708452549933
 42
0.0
 10
0.2333870005597438
 20
0.073823031010277
 42
0.0
 10
0.2411665697702388
 20
0.073823031010277
 42
0.0
 10
0.2411665697702396
 20
0.0699376094706174
 42
0.0
 10
0.2567257081912304
 20
0.0699376094706174
 42
0.0
 10
0.2567257081912304
 20
0.0660521879309606
 42
0.0
 10
0.272284836504884
 20
0.0660521879309606
 42
0.0
 10
0.272284836504884
 20
0.0621667663913028
 42
0.0
 10
0.2839541852669569
 20
0.0621667663913028
 42
0.0
 10
0.2839541852669569
 20
0.0582813393335861
 42
0.0
 10
0.3034031032395248
 20
0.0582813393335853
 42
0.0
 10
0.3034031032395257
 20
0.0543959177939266
 42
0.0
 10
0.3189622416605165
 20
0.0543959177939275
 42
0.0
 10
0.3189622416605165
 20
0.050510496254268
 42
0.0
 10
0.3384111596330861
 20
0.0505104962542688
 42
0.0
 10
0.3384111596330852
 20
0.0466250747146111
 42
0.0
 10
0.353970298054076
 20
0.0466250747146111
 42
0.0
 10
0.353970298054076
 20
0.0427396531749533
 42
0.0
 10
0.3734192059193058
 20
0.0427396531749533
 42
0.0
 10
0.3734192059193058
 20
0.0388542261172349
 42
0.0
 10
0.3850885647887186
 20
0.0388542261172349
 42
0.0
 10
0.3850885647887177
 20
0.034968804577578
 42
0.0
 10
0.4940025034136362
 20
0.034968804577578
 42
0.0
 10
0.4940025034136371
 20
0.0388542261172349
 42
0.0
 10
0.5290105496998585
 20
0.0388542261172349
 42
0.0
 10
0.5290105496998585
 20
0.0427396531749533
 42
0.0
 10
0.5601288164345011
 20
0.0427396531749533
 42
0.0
 10
0.560128816434502
 20
0.046625074714612
 42
0.0
 10
0.5717981753039139
 20
0.046625074714612
 42
0.0
 10
0.571798175303913
 20
0.0505104962542688
 42
0.0
 10
0.719609949873969
 20
0.050510496254268
 42
0.0
 10
0.7196099498739708
 20
0.0466250747146111
 42
0.0
 10
0.7662873449222634
 20
0.0466250747146111
 42
0.0
 10
0.7662873449222616
 20
0.0427396531749533
 42
0.0
 10
0.9218786887028152
 20
0.0427396531749533
 42
0.0
 10
0.9218786887028161
 20
0.0388542261172349
 42
0.0
 10
0.9646663041995298
 20
0.0388542261172349
 42
0.0
 10
0.9646663041995307
 20
0.034968804577578
 42
0.0
 10
1.023013058117236
 20
0.0349688045775771
 42
0.0
 10
1.023013058117236
 20
0.0310833830379202
 42
0.0
 10
1.4742279510379
 20
0.0310833830379202
 42
0.0
 10
1.4742279510379
 20
0.0271979614982616
 42
0.0
 10
1.524795135745112
 20
0.0271979614982616
 42
0.0
 10
1.524795135745113
 20
0.0233125399586065
 42
0.0
 10
1.629819294818454
 20
0.0233125399586056
 42
0.0
 10
1.629819294818454
 20
0.0194271129008863
 42
0.0
 10
1.637598864028947
 20
0.0194271129008863
 42
0.0
 10
1.637598864028947
 20
0.0155416913612285
 42
0.0
 10
1.6531579923426
 20
0.0155416913612285
 42
0.0
 10
1.6531579923426
 20
0.0077708482819139
 42
0.0
 10
1.676496689866748
 20
0.0077708482819139
 42
0.0
 10
1.676496689866748
 20
0.003885426742257
 42
0.0
 10
1.692055828287739
 20
0.0038854267422561
 42
0.0
 10
1.69205582828774
 20
-0.0000000003154641
 42
0.0
 10
1.820418684885227
 20
-0.0000000003154623
 42
0.0
 10
1.820418684885226
 20
0.003885426742257
 42
0.0
 10
1.882655218354512
 20
0.003885426742257
 42
0.0
 10
1.882655218354513
 20
0.0077708482819139
 42
0.0
 10
1.917663274748072
 20
0.0077708482819139
 42
0.0
 10
1.917663274748072
 20
0.0116562698215708
 42
0.0
 10
1.941001972272218
 20
0.0116562698215708
 42
0.0
 10
1.941001972272218
 20
0.0155416913612285
 42
0.0
 10
1.948781541482713
 20
0.0155416913612285
 42
0.0
 10
1.948781541482713
 20
0.0194271129008863
 42
0.0
 10
2.419445352375947
 20
0.0194271129008863
 42
0.0
 10
2.419445352375947
 20
0.0233125399586056
 42
0.0
 10
2.462232967872662
 20
0.0233125399586056
 42
0.0
 10
2.462232967872662
 20
0.0271979614982625
 42
0.0
 10
2.477792106293652
 20
0.0271979614982625
 42
0.0
 10
2.477792106293652
 20
0.0310833830379202
 42
0.0
 10
2.489461455055729
 20
0.0310833830379202
 42
0.0
 10
2.489461455055729
 20
0.0349688045775789
 42
0.0
 10
2.516689942238791
 20
0.0349688045775789
 42
0.0
 10
2.516689942238791
 20
0.0427396531749533
 42
0.0
 10
2.532249070552444
 20
0.0427396531749533
 42
0.0
 10
2.532249070552444
 20
0.0466250747146111
 42
0.0
 10
2.543918419314515
 20
0.0466250747146111
 42
0.0
 10
2.543918419314515
 20
0.0505104962542688
 42
0.0
 10
2.559477557735509
 20
0.0505104962542688
 42
0.0
 10
2.559477557735509
 20
0.0582813393335861
 42
0.0
 10
2.57114690649758
 20
0.0582813393335853
 42
0.0
 10
2.571146906497582
 20
0.0621667663913037
 42
0.0
 10
2.578926475708077
 20
0.0621667663913037
 42
0.0
 10
2.578926475708077
 20
0.0699376094706174
 42
0.0
 10
2.590595824470149
 20
0.0699376094706174
 42
0.0
 10
2.590595824470149
 20
0.0777084525499312
 42
0.0
 10
2.602265173232224
 20
0.0777084525499321
 42
0.0
 10
2.602265173232224
 20
0.0854793011473083
 42
0.0
 10
2.613934521994299
 20
0.0854793011473083
 42
0.0
 10
2.613934521994297
 20
0.089364722686966
 42
0.0
 10
2.621714091204792
 20
0.089364722686966
 42
0.0
 10
2.621714091204792
 20
0.0971355657662816
 42
0.0
 10
2.629493660415289
 20
0.0971355657662816
 42
0.0
 10
2.629493660415287
 20
0.1049064143636578
 42
0.0
 10
2.641163009177362
 20
0.1049064143636578
 42
0.0
 10
2.641163009177363
 20
0.1126772574429733
 42
0.0
 10
2.64894257838786
 20
0.1126772574429733
 42
0.0
 10
2.648942578387855
 20
0.1204481005222879
 42
0.0
 10
2.656722147598352
 20
0.1204481005222879
 42
0.0
 10
2.65672214759835
 20
0.1243335275800064
 42
0.0
 10
2.66061192714993
 20
0.1243335275800073
 42
0.0
 10
2.66061192714993
 20
0.1359897921989814
 42
0.0
 10
2.66450171680885
 20
0.1359897921989797
 42
0.0
 10
2.66450171680885
 20
0.1515314838756714
 42
0.0
 10
2.676171065570921
 20
0.1515314838756714
 42
0.0
 10
2.676171065570919
 20
0.159302326954986
 42
0.0
 10
2.680060845122501
 20
0.159302326954986
 42
0.0
 10
2.680060845122501
 20
0.17095859709202
 42
0.0
 10
2.687840414332994
 20
0.17095859709202
 42
0.0
 10
2.687840414332994
 20
0.1865002887687108
 42
0.0
 10
2.695619983543489
 20
0.1865002887687108
 42
0.0
 10
2.695619983543489
 20
0.3186046542254353
 42
0.0
 10
2.691730193884572
 20
0.3186046542254344
 42
0.0
 10
2.691730193884572
 20
0.388542264011515
 42
0.0
 10
2.687840414332996
 20
0.388542264011515
 42
0.0
 10
2.687840414332994
 20
0.400198534148549
 42
0.0
 10
2.676171065570919
 20
0.400198534148549
 42
0.0
 10
2.676171065570921
 20
0.4157402203071792
 42
0.0
 10
2.66450171680885
 20
0.4157402203071774
 42
0.0
 10
2.66450171680885
 20
0.4273964904442122
 42
0.0
 10
2.248294870174405
 20
0.4273964904442131
 42
0.0
 10
2.248294870174407
 20
0.4235110689045554
 42
0.0
 10
2.069364828869707
 20
0.4235110689045554
 42
0.0
 10
2.069364828869707
 20
0.4196256473648958
 42
0.0
 10
2.038246562135063
 20
0.4196256473648967
 42
0.0
 10
2.038246562135063
 20
0.4157402203071783
 42
0.0
 10
2.011018074952001
 20
0.4157402203071792
 42
0.0
 10
2.011018074952
 20
0.4118547987675214
 42
0.0
 10
1.999348726189927
 20
0.4118547987675196
 42
0.0
 10
1.999348726189928
 20
0.4064725151375015
 42
0.0
 10
2.328839895443602
 20
0.4064725151375006
 42
0.0
 10
2.328839895443602
 20
0.2103733732637867
 42
0.0
 10
1.920685854217046
 20
0.2103733732637867
 42
0.0
 10
1.920685854217045
 20
0.4079693772278628
 42
0.0
 10
1.839867602857796
 20
0.4079693772278645
 42
0.0
 10
1.839867602857796
 20
0.4118547987675205
 42
0.0
 10
1.74262301299495
 20
0.4118547987675196
 42
0.0
 10
1.74262301299495
 20
0.4157402203071783
 42
0.0
 97
        6
330
513
330
4D5
330
4F9
330
4FB
330
4F8
330
4FA
 92
       22
 72
     0
 73
     1
 93
        4
 10
0.8155399454684016
 20
0.2103733732637858
 10
0.4073859042418446
 20
0.2103733732637876
 10
0.4073859042418455
 20
0.4064725151375015
 10
0.8155399454684025
 20
0.4064725151375015
 97
        4
330
4CE
330
4D1
330
4CD
330
4D2
 75
     0
 76
     1
 52
-0.0000000000000127
 41
0.2990360829699634
 77
     0
 78
    13
 53
49.99999999999998
 43
-5.151383610894985
 44
-0.6706960633734288
 45
2.1448667547525
 46
-0.1876515264319772
 79
     2
 49
0.2242770622274725
 49
-2.467047684502198
 53
355.0
 43
-5.151383610894985
 44
-0.6706960633734288
 45
-0.4149165531049008
 46
2.249325893024706
 79
     2
 49
0.179421649781978
 49
-1.973638147601759
 53
100.4513999999999
 43
-4.972644720297644
 44
-0.68633367687461
 45
1.729951794691365
 46
2.061673001025129
 79
     2
 49
0.1906061674536118
 49
-2.096667907777669
 53
46.18419999999998
 43
-5.151383610894985
 44
-0.0726238974335018
 45
3.19143582765769
 46
-0.4949615770199886
 79
     2
 49
0.3364155933412088
 49
-3.700571526753297
 53
96.63559999999997
 43
-4.885430652325999
 44
-0.1138708623983238
 45
2.794978743653926
 46
2.912963924651085
 79
     2
 49
0.2859092601515001
 49
-3.145001359285879
 53
351.1842
 43
-5.151383610894985
 44
-0.0726238974335018
 45
2.794976469738466
 46
2.9129661076889
 79
     2
 49
0.2691324746729668
 49
-2.960457221402636
 53
20.99999999999995
 43
-4.852347527925021
 44
-0.2221419389184831
 45
1.784967467626525
 46
-1.203975759942749
 79
     2
 49
0.2242770622274725
 49
-2.467047684502198
 53
326.0
 43
-4.852347527925021
 44
-0.2221419389184831
 45
0.7276006378436635
 46
2.168460290363034
 79
     2
 49
0.179421649781978
 49
-1.973638147601758
 53
71.45139999999996
 43
-4.703600302780028
 44
-0.3224733472743982
 45
2.512568836737351
 46
0.9644825637450076
 79
     2
 49
0.1906061674536123
 49
-2.096667907777673
 53
37.49999999999999
 43
-5.151383610894985
 44
-0.6706960633734288
 45
0.0363623550356412
 46
0.9954727409449092
 79
     6
 49
0.0
 49
-1.94971526096416
 49
0.0
 49
-2.003541755898753
 49
0.0
 49
-1.981114049676006
 53
7.499999999999979
 43
-5.151383610894985
 44
-0.6706960633734288
 45
0.7866728402542033
 46
1.179433333987788
 79
     6
 49
0.0
 49
-1.14231783694526
 49
0.0
 49
-1.904859848518667
 49
0.0
 49
-0.7550661094991573
 53
327.5
 43
-5.818234075918003
 44
-0.6706960633734289
 45
1.596321703144806
 46
-0.0674472049533895
 79
     6
 49
0.0
 49
-0.7475902074249084
 49
0.0
 49
-2.332481447165714
 49
0.0
 49
-3.095023458739121
 53
317.4999999999999
 43
-6.117270158887967
 44
-0.6706960633734287
 45
1.743937077224049
 46
0.299350018024336
 79
     6
 49
0.0
 49
-0.9718672696523811
 49
0.0
 49
-1.54900690978441
 49
0.0
 49
-2.19791520982923
 47
0.0
 98
        6
 10
0.0
 20
0.0
 10
0.0
 20
0.0
 10
0.0
 20
0.0
 10
0.0
 20
0.0
 10
1.601836990757834
 20
0.250204126209562
 10
1.601836990757834
 20
0.250204126209562
  0
LINE
  5
4CB
330
4C6
100
AcDbEntity
  8
0
 62
     7
100
AcDbLine
 10
0.9464492727769347
 20
1.410509071943279
 30
0.0
 11
0.8565391005807097
 21
0.978958685931369
 31
0.0
210
0.0
220
0.0
230
-1.0
  0
LINE
  5
4CC
330
4C6
100
AcDbEntity
  8
0
 62
     7
100
AcDbLine
 10
0.9256966670446527
 20
1.414270881790877
 30
0.0
 11
0.8352797239038097
 21
0.9802908370144312
 31
0.0
210
0.0
220
0.0
230
-1.0
  0
LINE
  5
4CD
102
{ACAD_REACTORS
330
4CA
330
512
102
}
330
4C6
100
AcDbEntity
  8
0
 62
     7
100
AcDbLine
 10
0.8155399454684016
 20
0.4064725151375015
 30
0.0
 11
0.4073859042418455
 21
0.4064725151375015
 31
0.0
210
0.0
220
0.0
230
-1.0
  0
LINE
  5
4CE
102
{ACAD_REACTORS
330
4CA
330
512
102
}
330
4C6
100
AcDbEntity
  8
0
 62
     7
100
AcDbLine
 10
0.8155399454684016
 20
0.2103733732637867
 30
0.0
 11
0.4073859042418455
 21
0.2103733732637867
 31
0.0
210
0.0
220
0.0
230
-1.0
  0
LINE
  5
4CF
330
4C6
100
AcDbEntity
  8
0
 62
     7
100
AcDbLine
 10
0.8155399454684016
 20
0.4064725151375015
 30
0.0
 11
0.4073859042418455
 21
0.2103733732637867
 31
0.0
210
0.0
220
0.0
230
-1.0
  0
LINE
  5
4D0
330
4C6
100
AcDbEntity
  8
0
 62
     7
100
AcDbLine
 10
0.4073859042418455
 20
0.4064725151375015
 30
0.0
 11
0.8155399454684016
 21
0.2103733732637867
 31
0.0
210
0.0
220
0.0
230
-1.0
  0
LINE
  5
4D1
102
{ACAD_REACTORS
330
4CA
330
512
102
}
330
4C6
100
AcDbEntity
  8
0
 62
     7
100
AcDbLine
 10
0.4073859042418455
 20
0.4064725151375015
 30
0.0
 11
0.4073859042418455
 21
0.2103733732637867
 31
0.0
210
0.0
220
0.0
230
-1.0
  0
LINE
  5
4D2
102
{ACAD_REACTORS
330
4CA
330
512
102
}
330
4C6
100
AcDbEntity
  8
0
 62
     7
100
AcDbLine
 10
0.8155399454684016
 20
0.4064725151375015
 30
0.0
 11
0.8155399454684016
 21
0.2103733732637867
 31
0.0
210
0.0
220
0.0
230
-1.0
  0
LINE
  5
4D3
330
4C6
100
AcDbEntity
  8
0
 62
     7
100
AcDbLine
 10
0.8352797239038097
 20
0.9802908370144312
 30
0.0
 11
0.7906971562406779
 21
0.7663050060562275
 31
0.0
210
0.0
220
0.0
230
-1.0
  0
LINE
  5
4D4
330
4C6
100
AcDbEntity
  8
0
 62
     7
100
AcDbLine
 10
0.8565391005807097
 20
0.978958685931369
 30
0.0
 11
0.8122343575067248
 21
0.7663050060562266
 31
0.0
210
0.0
220
0.0
230
-1.0
  0
ARC
  5
4D5
102
{ACAD_REACTORS
330
4CA
330
512
102
}
330
4C6
100
AcDbEntity
  8
0
 62
     7
100
AcDbCircle
 10
-0.7081190989905277
 20
0.4733251614685958
 30
0.0
 40
0.042181600633881
210
0.0
220
0.0
230
-1.0
100
AcDbArc
 50
190.4069068187765
 51
353.2490412413074
  0
ARC
  5
4D6
330
4C6
100
AcDbEntity
  8
0
 62
     7
100
AcDbCircle
 10
-0.7081190989905277
 20
0.4733251614685958
 30
0.0
 40
0.0210908003169405
210
0.0
220
0.0
230
-1.0
100
AcDbArc
 50
190.4069068187765
 51
0.1325067917468024
  0
LINE
  5
4D7
330
4C6
100
AcDbEntity
  8
0
 62
     7
100
AcDbLine
 10
0.6662299649062753
 20
0.468366544957135
 30
0.0
 11
0.6870283550755083
 21
0.473373937692914
 31
0.0
210
0.0
220
0.0
230
-1.0
  0
LINE
  5
4D8
330
4C6
100
AcDbEntity
  8
0
 62
     7
100
AcDbLine
 10
0.7615491232745022
 20
0.626401308669541
 30
0.0
 11
0.7288629493714307
 21
0.4695153675917805
 31
0.0
210
0.0
220
0.0
230
-1.0
  0
LINE
  5
4D9
330
4C6
100
AcDbEntity
  8
0
 62
     7
100
AcDbLine
 10
0.7830865084243257
 20
0.6264013086695401
 30
0.0
 11
0.7496067997523452
 21
0.4657055737150326
 31
0.0
210
0.0
220
0.0
230
-1.0
  0
ARC
  5
4DA
330
4C6
100
AcDbEntity
  8
0
 62
     7
100
AcDbCircle
 10
-0.9672018785092176
 20
1.406747262095683
 30
0.0
 40
0.0210908003169405
210
0.0
220
0.0
230
-1.0
100
AcDbArc
 50
10.27440002702978
 51
179.9999999999999
  0
ARC
  5
4DB
330
4C6
100
AcDbEntity
  8
0
 62
     7
100
AcDbCircle
 10
-0.9672018785092176
 20
1.406747262095683
 30
0.0
 40
0.042181600633881
210
0.0
220
0.0
230
-1.0
100
AcDbArc
 50
10.27440002702978
 51
180.0
  0
LINE
  5
4DC
330
4C6
100
AcDbEntity
  8
0
100
AcDbLine
 10
1.009383479143102
 20
1.448380403227189
 30
0.0
 11
1.368112899842724
 21
1.448380403227189
 31
0.0
  0
ARC
  5
4DD
330
4C6
100
AcDbEntity
  8
0
 62
     7
100
AcDbCircle
 10
-1.1897650957244
 20
1.327562026663841
 30
0.0
 40
0.0210908003169405
210
0.0
220
0.0
230
-1.0
100
AcDbArc
 50
180.0
 51
0.0
  0
LINE
  5
4DE
330
4C6
100
AcDbEntity
  8
0
100
AcDbLine
 10
1.368112899842724
 20
1.30645932527691
 30
0.0
 11
1.009383479143102
 21
1.306459325276909
 31
0.0
  0
LINE
  5
4DF
330
4C6
100
AcDbEntity
  8
0
 62
     7
100
AcDbLine
 10
1.009383479143102
 20
1.407102782223982
 30
0.0
 11
1.009383479143102
 21
1.30645932527691
 31
0.0
210
0.0
220
0.0
230
-1.0
  0
LINE
  5
4E0
330
4C6
100
AcDbEntity
  8
0
 62
     7
100
AcDbLine
 10
1.009383479143102
 20
1.406747262095683
 30
0.0
 11
1.009383479143102
 21
1.30645932527691
 31
0.0
210
0.0
220
0.0
230
-1.0
  0
LINE
  5
4E1
330
4C6
100
AcDbEntity
  8
0
 62
     7
100
AcDbLine
 10
0.9882926788261592
 20
1.406747262095683
 30
0.0
 11
0.9882926788261592
 21
1.30645932527691
 31
0.0
210
0.0
220
0.0
230
-1.0
  0
LINE
  5
4E2
330
4C6
100
AcDbEntity
  8
0
 62
     7
100
AcDbLine
 10
1.168674295407461
 20
1.406198802593307
 30
0.0
 11
1.168674295407461
 21
1.327562026663841
 31
0.0
210
0.0
220
0.0
230
-1.0
  0
LINE
  5
4E3
330
4C6
100
AcDbEntity
  8
0
 62
     7
100
AcDbLine
 10
1.009383479143102
 20
1.448380403227189
 30
0.0
 11
1.009383479143102
 21
1.30645932527691
 31
0.0
210
0.0
220
0.0
230
-1.0
  0
LINE
  5
4E4
330
4C6
100
AcDbEntity
  8
0
 62
     7
100
AcDbLine
 10
1.009383479143102
 20
1.285368524959967
 30
0.0
 11
1.009383479143102
 21
1.285368524959967
 31
0.0
210
0.0
220
0.0
230
-1.0
  0
ARC
  5
4E5
330
4C6
100
AcDbEntity
  8
0
 62
     7
100
AcDbCircle
 10
-1.009383479143102
 20
1.285368524959969
 30
0.0
 40
0.0210908003169405
210
0.0
220
0.0
230
-1.0
100
AcDbArc
 50
90.0
 51
180.0
  0
ARC
  5
4E6
330
4C6
100
AcDbEntity
  8
0
 62
     7
100
AcDbCircle
 10
-1.009383479143102
 20
1.30645932527691
 30
0.0
 40
0.0210908003169405
210
0.0
220
0.0
230
-1.0
100
AcDbArc
 50
270.0
 51
0.0
  0
LINE
  5
4E7
330
4C6
100
AcDbEntity
  8
0
 62
     7
100
AcDbLine
 10
1.009383479143102
 20
1.264277724643026
 30
0.0
 11
1.030474279460041
 21
1.264277724643026
 31
0.0
210
0.0
220
0.0
230
-1.0
  0
LINE
  5
4E8
330
4C6
100
AcDbEntity
  8
0
 62
     7
100
AcDbLine
 10
1.030474279460041
 20
1.285368524959967
 30
0.0
 11
1.030474279460041
 21
1.264277724643026
 31
0.0
210
0.0
220
0.0
230
-1.0
  0
LINE
  5
4E9
330
4C6
100
AcDbEntity
  8
0
 62
     7
100
AcDbLine
 10
1.009383479143102
 20
1.285368524959967
 30
0.0
 11
1.009383479143102
 21
1.264277724643026
 31
0.0
210
0.0
220
0.0
230
-1.0
  0
LINE
  5
4EA
330
4C6
100
AcDbEntity
  8
0
100
AcDbLine
 10
1.168674295407461
 20
1.406198802593306
 30
0.0
 11
1.009383479143102
 21
1.406198802593306
 31
0.0
  0
LINE
  5
4EB
330
4C6
100
AcDbEntity
  8
0
 62
     7
100
AcDbLine
 10
1.009383479143102
 20
1.342926401642485
 30
0.0
 11
1.009383479143102
 21
1.342926401642485
 31
0.0
210
0.0
220
0.0
230
-1.0
  0
LINE
  5
4EC
330
4C6
100
AcDbEntity
  8
0
 62
     7
100
AcDbLine
 10
1.389203700159665
 20
1.406198802593307
 30
0.0
 11
1.389203700159665
 21
1.327550125593849
 31
0.0
210
0.0
220
0.0
230
-1.0
  0
LINE
  5
4ED
330
4C6
100
AcDbEntity
  8
0
 62
     7
100
AcDbLine
 10
1.210855896041341
 20
1.406198802593307
 30
0.0
 11
1.210855896041341
 21
1.327562026663841
 31
0.0
210
0.0
220
0.0
230
-1.0
  0
LINE
  5
4EE
330
4C6
100
AcDbEntity
  8
0
 62
     7
100
AcDbLine
 10
1.347022099525783
 20
1.406198802593307
 30
0.0
 11
1.347022099525783
 21
1.327550125593849
 31
0.0
210
0.0
220
0.0
230
-1.0
  0
LINE
  5
4EF
330
4C6
100
AcDbEntity
  8
0
 62
     7
100
AcDbLine
 10
1.226689937798903
 20
1.30645932527691
 30
0.0
 11
1.226689937798903
 21
1.30645932527691
 31
0.0
210
0.0
220
0.0
230
-1.0
  0
ARC
  5
4F0
330
4C6
100
AcDbEntity
  8
0
 62
     7
100
AcDbCircle
 10
-1.368112899842725
 20
1.327550125593848
 30
0.0
 40
0.0210908003169405
210
0.0
220
0.0
230
-1.0
100
AcDbArc
 50
180.0
 51
269.9999999999986
  0
ARC
  5
4F1
330
4C6
100
AcDbEntity
  8
0
 62
     7
100
AcDbCircle
 10
-1.368112899842723
 20
1.327550125593848
 30
0.0
 40
0.0210908003169405
210
0.0
220
0.0
230
-1.0
100
AcDbArc
 50
270.0000000000014
 51
0.0
  0
LINE
  5
4F2
330
4C6
100
AcDbEntity
  8
0
100
AcDbLine
 10
1.347022099525783
 20
1.406198802593307
 30
0.0
 11
1.210855896041342
 21
1.406198802593306
 31
0.0
  0
LINE
  5
4F3
330
4C6
100
AcDbEntity
  8
0
 62
     7
100
AcDbLine
 10
1.789776526908513
 20
1.410509071943279
 30
0.0
 11
1.879686699104738
 21
0.9676813368804869
 31
0.0
210
0.0
220
0.0
230
-1.0
  0
LINE
  5
4F4
330
4C6
100
AcDbEntity
  8
0
 62
     7
100
AcDbLine
 10
1.810529132640795
 20
1.414270881790877
 30
0.0
 11
1.900946075781638
 21
0.969013487963549
 31
0.0
210
0.0
220
0.0
230
-1.0
  0
ARC
  5
4F5
330
4C6
100
AcDbEntity
  8
0
 62
     7
100
AcDbCircle
 10
-2.02810670069492
 20
0.4620478124177136
 30
0.0
 40
0.042181600633881
210
0.0
220
0.0
230
-1.0
100
AcDbArc
 50
186.7509587586927
 51
349.5930931812235
  0
LINE
  5
4F6
330
4C6
100
AcDbEntity
  8
0
 62
     7
100
AcDbLine
 10
2.328839895443602
 20
0.4064725151375015
 30
0.0
 11
1.920685854217046
 21
0.2103733732637867
 31
0.0
210
0.0
220
0.0
230
-1.0
  0
LINE
  5
4F7
330
4C6
100
AcDbEntity
  8
0
 62
     7
100
AcDbLine
 10
1.920685854217046
 20
0.4064725151375015
 30
0.0
 11
2.328839895443602
 21
0.2103733732637867
 31
0.0
210
0.0
220
0.0
230
-1.0
  0
LINE
  5
4F8
102
{ACAD_REACTORS
330
4CA
330
512
102
}
330
4C6
100
AcDbEntity
  8
0
 62
     7
100
AcDbLine
 10
1.920685854217046
 20
0.2103733732637867
 30
0.0
 11
2.328839895443602
 21
0.2103733732637867
 31
0.0
210
0.0
220
0.0
230
-1.0
  0
LINE
  5
4F9
102
{ACAD_REACTORS
330
4CA
330
512
102
}
330
4C6
100
AcDbEntity
  8
0
 62
     7
100
AcDbLine
 10
1.920685854217046
 20
0.4064725151375015
 30
0.0
 11
2.328839895443602
 21
0.4064725151375015
 31
0.0
210
0.0
220
0.0
230
-1.0
  0
LINE
  5
4FA
102
{ACAD_REACTORS
330
4CA
330
512
102
}
330
4C6
100
AcDbEntity
  8
0
 62
     7
100
AcDbLine
 10
1.920685854217046
 20
0.4064725151375015
 30
0.0
 11
1.920685854217046
 21
0.2103733732637867
 31
0.0
210
0.0
220
0.0
230
-1.0
  0
LINE
  5
4FB
102
{ACAD_REACTORS
330
4CA
330
512
102
}
330
4C6
100
AcDbEntity
  8
0
 62
     7
100
AcDbLine
 10
2.328839895443602
 20
0.4064725151375015
 30
0.0
 11
2.328839895443602
 21
0.2103733732637867
 31
0.0
210
0.0
220
0.0
230
-1.0
  0
LINE
  5
4FC
330
4C6
100
AcDbEntity
  8
0
 62
     7
100
AcDbLine
 10
1.900946075781638
 20
0.969013487963549
 30
0.0
 11
2.007362850314017
 21
0.4582380185409054
 31
0.0
210
0.0
220
0.0
230
-1.0
  0
LINE
  5
4FD
330
4C6
100
AcDbEntity
  8
0
 62
     7
100
AcDbLine
 10
1.879686699104738
 20
0.9676813368804869
 30
0.0
 11
1.98661899993311
 21
0.454428224664122
 31
0.0
210
0.0
220
0.0
230
-1.0
  0
LINE
  5
4FE
330
4C6
100
AcDbEntity
  8
0
 62
     7
100
AcDbLine
 10
2.069995834779172
 20
0.4570891959062529
 30
0.0
 11
2.049197444609939
 21
0.4620965886420318
 31
0.0
210
0.0
220
0.0
230
-1.0
  0
ARC
  5
4FF
330
4C6
100
AcDbEntity
  8
0
 62
     7
100
AcDbCircle
 10
-2.02810670069492
 20
0.4620478124177136
 30
0.0
 40
0.0210908003169405
210
0.0
220
0.0
230
-1.0
100
AcDbArc
 50
179.8674932082532
 51
349.5930931812235
  0
ARC
  5
500
330
4C6
100
AcDbEntity
  8
0
 62
     7
100
AcDbCircle
 10
-1.726842320542346
 20
1.30645932527691
 30
0.0
 40
0.0210908003169405
210
0.0
220
0.0
230
-1.0
100
AcDbArc
 50
180.0
 51
270.0
  0
ARC
  5
501
330
4C6
100
AcDbEntity
  8
0
 62
     7
100
AcDbCircle
 10
-1.76902392117623
 20
1.406747262095683
 30
0.0
 40
0.042181600633881
210
0.0
220
0.0
230
-1.0
100
AcDbArc
 50
0.000000000000007
 51
169.7255999729702
  0
LINE
  5
502
330
4C6
100
AcDbEntity
  8
0
 62
     7
100
AcDbLine
 10
1.525369903644107
 20
1.406198802593307
 30
0.0
 11
1.525369903644107
 21
1.327562026663841
 31
0.0
210
0.0
220
0.0
230
-1.0
  0
LINE
  5
503
330
4C6
100
AcDbEntity
  8
0
 62
     7
100
AcDbLine
 10
1.567551504277986
 20
1.406198802593307
 30
0.0
 11
1.567551504277986
 21
1.327562026663841
 31
0.0
210
0.0
220
0.0
230
-1.0
  0
LINE
  5
504
330
4C6
100
AcDbEntity
  8
0
 62
     7
100
AcDbLine
 10
1.726842320542346
 20
1.448380403227189
 30
0.0
 11
1.726842320542346
 21
1.30645932527691
 31
0.0
210
0.0
220
0.0
230
-1.0
  0
LINE
  5
505
330
4C6
100
AcDbEntity
  8
0
 62
     7
100
AcDbLine
 10
1.726842320542346
 20
1.407102782223982
 30
0.0
 11
1.726842320542346
 21
1.30645932527691
 31
0.0
210
0.0
220
0.0
230
-1.0
  0
LINE
  5
506
330
4C6
100
AcDbEntity
  8
0
 62
     7
100
AcDbLine
 10
1.726842320542346
 20
1.406747262095683
 30
0.0
 11
1.726842320542346
 21
1.30645932527691
 31
0.0
210
0.0
220
0.0
230
-1.0
  0
ARC
  5
507
330
4C6
100
AcDbEntity
  8
0
 62
     7
100
AcDbCircle
 10
-1.546460703961047
 20
1.327562026663841
 30
0.0
 40
0.0210908003169405
210
0.0
220
0.0
230
-1.0
100
AcDbArc
 50
180.0
 51
0.0
  0
LINE
  5
508
330
4C6
100
AcDbEntity
  8
0
 62
     7
100
AcDbLine
 10
1.509535861886545
 20
1.30645932527691
 30
0.0
 11
1.509535861886545
 21
1.30645932527691
 31
0.0
210
0.0
220
0.0
230
-1.0
  0
ARC
  5
509
330
4C6
100
AcDbEntity
  8
0
 62
     7
100
AcDbCircle
 10
-1.726842320542346
 20
1.285368524959969
 30
0.0
 40
0.0210908003169405
210
0.0
220
0.0
230
-1.0
100
AcDbArc
 50
0.000000000000007
 51
90.0
  0
LINE
  5
50A
330
4C6
100
AcDbEntity
  8
0
 62
     7
100
AcDbLine
 10
1.726842320542346
 20
1.285368524959967
 30
0.0
 11
1.726842320542346
 21
1.285368524959967
 31
0.0
210
0.0
220
0.0
230
-1.0
  0
LINE
  5
50B
330
4C6
100
AcDbEntity
  8
0
 62
     7
100
AcDbLine
 10
1.726842320542346
 20
1.264277724643026
 30
0.0
 11
1.705751520225407
 21
1.264277724643026
 31
0.0
210
0.0
220
0.0
230
-1.0
  0
LINE
  5
50C
330
4C6
100
AcDbEntity
  8
0
 62
     7
100
AcDbLine
 10
1.705751520225407
 20
1.285368524959967
 30
0.0
 11
1.705751520225407
 21
1.264277724643026
 31
0.0
210
0.0
220
0.0
230
-1.0
  0
LINE
  5
50D
330
4C6
100
AcDbEntity
  8
0
 62
     7
100
AcDbLine
 10
1.726842320542346
 20
1.285368524959967
 30
0.0
 11
1.726842320542346
 21
1.264277724643026
 31
0.0
210
0.0
220
0.0
230
-1.0
  0
LINE
  5
50E
330
4C6
100
AcDbEntity
  8
0
100
AcDbLine
 10
1.567551504277986
 20
1.406198802593306
 30
0.0
 11
1.726842320542346
 21
1.406198802593306
 31
0.0
  0
LINE
  5
50F
330
4C6
100
AcDbEntity
  8
0
 62
     7
100
AcDbLine
 10
1.726842320542346
 20
1.342926401642485
 30
0.0
 11
1.726842320542346
 21
1.342926401642485
 31
0.0
210
0.0
220
0.0
230
-1.0
  0
LINE
  5
510
330
4C6
100
AcDbEntity
  8
0
 62
     7
100
AcDbLine
 10
1.747933120859289
 20
1.406747262095683
 30
0.0
 11
1.747933120859289
 21
1.30645932527691
 31
0.0
210
0.0
220
0.0
230
-1.0
  0
ARC
  5
511
330
4C6
100
AcDbEntity
  8
0
 62
     7
100
AcDbCircle
 10
-1.76902392117623
 20
1.406747262095683
 30
0.0
 40
0.0210908003169405
210
0.0
220
0.0
230
-1.0
100
AcDbArc
 50
0.0000000000000579
 51
169.7255999729702
  0
HATCH
  5
512
330
4C6
100
AcDbEntity
  8
0
100
AcDbHatch
 10
0.0
 20
0.0
 30
0.0
210
0.0
220
0.0
230
1.0
  2
AR-CONC
 70
     0
 71
     1
 91
        2
 92
        7
 72
     1
 73
     1
 93
      206
 10
0.9763356630689444
 20
0.4157402203071792
 42
0.0
 10
0.9763356630689444
 20
0.4196256473648967
 42
0.0
 10
0.9296582579133119
 20
0.4196256473648976
 42
0.0
 10
0.929658257913311
 20
0.4235110689045554
 42
0.0
 10
0.8635319347851098
 20
0.4235110689045554
 42
0.0
 10
0.8635319347851098
 20
0.4273964904442122
 42
0.0
 10
0.7935158321053288
 20
0.4273964904442122
 42
0.0
 10
0.7935158321053271
 20
0.4312819119838709
 42
0.0
 10
0.711532690178907
 20
0.4312819119838709
 42
-0.0405295014900261
 10
0.7047055078021485
 20
0.4312819119838709
 42
0.0
 10
0.2878439749258757
 20
0.4312819119838718
 42
0.0
 10
0.2878439749258757
 20
0.4273964904442122
 42
0.0
 10
0.1322526311453247
 20
0.4273964904442131
 42
0.0
 10
0.1322526311453229
 20
0.4312819119838709
 42
0.0
 10
0.1166934927243304
 20
0.4312819119838718
 42
0.0
 10
0.1166934927243313
 20
0.4273964904442114
 42
0.0
 10
0.1011343644106821
 20
0.4273964904442122
 42
0.0
 10
0.1011343644106812
 20
0.4235110689045563
 42
0.0
 10
0.0933547952001863
 20
0.4235110689045563
 42
0.0
 10
0.0933547952001863
 20
0.4157402203071792
 42
0.0
 10
0.0855752259896896
 20
0.4157402203071792
 42
0.0
 10
0.0855752259896887
 20
0.4118547987675205
 42
0.0
 10
0.0777956668865327
 20
0.4118547987675214
 42
0.0
 10
0.0777956668865336
 20
0.4040839556882068
 42
0.0
 10
0.0700160976760378
 20
0.4040839556882077
 42
0.0
 10
0.0700160976760396
 20
0.3963131070908306
 42
0.0
 10
0.0622365284655428
 20
0.3963131070908279
 42
0.0
 10
0.0622365284655446
 20
0.3924276855511728
 42
0.0
 10
0.054456959255047
 20
0.3924276855511719
 42
0.0
 10
0.054456959255047
 20
0.3691151507951673
 42
0.0
 10
0.0466773900445512
 20
0.3691151507951673
 42
0.0
 10
0.0466773900445512
 20
0.3458026160391601
 42
0.0
 10
0.0427876104929732
 20
0.3458026160391601
 42
0.0
 10
0.0427876104929723
 20
0.338031767441783
 42
0.0
 10
0.038897830941397
 20
0.338031767441783
 42
0.0
 10
0.038897830941397
 20
0.3224900812831528
 42
0.0
 10
0.0350080412824765
 20
0.3224900812831528
 42
0.0
 10
0.0350080412824783
 20
0.3108338111461197
 42
0.0
 10
0.0311182617309012
 20
0.3108338111461197
 42
0.0
 10
0.0311182617309012
 20
0.2991775410090849
 42
0.0
 10
0.0233386925204062
 20
0.2991775410090849
 42
0.0
 10
0.0233386925204062
 20
0.2875212763901125
 42
0.0
 10
0.0194489129688264
 20
0.2875212763901125
 42
0.0
 10
0.0194489129688273
 20
0.2719795847134217
 42
0.0
 10
0.0116693437583324
 20
0.2719795847134217
 42
0.0
 10
0.0116693437583333
 20
0.2564378930367317
 42
0.0
 10
0.0077795540994119
 20
0.2564378930367308
 42
0.0
 10
0.0077795540994119
 20
0.2486670499574153
 42
0.0
 10
0.0038897745478348
 20
0.2486670499574162
 42
0.0
 10
0.0038897745478348
 20
0.2408962068781006
 42
0.0
 10
-0.0000000050037414
 20
0.2408962068781006
 42
0.0
 10
-0.0000000050037414
 20
0.1204481005222888
 42
0.0
 10
0.0038897745478348
 20
0.1204481005222888
 42
0.0
 10
0.0038897745478348
 20
0.1049064143636587
 42
0.0
 10
0.0077795540994119
 20
0.1049064143636578
 42
0.0
 10
0.0077795540994128
 20
0.0971355657662825
 42
0.0
 10
0.0155591233099077
 20
0.0971355657662825
 42
0.0
 10
0.0155591233099077
 20
0.0854793011473092
 42
0.0
 10
0.0233386925204053
 20
0.0854793011473101
 42
0.0
 10
0.0233386925204044
 20
0.0777084525499321
 42
0.0
 10
0.0311182617309003
 20
0.077708452549933
 42
0.0
 10
0.0311182617309003
 20
0.0738230310102761
 42
0.0
 10
0.0388978309413952
 20
0.073823031010277
 42
0.0
 10
0.0388978309413943
 20
0.0699376094706174
 42
0.0
 10
0.0933547952001845
 20
0.0699376094706174
 42
0.0
 10
0.0933547952001845
 20
0.0738230310102761
 42
0.0
 10
0.1050241439622557
 20
0.0738230310102761
 42
0.0
 10
0.1050241439622566
 20
0.077708452549933
 42
0.0
 10
0.2333870005597438
 20
0.077708452549933
 42
0.0
 10
0.2333870005597438
 20
0.073823031010277
 42
0.0
 10
0.2411665697702388
 20
0.073823031010277
 42
0.0
 10
0.2411665697702396
 20
0.0699376094706174
 42
0.0
 10
0.2567257081912304
 20
0.0699376094706174
 42
0.0
 10
0.2567257081912304
 20
0.0660521879309606
 42
0.0
 10
0.272284836504884
 20
0.0660521879309606
 42
0.0
 10
0.272284836504884
 20
0.0621667663913028
 42
0.0
 10
0.2839541852669569
 20
0.0621667663913028
 42
0.0
 10
0.2839541852669569
 20
0.0582813393335861
 42
0.0
 10
0.3034031032395248
 20
0.0582813393335853
 42
0.0
 10
0.3034031032395257
 20
0.0543959177939266
 42
0.0
 10
0.3189622416605165
 20
0.0543959177939275
 42
0.0
 10
0.3189622416605165
 20
0.050510496254268
 42
0.0
 10
0.3384111596330861
 20
0.0505104962542688
 42
0.0
 10
0.3384111596330852
 20
0.0466250747146111
 42
0.0
 10
0.353970298054076
 20
0.0466250747146111
 42
0.0
 10
0.353970298054076
 20
0.0427396531749533
 42
0.0
 10
0.3734192059193058
 20
0.0427396531749533
 42
0.0
 10
0.3734192059193058
 20
0.0388542261172349
 42
0.0
 10
0.3850885647887186
 20
0.0388542261172349
 42
0.0
 10
0.3850885647887177
 20
0.034968804577578
 42
0.0
 10
0.4940025034136362
 20
0.034968804577578
 42
0.0
 10
0.4940025034136371
 20
0.0388542261172349
 42
0.0
 10
0.5290105496998585
 20
0.0388542261172349
 42
0.0
 10
0.5290105496998585
 20
0.0427396531749533
 42
0.0
 10
0.5601288164345011
 20
0.0427396531749533
 42
0.0
 10
0.560128816434502
 20
0.046625074714612
 42
0.0
 10
0.5717981753039139
 20
0.046625074714612
 42
0.0
 10
0.571798175303913
 20
0.0505104962542688
 42
0.0
 10
0.719609949873969
 20
0.050510496254268
 42
0.0
 10
0.7196099498739708
 20
0.0466250747146111
 42
0.0
 10
0.7662873449222634
 20
0.0466250747146111
 42
0.0
 10
0.7662873449222616
 20
0.0427396531749533
 42
0.0
 10
0.9218786887028152
 20
0.0427396531749533
 42
0.0
 10
0.9218786887028161
 20
0.0388542261172349
 42
0.0
 10
0.9646663041995298
 20
0.0388542261172349
 42
0.0
 10
0.9646663041995307
 20
0.034968804577578
 42
0.0
 10
1.023013058117236
 20
0.0349688045775771
 42
0.0
 10
1.023013058117236
 20
0.0310833830379202
 42
0.0
 10
1.4742279510379
 20
0.0310833830379202
 42
0.0
 10
1.4742279510379
 20
0.0271979614982616
 42
0.0
 10
1.524795135745112
 20
0.0271979614982616
 42
0.0
 10
1.524795135745113
 20
0.0233125399586065
 42
0.0
 10
1.629819294818454
 20
0.0233125399586056
 42
0.0
 10
1.629819294818454
 20
0.0194271129008863
 42
0.0
 10
1.637598864028947
 20
0.0194271129008863
 42
0.0
 10
1.637598864028947
 20
0.0155416913612285
 42
0.0
 10
1.6531579923426
 20
0.0155416913612285
 42
0.0
 10
1.6531579923426
 20
0.0077708482819139
 42
0.0
 10
1.676496689866748
 20
0.0077708482819139
 42
0.0
 10
1.676496689866748
 20
0.003885426742257
 42
0.0
 10
1.692055828287739
 20
0.0038854267422561
 42
0.0
 10
1.69205582828774
 20
-0.0000000003154641
 42
0.0
 10
1.820418684885227
 20
-0.0000000003154623
 42
0.0
 10
1.820418684885226
 20
0.003885426742257
 42
0.0
 10
1.882655218354512
 20
0.003885426742257
 42
0.0
 10
1.882655218354513
 20
0.0077708482819139
 42
0.0
 10
1.917663274748072
 20
0.0077708482819139
 42
0.0
 10
1.917663274748072
 20
0.0116562698215708
 42
0.0
 10
1.941001972272218
 20
0.0116562698215708
 42
0.0
 10
1.941001972272218
 20
0.0155416913612285
 42
0.0
 10
1.948781541482713
 20
0.0155416913612285
 42
0.0
 10
1.948781541482713
 20
0.0194271129008863
 42
0.0
 10
2.419445352375947
 20
0.0194271129008863
 42
0.0
 10
2.419445352375947
 20
0.0233125399586056
 42
0.0
 10
2.462232967872662
 20
0.0233125399586056
 42
0.0
 10
2.462232967872662
 20
0.0271979614982625
 42
0.0
 10
2.477792106293652
 20
0.0271979614982625
 42
0.0
 10
2.477792106293652
 20
0.0310833830379202
 42
0.0
 10
2.489461455055729
 20
0.0310833830379202
 42
0.0
 10
2.489461455055729
 20
0.0349688045775789
 42
0.0
 10
2.516689942238791
 20
0.0349688045775789
 42
0.0
 10
2.516689942238791
 20
0.0427396531749533
 42
0.0
 10
2.532249070552444
 20
0.0427396531749533
 42
0.0
 10
2.532249070552444
 20
0.0466250747146111
 42
0.0
 10
2.543918419314515
 20
0.0466250747146111
 42
0.0
 10
2.543918419314515
 20
0.0505104962542688
 42
0.0
 10
2.559477557735509
 20
0.0505104962542688
 42
0.0
 10
2.559477557735509
 20
0.0582813393335861
 42
0.0
 10
2.57114690649758
 20
0.0582813393335853
 42
0.0
 10
2.571146906497582
 20
0.0621667663913037
 42
0.0
 10
2.578926475708077
 20
0.0621667663913037
 42
0.0
 10
2.578926475708077
 20
0.0699376094706174
 42
0.0
 10
2.590595824470149
 20
0.0699376094706174
 42
0.0
 10
2.590595824470149
 20
0.0777084525499312
 42
0.0
 10
2.602265173232224
 20
0.0777084525499321
 42
0.0
 10
2.602265173232224
 20
0.0854793011473083
 42
0.0
 10
2.613934521994299
 20
0.0854793011473083
 42
0.0
 10
2.613934521994297
 20
0.089364722686966
 42
0.0
 10
2.621714091204792
 20
0.089364722686966
 42
0.0
 10
2.621714091204792
 20
0.0971355657662816
 42
0.0
 10
2.629493660415289
 20
0.0971355657662816
 42
0.0
 10
2.629493660415287
 20
0.1049064143636578
 42
0.0
 10
2.641163009177362
 20
0.1049064143636578
 42
0.0
 10
2.641163009177363
 20
0.1126772574429733
 42
0.0
 10
2.64894257838786
 20
0.1126772574429733
 42
0.0
 10
2.648942578387855
 20
0.1204481005222879
 42
0.0
 10
2.656722147598352
 20
0.1204481005222879
 42
0.0
 10
2.65672214759835
 20
0.1243335275800064
 42
0.0
 10
2.66061192714993
 20
0.1243335275800073
 42
0.0
 10
2.66061192714993
 20
0.1359897921989814
 42
0.0
 10
2.66450171680885
 20
0.1359897921989797
 42
0.0
 10
2.66450171680885
 20
0.1515314838756714
 42
0.0
 10
2.676171065570921
 20
0.1515314838756714
 42
0.0
 10
2.676171065570919
 20
0.159302326954986
 42
0.0
 10
2.680060845122501
 20
0.159302326954986
 42
0.0
 10
2.680060845122501
 20
0.17095859709202
 42
0.0
 10
2.687840414332994
 20
0.17095859709202
 42
0.0
 10
2.687840414332994
 20
0.1865002887687108
 42
0.0
 10
2.695619983543489
 20
0.1865002887687108
 42
0.0
 10
2.695619983543489
 20
0.3186046542254353
 42
0.0
 10
2.691730193884572
 20
0.3186046542254344
 42
0.0
 10
2.691730193884572
 20
0.388542264011515
 42
0.0
 10
2.687840414332996
 20
0.388542264011515
 42
0.0
 10
2.687840414332994
 20
0.400198534148549
 42
0.0
 10
2.676171065570919
 20
0.400198534148549
 42
0.0
 10
2.676171065570921
 20
0.4157402203071792
 42
0.0
 10
2.66450171680885
 20
0.4157402203071774
 42
0.0
 10
2.66450171680885
 20
0.4273964904442122
 42
0.0
 10
2.248294870174405
 20
0.4273964904442131
 42
0.0
 10
2.248294870174407
 20
0.4235110689045554
 42
0.0
 10
2.069364828869707
 20
0.4235110689045554
 42
0.0
 10
2.069364828869707
 20
0.4196256473648958
 42
0.0
 10
2.038246562135063
 20
0.4196256473648967
 42
0.0
 10
2.038246562135063
 20
0.4157402203071783
 42
0.0
 10
2.011018074952001
 20
0.4157402203071792
 42
0.0
 10
2.011018074952
 20
0.4118547987675214
 42
0.0
 10
1.999348726189927
 20
0.4118547987675196
 42
0.0
 10
1.999348726189928
 20
0.4064725151375015
 42
0.0
 10
2.328839895443602
 20
0.4064725151375006
 42
0.0
 10
2.328839895443602
 20
0.2103733732637867
 42
0.0
 10
1.920685854217046
 20
0.2103733732637867
 42
0.0
 10
1.920685854217045
 20
0.4079693772278628
 42
0.0
 10
1.839867602857796
 20
0.4079693772278645
 42
0.0
 10
1.839867602857796
 20
0.4118547987675205
 42
0.0
 10
1.74262301299495
 20
0.4118547987675196
 42
0.0
 10
1.74262301299495
 20
0.4157402203071783
 42
0.0
 97
        6
330
513
330
4D5
330
4F9
330
4FB
330
4F8
330
4FA
 92
       22
 72
     0
 73
     1
 93
        4
 10
0.8155399454684007
 20
0.2103733732637867
 10
0.4073859042418446
 20
0.2103733732637867
 10
0.4073859042418464
 20
0.4064725151375015
 10
0.8155399454684007
 20
0.4064725151375006
 97
        4
330
4CE
330
4D1
330
4CD
330
4D2
 75
     0
 76
     1
 52
-0.0000000000000127
 41
0.0299036082969963
 77
     0
 78
    13
 53
49.99999999999998
 43
-5.151383610894985
 44
-0.6706960633734282
 45
0.21448667547525
 46
-0.0187651526431977
 79
     2
 49
0.0224277062227473
 49
-0.2467047684502198
 53
355.0
 43
-5.151383610894985
 44
-0.6706960633734282
 45
-0.0414916553104901
 46
0.2249325893024707
 79
     2
 49
0.0179421649781978
 49
-0.1973638147601759
 53
100.4513999999999
 43
-5.133509721835249
 44
-0.6722598247235463
 45
0.1729951794691364
 46
0.2061673001025127
 79
     2
 49
0.0190606167453612
 49
-0.2096667907777668
 53
46.18419999999998
 43
-5.151383610894985
 44
-0.6108888467794369
 45
0.319143582765769
 46
-0.0494961577019989
 79
     2
 49
0.0336415593341209
 49
-0.3700571526753297
 53
96.63559999999997
 43
-5.124788315038087
 44
-0.6150135432759187
 45
0.2794978743653928
 46
0.2912963924651085
 79
     2
 49
0.02859092601515
 49
-0.3145001359285877
 53
351.1842
 43
-5.151383610894985
 44
-0.6108888467794369
 45
0.2794976469738468
 46
0.29129661076889
 79
     2
 49
0.0269132474672967
 49
-0.2960457221402635
 53
20.99999999999995
 43
-5.121480002597986
 44
-0.6258406509279336
 45
0.1784967467626525
 46
-0.120397575994275
 79
     2
 49
0.0224277062227473
 49
-0.2467047684502198
 53
326.0
 43
-5.121480002597986
 44
-0.6258406509279336
 45
0.0727600637843664
 46
0.2168460290363035
 79
     2
 49
0.0179421649781978
 49
-0.1973638147601758
 53
71.45139999999996
 43
-5.106605280083489
 44
-0.635873791763526
 45
0.2512568836737352
 46
0.0964482563745008
 79
     2
 49
0.0190606167453612
 49
-0.2096667907777673
 53
37.49999999999999
 43
-5.151383610894985
 44
-0.6706960633734282
 45
0.0036362355035641
 46
0.099547274094491
 79
     6
 49
0.0
 49
-0.194971526096416
 49
0.0
 49
-0.2003541755898754
 49
0.0
 49
-0.1981114049676007
 53
7.499999999999979
 43
-5.151383610894985
 44
-0.6706960633734282
 45
0.0786672840254203
 46
0.1179433333987788
 79
     6
 49
0.0
 49
-0.114231783694526
 49
0.0
 49
-0.1904859848518666
 49
0.0
 49
-0.0755066109499157
 53
327.5
 43
-5.218068657397282
 44
-0.6706960633734282
 45
0.1596321703144807
 46
-0.0067447204953389
 79
     6
 49
0.0
 49
-0.0747590207424909
 49
0.0
 49
-0.2332481447165715
 49
0.0
 49
-0.3095023458739121
 53
317.4999999999999
 43
-5.247972265694283
 44
-0.6706960633734282
 45
0.1743937077224049
 46
0.0299350018024336
 79
     6
 49
0.0
 49
-0.0971867269652381
 49
0.0
 49
-0.1549006909784411
 49
0.0
 49
-0.2197915209829231
 47
0.0
 98
        6
 10
0.0
 20
0.0
 10
0.0
 20
0.0
 10
0.0
 20
0.0
 10
0.0
 20
0.0
 10
1.096850520126717
 20
0.3763092082153268
 10
1.096850520126717
 20
0.3763092082153268
  0
LWPOLYLINE
  5
513
102
{ACAD_REACTORS
330
4CA
330
512
102
}
330
4C6
100
AcDbEntity
  8
0
 62
     7
100
AcDbPolyline
 90
      234
 70
     0
 43
0.0
 10
-0.12058328238325
 20
0.4312819119838709
 10
-0.1322526311453238
 20
0.4312819119838709
 10
-0.1322526311453238
 20
0.4273964904442122
 10
-0.2878439749258757
 20
0.4273964904442122
 10
-0.2878439749258757
 20
0.4312819119838709
 10
-0.793515832105328
 20
0.4312819119838709
 10
-0.793515832105328
 20
0.4273964904442122
 10
-0.8635319347851098
 20
0.4273964904442122
 10
-0.8635319347851098
 20
0.4235110689045554
 10
-0.929658257913311
 20
0.4235110689045554
 10
-0.929658257913311
 20
0.4196256473648967
 10
-0.9763356630689444
 20
0.4196256473648967
 10
-0.9763356630689444
 20
0.4157402203071783
 10
-1.74262301299495
 20
0.4157402203071783
 10
-1.74262301299495
 20
0.4118547987675205
 10
-1.839867602857796
 20
0.4118547987675205
 10
-1.839867602857796
 20
0.4079693772278636
 10
-1.999348726189927
 20
0.4079693772278636
 10
-1.999348726189927
 20
0.4118547987675205
 10
-2.011018074952
 20
0.4118547987675205
 10
-2.011018074952
 20
0.4157402203071783
 10
-2.038246562135063
 20
0.4157402203071783
 10
-2.038246562135063
 20
0.4196256473648967
 10
-2.069364828869707
 20
0.4196256473648967
 10
-2.069364828869707
 20
0.4235110689045554
 10
-2.248294870174405
 20
0.4235110689045554
 10
-2.248294870174405
 20
0.4273964904442122
 10
-2.66450171680885
 20
0.4273964904442122
 10
-2.66450171680885
 20
0.4196256473648967
 10
-2.668391496360426
 20
0.4196256473648967
 10
-2.668391496360426
 20
0.4157402203071783
 10
-2.676171065570921
 20
0.4157402203071783
 10
-2.676171065570921
 20
0.400198534148549
 10
-2.687840414332994
 20
0.400198534148549
 10
-2.687840414332994
 20
0.3885422640115141
 10
-2.691730193884572
 20
0.3885422640115141
 10
-2.691730193884572
 20
0.3186046542254344
 10
-2.695619983543489
 20
0.3186046542254344
 10
-2.695619983543489
 20
0.1865002887687108
 10
-2.691730193884572
 20
0.1865002887687108
 10
-2.691730193884572
 20
0.1826148672290531
 10
-2.687840414332994
 20
0.1826148672290531
 10
-2.687840414332994
 20
0.17095859709202
 10
-2.680060845122501
 20
0.17095859709202
 10
-2.680060845122501
 20
0.159302326954986
 10
-2.676171065570921
 20
0.159302326954986
 10
-2.676171065570921
 20
0.1515314838756714
 10
-2.66450171680885
 20
0.1515314838756714
 10
-2.66450171680885
 20
0.1359897921989806
 10
-2.66061192714993
 20
0.1359897921989806
 10
-2.66061192714993
 20
0.1243335275800064
 10
-2.656722147598352
 20
0.1243335275800064
 10
-2.656722147598352
 20
0.1204481005222879
 10
-2.652832357939435
 20
0.1204481005222879
 10
-2.652832357939435
 20
0.1165626789826311
 10
-2.648942578387858
 20
0.1165626789826311
 10
-2.648942578387858
 20
0.1126772574429733
 10
-2.645052798836279
 20
0.1126772574429733
 10
-2.645052798836279
 20
0.1087918359033155
 10
-2.641163009177362
 20
0.1087918359033155
 10
-2.641163009177362
 20
0.1049064143636578
 10
-2.633383439966867
 20
0.1049064143636578
 10
-2.633383439966867
 20
0.1010209928240009
 10
-2.629493660415289
 20
0.1010209928240009
 10
-2.629493660415289
 20
0.0971355657662816
 10
-2.625603880863709
 20
0.0971355657662816
 10
-2.625603880863709
 20
0.0932501442266247
 10
-2.621714091204792
 20
0.0932501442266247
 10
-2.621714091204792
 20
0.089364722686966
 10
-2.613934521994297
 20
0.089364722686966
 10
-2.613934521994297
 20
0.0854793011473083
 10
-2.606154962891141
 20
0.0854793011473083
 10
-2.606154962891141
 20
0.0815938796076523
 10
-2.602265173232224
 20
0.0815938796076523
 10
-2.602265173232224
 20
0.0777084525499321
 10
-2.594485604021727
 20
0.0777084525499321
 10
-2.594485604021727
 20
0.0738230310102761
 10
-2.590595824470149
 20
0.0738230310102761
 10
-2.590595824470149
 20
0.0699376094706174
 10
-2.582816255259653
 20
0.0699376094706174
 10
-2.582816255259653
 20
0.0660521879309606
 10
-2.578926475708077
 20
0.0660521879309606
 10
-2.578926475708077
 20
0.0621667663913028
 10
-2.571146906497582
 20
0.0621667663913028
 10
-2.571146906497582
 20
0.0582813393335853
 10
-2.563367337287087
 20
0.0582813393335853
 10
-2.563367337287087
 20
0.0543959177939266
 10
-2.559477557735509
 20
0.0543959177939266
 10
-2.559477557735509
 20
0.0505104962542688
 10
-2.543918419314515
 20
0.0505104962542688
 10
-2.543918419314515
 20
0.0466250747146111
 10
-2.532249070552442
 20
0.0466250747146111
 10
-2.532249070552442
 20
0.0427396531749533
 10
-2.520579721790371
 20
0.0427396531749533
 10
-2.520579721790371
 20
0.0388542261172349
 10
-2.516689942238791
 20
0.0388542261172349
 10
-2.516689942238791
 20
0.034968804577578
 10
-2.489461455055729
 20
0.034968804577578
 10
-2.489461455055729
 20
0.0310833830379202
 10
-2.477792106293652
 20
0.0310833830379202
 10
-2.477792106293652
 20
0.0271979614982625
 10
-2.462232967872662
 20
0.0271979614982625
 10
-2.462232967872662
 20
0.0233125399586056
 10
-2.419445352375947
 20
0.0233125399586056
 10
-2.419445352375947
 20
0.0194271129008863
 10
-1.948781541482713
 20
0.0194271129008863
 10
-1.948781541482713
 20
0.0155416913612285
 10
-1.941001972272217
 20
0.0155416913612285
 10
-1.941001972272217
 20
0.0116562698215708
 10
-1.917663274748071
 20
0.0116562698215708
 10
-1.917663274748071
 20
0.0077708482819139
 10
-1.882655218354511
 20
0.0077708482819139
 10
-1.882655218354511
 20
0.003885426742257
 10
-1.820418684885227
 20
0.003885426742257
 10
-1.820418684885227
 20
-0.0000000003154632
 10
-1.692055828287739
 20
-0.0000000003154632
 10
-1.692055828287739
 20
0.003885426742257
 10
-1.676496689866748
 20
0.003885426742257
 10
-1.676496689866748
 20
0.0077708482819139
 10
-1.6531579923426
 20
0.0077708482819139
 10
-1.6531579923426
 20
0.0155416913612285
 10
-1.637598864028947
 20
0.0155416913612285
 10
-1.637598864028947
 20
0.0194271129008863
 10
-1.629819294818454
 20
0.0194271129008863
 10
-1.629819294818454
 20
0.0233125399586056
 10
-1.524795135745112
 20
0.0233125399586056
 10
-1.524795135745112
 20
0.0271979614982625
 10
-1.474227951037901
 20
0.0271979614982625
 10
-1.474227951037901
 20
0.0310833830379202
 10
-1.023013058117236
 20
0.0310833830379202
 10
-1.023013058117236
 20
0.034968804577578
 10
-0.9646663041995307
 20
0.034968804577578
 10
-0.9646663041995307
 20
0.0388542261172349
 10
-0.9218786887028152
 20
0.0388542261172349
 10
-0.9218786887028152
 20
0.0427396531749533
 10
-0.7662873449222625
 20
0.0427396531749533
 10
-0.7662873449222625
 20
0.0466250747146111
 10
-0.7196099498739699
 20
0.0466250747146111
 10
-0.7196099498739699
 20
0.0505104962542688
 10
-0.571798175303913
 20
0.0505104962542688
 10
-0.571798175303913
 20
0.0466250747146111
 10
-0.5601288164345011
 20
0.0466250747146111
 10
-0.5601288164345011
 20
0.0427396531749533
 10
-0.5290105496998585
 20
0.0427396531749533
 10
-0.5290105496998585
 20
0.0388542261172349
 10
-0.4940025034136362
 20
0.0388542261172349
 10
-0.4940025034136362
 20
0.034968804577578
 10
-0.3850885647887186
 20
0.034968804577578
 10
-0.3850885647887186
 20
0.0388542261172349
 10
-0.3734192059193058
 20
0.0388542261172349
 10
-0.3734192059193058
 20
0.0427396531749533
 10
-0.353970298054076
 20
0.0427396531749533
 10
-0.353970298054076
 20
0.0466250747146111
 10
-0.3384111596330852
 20
0.0466250747146111
 10
-0.3384111596330852
 20
0.0505104962542688
 10
-0.3189622416605165
 20
0.0505104962542688
 10
-0.3189622416605165
 20
0.0543959177939266
 10
-0.3034031032395248
 20
0.0543959177939266
 10
-0.3034031032395248
 20
0.0582813393335853
 10
-0.2839541852669569
 20
0.0582813393335853
 10
-0.2839541852669578
 20
0.0621667663913028
 10
-0.272284836504884
 20
0.0621667663913028
 10
-0.272284836504884
 20
0.0660521879309606
 10
-0.2567257081912304
 20
0.0660521879309606
 10
-0.2567257081912304
 20
0.0699376094706174
 10
-0.2411665697702396
 20
0.0699376094706174
 10
-0.2411665697702396
 20
0.0738230310102761
 10
-0.2333870005597438
 20
0.0738230310102761
 10
-0.2333870005597438
 20
0.077708452549933
 10
-0.1050241439622566
 20
0.077708452549933
 10
-0.1050241439622566
 20
0.0738230310102761
 10
-0.0933547952001845
 20
0.0738230310102761
 10
-0.0933547952001845
 20
0.0699376094706174
 10
-0.0388978309413952
 20
0.0699376094706174
 10
-0.0388978309413952
 20
0.0738230310102761
 10
-0.0311182617309003
 20
0.0738230310102761
 10
-0.0311182617309003
 20
0.077708452549933
 10
-0.0233386925204053
 20
0.077708452549933
 10
-0.0233386925204053
 20
0.0815938796076523
 10
-0.0194489129688264
 20
0.0815938796076523
 10
-0.0194489129688264
 20
0.0854793011473092
 10
-0.0155591233099077
 20
0.0854793011473092
 10
-0.0155591233099077
 20
0.0932501442266247
 10
-0.0116693437583315
 20
0.0932501442266247
 10
-0.0116693437583324
 20
0.0971355657662825
 10
-0.0077795540994128
 20
0.0971355657662825
 10
-0.0077795540994128
 20
0.1049064143636578
 10
-0.0038897745478348
 20
0.1049064143636578
 10
-0.0038897745478348
 20
0.1204481005222888
 10
0.0000000050037414
 20
0.1204481005222888
 10
0.0000000050037414
 20
0.2408962068781006
 10
-0.0038897745478348
 20
0.2408962068781006
 10
-0.0038897745478348
 20
0.2486670499574162
 10
-0.0077795540994128
 20
0.2486670499574162
 10
-0.0077795540994128
 20
0.2564378930367308
 10
-0.0116693437583324
 20
0.2564378930367308
 10
-0.0116693437583324
 20
0.2719795847134217
 10
-0.0194489129688273
 20
0.2719795847134217
 10
-0.0194489129688273
 20
0.2875212763901125
 10
-0.0233386925204062
 20
0.2875212763901125
 10
-0.0233386925204062
 20
0.2991775410090849
 10
-0.0311182617309012
 20
0.2991775410090849
 10
-0.0311182617309012
 20
0.3108338111461197
 10
-0.0350080412824774
 20
0.3108338111461197
 10
-0.0350080412824774
 20
0.3224900812831528
 10
-0.0388978309413961
 20
0.3224900812831528
 10
-0.0388978309413961
 20
0.338031767441783
 10
-0.0427876104929723
 20
0.338031767441783
 10
-0.0427876104929723
 20
0.3458026160391601
 10
-0.0466773900445512
 20
0.3458026160391601
 10
-0.0466773900445512
 20
0.3691151507951673
 10
-0.0505671797034699
 20
0.3691151507951673
 10
-0.0505671797034699
 20
0.3730005723348242
 10
-0.054456959255047
 20
0.3730005723348242
 10
-0.054456959255047
 20
0.3924276855511719
 10
-0.0622365284655437
 20
0.3924276855511719
 10
-0.0622365284655437
 20
0.3963131070908297
 10
-0.0700160976760387
 20
0.3963131070908297
 10
-0.0700160976760387
 20
0.4040839556882068
 10
-0.0739058772276167
 20
0.4040839556882068
 10
-0.0739058772276167
 20
0.4079693772278654
 10
-0.0777956668865336
 20
0.4079693772278654
 10
-0.0777956668865336
 20
0.4118547987675205
 10
-0.0855752259896887
 20
0.4118547987675205
 10
-0.0855752259896887
 20
0.4157402203071792
 10
-0.0894650156486074
 20
0.4157402203071792
 10
-0.0894650156486074
 20
0.4196256473648976
 10
-0.0933547952001863
 20
0.4196256473648976
 10
-0.0933547952001863
 20
0.4235110689045563
 10
-0.1011343644106812
 20
0.4235110689045563
 10
-0.1011343644106812
 20
0.4273964904442122
 10
-0.1166934927243313
 20
0.4273964904442122
 10
-0.1166934927243313
 20
0.4312819119838709
 10
-0.1244730619348289
 20
0.4312819119838709
210
0.0
220
0.0
230
-1.0
  0
ENDBLK
  5
175C
330
4C6
100
AcDbEntity
  8
0
100
AcDbBlockEnd
  0
BLOCK
  5
175D
330
925
100
AcDbEntity
  8
0
100
AcDbBlockBegin
  2
A$C027A6829
 70
     0
 10
0.0
 20
0.0
 30
0.0
  3
A$C027A6829
  1

  0
CIRCLE
  5
926
330
925
100
AcDbEntity
  8
0
100
AcDbCircle
 10
-0.2447157086589682
 20
0.2447157080469209
 30
0.0
 40
0.24471571935028
210
0.0
220
0.0
230
-1.0
  0
TEXT
  5
927
330
925
100
AcDbEntity
  8
0
100
AcDbText
 10
-0.0395365306748863
 20
0.107929757239023
 30
0.0
 40
0.2792500509676575
  1
G
 50
180.0
 71
     4
210
0.0
220
0.0
230
-1.0
100
AcDbText
  0
TEXT
  5
928
330
925
100
AcDbEntity
  8
0
100
AcDbText
 10
-0.3034666595198976
 20
0.1070607412589082
 30
0.0
 40
0.1216750375201472
  1
2
 50
180.0
 71
     4
210
0.0
220
0.0
230
-1.0
100
AcDbText
  0
ENDBLK
  5
175E
330
925
100
AcDbEntity
  8
0
100
AcDbBlockEnd
  0
BLOCK
  5
175F
330
944
100
AcDbEntity
  8
0
100
AcDbBlockBegin
  2
A$C79F71D6E
 70
     0
 10
0.0
 20
0.0
 30
0.0
  3
A$C79F71D6E
  1

  0
LWPOLYLINE
  5
945
330
944
100
AcDbEntity
  8
0
100
AcDbPolyline
 90
        2
 70
     0
 43
0.0
 10
2.285854430323258
 20
2.620864991044886
 10
0.1960790688349054
 20
2.620864991044886
1001
ACAD
1000
DSTYLE
1002
{
1070
   146
1040
0.25
1070
   271
1070
     2
1070
    41
1040
0.09
1002
}
  0
LWPOLYLINE
  5
946
330
944
100
AcDbEntity
  8
0
100
AcDbPolyline
 90
        2
 70
     0
 43
0.0
 10
2.392648352071656
 20
2.278618615631203
 10
0.1960790688349054
 20
2.278618615631203
1001
ACAD
1000
DSTYLE
1002
{
1070
   146
1040
0.25
1070
   271
1070
     2
1070
    41
1040
0.09
1002
}
  0
LWPOLYLINE
  5
947
330
944
100
AcDbEntity
  8
0
100
AcDbPolyline
 90
        2
 70
     0
 43
0.0
 10
2.507451859138103
 20
0.6873951554572635
 10
0.1960790688349054
 20
0.6873951554572635
1001
ACAD
1000
DSTYLE
1002
{
1070
   146
1040
0.25
1070
   271
1070
     2
1070
    41
1040
0.09
1002
}
  0
LWPOLYLINE
  5
948
330
944
100
AcDbEntity
  8
0
100
AcDbPolyline
 90
        2
 70
     0
 43
0.0
 10
2.534150328443604
 20
1.011862509747171
 10
0.1960790688349046
 20
1.011862509747171
1001
ACAD
1000
DSTYLE
1002
{
1070
   146
1040
0.25
1070
   271
1070
     2
1070
    41
1040
0.09
1002
}
  0
LINE
  5
949
330
944
100
AcDbEntity
  8
0
100
AcDbLine
 10
5.031771004897649
 20
4.02543049453698
 30
0.0
 11
0.196079068834905
 21
4.02543049453698
 31
0.0
1001
ACAD
1000
DSTYLE
1002
{
1070
   146
1040
0.25
1070
   271
1070
     2
1070
    41
1040
0.09
1002
}
  0
LINE
  5
94A
330
944
100
AcDbEntity
  8
0
100
AcDbLine
 10
5.130132870293441
 20
4.307670304046873
 30
0.0
 11
0.196079068834905
 21
4.307670304046873
 31
0.0
1001
ACAD
1000
DSTYLE
1002
{
1070
   146
1040
0.25
1070
   271
1070
     2
1070
    41
1040
0.09
1002
}
  0
LINE
  5
94B
330
944
100
AcDbEntity
  8
0
100
AcDbLine
 10
2.618657796845168
 20
3.784519143318726
 30
0.0
 11
0.1960790688349059
 21
3.784519143318725
 31
0.0
  0
LWPOLYLINE
  5
94C
330
944
100
AcDbEntity
  8
0
100
AcDbPolyline
 90
        2
 70
     0
 43
0.0
 10
1.426163273422172
 20
0.4118201335667386
 10
0.196079068834905
 20
0.4118201335667386
1001
ACAD
1000
DSTYLE
1002
{
1070
   146
1040
0.25
1070
   271
1070
     2
1070
    41
1040
0.09
1002
}
  0
CIRCLE
  5
94D
330
944
100
AcDbEntity
  8
0
100
AcDbCircle
 10
-0.0980395278529427
 20
0.4118201335667386
 30
0.0
 40
0.0980395409819625
210
0.0
220
0.0
230
-1.0
  0
TEXT
  5
94E
330
944
100
AcDbEntity
  8
0
100
AcDbText
 10
-0.013838913715019
 20
0.3663506230515861
 30
0.0
 40
0.0888620774192805
  1
11
 50
180.0
 71
     4
210
0.0
220
0.0
230
-1.0
100
AcDbText
  0
CIRCLE
  5
94F
330
944
100
AcDbEntity
  8
0
100
AcDbCircle
 10
-0.0980395278529427
 20
1.011862509747171
 30
0.0
 40
0.0980395409819625
210
0.0
220
0.0
230
-1.0
  0
CIRCLE
  5
950
330
944
100
AcDbEntity
  8
0
100
AcDbCircle
 10
-0.0980395278529427
 20
0.6873951554572635
 30
0.0
 40
0.0980395409819625
210
0.0
220
0.0
230
-1.0
  0
TEXT
  5
951
330
944
100
AcDbEntity
  8
0
100
AcDbText
 10
-0.013838913715019
 20
0.6419256449421109
 30
0.0
 40
0.0888620774192805
  1
10
 50
180.0
 71
     4
210
0.0
220
0.0
230
-1.0
100
AcDbText
  0
TEXT
  5
952
330
944
100
AcDbEntity
  8
0
100
AcDbText
 10
-0.0623075277015337
 20
0.9663929992320188
 30
0.0
 40
0.0888620774192805
  1
9
 50
180.0
 71
     4
210
0.0
220
0.0
230
-1.0
100
AcDbText
  0
LWPOLYLINE
  5
953
330
944
100
AcDbEntity
  8
0
100
AcDbPolyline
 90
        2
 70
     0
 43
0.0
 10
1.163628236198614
 20
1.700800040164488
 10
0.1960790688349052
 20
1.700800040164488
1001
ACAD
1000
DSTYLE
1002
{
1070
   146
1040
0.25
1070
   271
1070
     2
1070
    41
1040
0.09
1002
}
  0
LWPOLYLINE
  5
954
330
944
100
AcDbEntity
  8
0
100
AcDbPolyline
 90
        2
 70
     0
 43
0.0
 10
0.5362138958345736
 20
1.443004063706738
 10
0.1960790688349052
 20
1.443004063706738
1001
ACAD
1000
DSTYLE
1002
{
1070
   146
1040
0.25
1070
   271
1070
     2
1070
    41
1040
0.09
1002
}
  0
CIRCLE
  5
955
330
944
100
AcDbEntity
  8
0
100
AcDbCircle
 10
-0.0980395278529427
 20
1.700800040164488
 30
0.0
 40
0.0980395409819625
210
0.0
220
0.0
230
-1.0
  0
TEXT
  5
956
330
944
100
AcDbEntity
  8
0
100
AcDbText
 10
-0.0610321526874875
 20
1.655330529649335
 30
0.0
 40
0.0888620774192805
  1
7
 50
180.0
 71
     4
210
0.0
220
0.0
230
-1.0
100
AcDbText
  0
CIRCLE
  5
957
330
944
100
AcDbEntity
  8
0
100
AcDbCircle
 10
-0.0980395278529427
 20
1.443004063706738
 30
0.0
 40
0.0980395409819625
210
0.0
220
0.0
230
-1.0
  0
TEXT
  5
958
330
944
100
AcDbEntity
  8
0
100
AcDbText
 10
-0.0610321526874875
 20
1.397534553191585
 30
0.0
 40
0.0888620774192805
  1
8
 50
180.0
 71
     4
210
0.0
220
0.0
230
-1.0
100
AcDbText
  0
CIRCLE
  5
959
330
944
100
AcDbEntity
  8
0
100
AcDbCircle
 10
-0.0980395278529427
 20
2.620864991044886
 30
0.0
 40
0.0980395409819625
210
0.0
220
0.0
230
-1.0
  0
CIRCLE
  5
95A
330
944
100
AcDbEntity
  8
0
100
AcDbCircle
 10
-0.0980395278529427
 20
2.278618615631203
 30
0.0
 40
0.0980395409819625
210
0.0
220
0.0
230
-1.0
  0
TEXT
  5
95B
330
944
100
AcDbEntity
  8
0
100
AcDbText
 10
-0.0610321526874875
 20
2.23314910511605
 30
0.0
 40
0.0888620774192805
  1
6
 50
180.0
 71
     4
210
0.0
220
0.0
230
-1.0
100
AcDbText
  0
TEXT
  5
95C
330
944
100
AcDbEntity
  8
0
100
AcDbText
 10
-0.0610321526874875
 20
2.575395480529734
 30
0.0
 40
0.0888620774192805
  1
5
 50
180.0
 71
     4
210
0.0
220
0.0
230
-1.0
100
AcDbText
  0
CIRCLE
  5
95D
330
944
100
AcDbEntity
  8
0
100
AcDbCircle
 10
-0.0980395278529436
 20
3.784519143318725
 30
0.0
 40
0.0980395409819625
210
0.0
220
0.0
230
-1.0
  0
TEXT
  5
95E
330
944
100
AcDbEntity
  8
0
100
AcDbText
 10
-0.0610321526874884
 20
3.739049632803573
 30
0.0
 40
0.0888620774192805
  1
3
 50
180.0
 71
     4
210
0.0
220
0.0
230
-1.0
100
AcDbText
  0
LINE
  5
95F
330
944
100
AcDbEntity
  8
0
100
AcDbLine
 10
0.6149515593981834
 20
3.563348145036145
 30
0.0
 11
0.1960790494600664
 21
3.563611484136498
 31
0.0
  0
CIRCLE
  5
960
330
944
100
AcDbEntity
  8
0
100
AcDbCircle
 10
-0.0980395278529436
 20
3.563673120168479
 30
0.0
 40
0.0980395409819625
210
0.0
220
0.0
230
-1.0
  0
TEXT
  5
961
330
944
100
AcDbEntity
  8
0
100
AcDbText
 10
-0.0610321526874884
 20
3.518203609653327
 30
0.0
 40
0.0888620774192805
  1
4
 50
180.0
 71
     4
210
0.0
220
0.0
230
-1.0
100
AcDbText
  0
CIRCLE
  5
962
330
944
100
AcDbEntity
  8
0
100
AcDbCircle
 10
-0.0980395278529427
 20
4.02543049453698
 30
0.0
 40
0.0980395409819625
210
0.0
220
0.0
230
-1.0
  0
TEXT
  5
963
330
944
100
AcDbEntity
  8
0
100
AcDbText
 10
-0.0610321526874875
 20
3.979960984021828
 30
0.0
 40
0.0888620774192805
  1
2
 50
180.0
 71
     4
210
0.0
220
0.0
230
-1.0
100
AcDbText
  0
CIRCLE
  5
964
330
944
100
AcDbEntity
  8
0
100
AcDbCircle
 10
-0.0980395278529427
 20
4.307670304046873
 30
0.0
 40
0.0980395409819625
210
0.0
220
0.0
230
-1.0
  0
TEXT
  5
965
330
944
100
AcDbEntity
  8
0
100
AcDbText
 10
-0.0610321526874875
 20
4.26220079353172
 30
0.0
 40
0.0888620774192805
  1
1
 50
180.0
 71
     4
210
0.0
220
0.0
230
-1.0
100
AcDbText
  0
SOLID
  5
966
330
944
100
AcDbEntity
  8
0
100
AcDbTrace
 10
5.193061634148117
 20
4.241158479261921
 30
0.0
 11
5.230932635590806
 21
4.158147713395511
 31
0.0
 12
5.168186304755913
 22
4.224388923882324
 32
0.0
 13
5.168186304755913
 23
4.224388923882324
 33
0.0
1001
ACAD
1000
DSTYLE
1002
{
1070
   146
1040
0.25
1070
   271
1070
     2
1070
    41
1040
0.09
1002
}
  0
LINE
  5
967
330
944
100
AcDbEntity
  8
0
100
AcDbLine
 10
5.180623969452015
 20
4.232773701572122
 30
0.0
 11
5.130132870293441
 21
4.307670304046873
 31
0.0
1001
ACAD
1000
DSTYLE
1002
{
1070
   146
1040
0.25
1070
   271
1070
     2
1070
    41
1040
0.09
1002
}
  0
SOLID
  5
968
330
944
100
AcDbEntity
  8
0
100
AcDbTrace
 10
5.009989143034765
 20
4.040430494536981
 30
0.0
 11
5.099989143034764
 21
4.02543049453698
 31
0.0
 12
5.009989143034765
 22
4.01043049453698
 32
0.0
 13
5.009989143034765
 23
4.01043049453698
 33
0.0
1001
ACAD
1000
DSTYLE
1002
{
1070
   146
1040
0.25
1070
   271
1070
     2
1070
    41
1040
0.09
1002
}
  0
LINE
  5
969
330
944
100
AcDbEntity
  8
0
100
AcDbLine
 10
2.839280760454947
 20
3.44656912677478
 30
0.0
 11
2.618657796845168
 21
3.784519143318726
 31
0.0
1001
ACAD
1000
DSTYLE
1002
{
1070
   146
1040
0.25
1070
   271
1070
     2
1070
    41
1040
0.09
1002
}
  0
SOLID
  5
96A
330
944
100
AcDbEntity
  8
0
100
AcDbTrace
 10
2.851841163551202
 20
3.454768899580144
 30
0.0
 11
2.88847939728713
 21
3.371206708197249
 31
0.0
 12
2.826720357358692
 22
3.438369353969416
 32
0.0
 13
2.826720357358692
 23
3.438369353969416
 33
0.0
1001
ACAD
1000
DSTYLE
1002
{
1070
   146
1040
0.25
1070
   271
1070
     2
1070
    41
1040
0.09
1002
}
  0
SOLID
  5
96B
330
944
100
AcDbEntity
  8
0
100
AcDbTrace
 10
2.392648352071656
 20
2.293618615631203
 30
0.0
 11
2.482648352071656
 21
2.278618615631203
 31
0.0
 12
2.392648352071656
 22
2.263618615631203
 32
0.0
 13
2.392648352071656
 23
2.263618615631203
 33
0.0
1001
ACAD
1000
DSTYLE
1002
{
1070
   146
1040
0.25
1070
   271
1070
     2
1070
    41
1040
0.09
1002
}
  0
SOLID
  5
96C
330
944
100
AcDbEntity
  8
0
100
AcDbTrace
 10
2.285854430323258
 20
2.635864991044886
 30
0.0
 11
2.375854430323257
 21
2.620864991044886
 31
0.0
 12
2.285854430323258
 22
2.605864991044886
 32
0.0
 13
2.285854430323258
 23
2.605864991044886
 33
0.0
1001
ACAD
1000
DSTYLE
1002
{
1070
   146
1040
0.25
1070
   271
1070
     2
1070
    41
1040
0.09
1002
}
  0
SOLID
  5
96D
330
944
100
AcDbEntity
  8
0
100
AcDbTrace
 10
2.507451859138103
 20
0.7023951554572634
 30
0.0
 11
2.597451859138103
 21
0.6873951554572635
 31
0.0
 12
2.507451859138103
 22
0.6723951554572636
 32
0.0
 13
2.507451859138103
 23
0.6723951554572636
 33
0.0
1001
ACAD
1000
DSTYLE
1002
{
1070
   146
1040
0.25
1070
   271
1070
     2
1070
    41
1040
0.09
1002
}
  0
SOLID
  5
96E
330
944
100
AcDbEntity
  8
0
100
AcDbTrace
 10
2.534150328443604
 20
1.026862509747171
 30
0.0
 11
2.624150328443604
 21
1.011862509747171
 31
0.0
 12
2.534150328443604
 22
0.9968625097471715
 32
0.0
 13
2.534150328443604
 23
0.9968625097471715
 33
0.0
1001
ACAD
1000
DSTYLE
1002
{
1070
   146
1040
0.25
1070
   271
1070
     2
1070
    41
1040
0.09
1002
}
  0
SOLID
  5
96F
330
944
100
AcDbEntity
  8
0
100
AcDbTrace
 10
1.426163273422172
 20
0.4268201335667388
 30
0.0
 11
1.516163273422172
 21
0.4118201335667386
 31
0.0
 12
1.426163273422172
 22
0.3968201335667385
 32
0.0
 13
1.426163273422172
 23
0.3968201335667385
 33
0.0
1001
ACAD
1000
DSTYLE
1002
{
1070
   146
1040
0.25
1070
   271
1070
     2
1070
    41
1040
0.09
1002
}
  0
SOLID
  5
970
330
944
100
AcDbEntity
  8
0
100
AcDbTrace
 10
0.647481178797765
 20
3.540959093950923
 30
0.0
 11
0.6841194125336916
 21
3.457396902568028
 31
0.0
 12
0.6223603726052538
 22
3.524559548340195
 32
0.0
 13
0.6223603726052538
 23
3.524559548340195
 33
0.0
1001
ACAD
1000
DSTYLE
1002
{
1070
   146
1040
0.25
1070
   271
1070
     2
1070
    41
1040
0.09
1002
}
  0
LINE
  5
971
330
944
100
AcDbEntity
  8
0
100
AcDbLine
 10
0.6349207757015094
 20
3.532759321145559
 30
0.0
 11
0.6149515593981834
 21
3.563348145036145
 31
0.0
1001
ACAD
1000
DSTYLE
1002
{
1070
   146
1040
0.25
1070
   271
1070
     2
1070
    41
1040
0.09
1002
}
  0
TEXT
  5
972
330
944
100
AcDbEntity
  8
0
100
AcDbText
 10
5.233053227187772
 20
0.7275654347896525
 30
0.0
 40
0.0684360496240188
  1
PEA GRVEL SUMP MINIMUM 3"
100
AcDbText
  0
TEXT
  5
973
330
944
100
AcDbEntity
  8
0
100
AcDbText
 10
5.233053227187772
 20
0.9479081794214101
 30
0.0
 40
0.0684360496240188
  1
BRICK SUPPORT AT EACH CORNER
100
AcDbText
  0
TEXT
  5
974
330
944
100
AcDbEntity
  8
0
100
AcDbText
 10
5.233053227187772
 20
1.806085124312491
 30
0.0
 40
0.0684360496240188
  1
FINISH GRADE TOP
100
AcDbText
  0
TEXT
  5
975
330
944
100
AcDbEntity
  8
0
100
AcDbText
 10
5.233053227187772
 20
2.042116226504741
 30
0.0
 40
0.0684360496240188
  1
6" IRRIGATION BOX WITH COVER
100
AcDbText
  0
TEXT
  5
976
330
944
100
AcDbEntity
  8
0
100
AcDbText
 10
5.233053227187772
 20
2.55580224935614
 30
0.0
 40
0.0684360496240188
  1
BUG PLUG, DIG MODEL 10-016
100
AcDbText
  0
TEXT
  5
977
330
944
100
AcDbEntity
  8
0
100
AcDbText
 10
5.233053227187772
 20
2.284255496618274
 30
0.0
 40
0.0684360496240188
  1
DISTRIBUTION TUBING, DIG MODEL 
100
AcDbText
  0
TEXT
  5
978
330
944
100
AcDbEntity
  8
0
100
AcDbText
 10
5.233053227187772
 20
2.384301611578393
 30
0.0
 40
0.0684360496240188
  1
"V" STAKE FOR 1/2" AND 1/4"
100
AcDbText
  0
TEXT
  5
979
330
944
100
AcDbEntity
  8
0
100
AcDbText
 10
5.233053227187772
 20
1.076490500606698
 30
0.0
 40
0.0684360496240188
  1
12-006, 100' 12-019, 3000'
100
AcDbText
  0
TEXT
  5
97A
330
944
100
AcDbEntity
  8
0
100
AcDbText
 10
5.233053227187772
 20
1.169390459289029
 30
0.0
 40
0.0684360496240188
  1
118 ID X 187 OD, DIG MODEL
100
AcDbText
  0
TEXT
  5
97B
330
944
100
AcDbEntity
  8
0
100
AcDbText
 10
5.233053227187772
 20
1.26229041797136
 30
0.0
 40
0.0684360496240188
  1
1/8" VINYL DISTRIBUTION TUBING
100
AcDbText
  0
TEXT
  5
97C
330
944
100
AcDbEntity
  8
0
100
AcDbText
 10
5.233053227187772
 20
1.481678734618387
 30
0.0
 40
0.0684360496240188
  1
TOP-020, 2.2 GPH AND TOP-030, 3.3
100
AcDbText
  0
TEXT
  5
97D
330
944
100
AcDbEntity
  8
0
100
AcDbText
 10
5.233053227187772
 20
1.67462480826084
 30
0.0
 40
0.0684360496240188
  1
T.O.P. 12 ZONE DRIP HEAD, DIG MODEL,
100
AcDbText
  0
TEXT
  5
97E
330
944
100
AcDbEntity
  8
0
100
AcDbText
 10
5.233053227187772
 20
1.581724849578506
 30
0.0
 40
0.0684360496240188
  1
TOP-005, 5 GPH, TOP-010, 1 GPH
100
AcDbText
  0
TEXT
  5
97F
330
944
100
AcDbEntity
  8
0
100
AcDbText
 10
5.233053227187772
 20
0.5130530381215825
 30
0.0
 40
0.0684360496240188
  1
1/2" SCH 80 PVC NIPPLE
100
AcDbText
  0
TEXT
  5
980
330
944
100
AcDbEntity
  8
0
100
AcDbText
 10
5.233053227187772
 20
0.0608526809411414
 30
0.0
 40
0.0684360496240188
  1
PVC LATERAL PIPE
100
AcDbText
  0
TEXT
  5
981
330
944
100
AcDbEntity
  8
0
100
AcDbText
 10
5.233053227187772
 20
0.2860816272232993
 30
0.0
 40
0.0684360496240188
  1
PVC SCH 80 TEE
100
AcDbText
  0
TEXT
  5
982
330
944
100
AcDbEntity
  8
0
100
AcDbText
 10
5.233053227187772
 20
2.17706324969
 30
0.0
 40
0.0684360496240188
  1
16-016
100
AcDbText
  0
TEXT
  5
983
330
944
100
AcDbEntity
  8
0
100
AcDbText
 10
-5.018064639079172
 20
0.4912283276933307
 30
0.0
 40
0.0888620774192805
  1
9
 50
180.0
 71
     4
210
0.0
220
0.0
230
-1.0
100
AcDbText
  0
CIRCLE
  5
984
330
944
100
AcDbEntity
  8
0
100
AcDbCircle
 10
-5.056689256528026
 20
0.5360371654019138
 30
0.0
 40
0.0980395409819625
210
0.0
220
0.0
230
-1.0
  0
TEXT
  5
985
330
944
100
AcDbEntity
  8
0
100
AcDbText
 10
-4.968742853954226
 20
0.0532306939303622
 30
0.0
 40
0.0888620774192805
  1
11
 50
180.0
 71
     4
210
0.0
220
0.0
230
-1.0
100
AcDbText
  0
CIRCLE
  5
986
330
944
100
AcDbEntity
  8
0
100
AcDbCircle
 10
-5.056689256528026
 20
0.0980395316389453
 30
0.0
 40
0.0980395409819625
210
0.0
220
0.0
230
-1.0
  0
CIRCLE
  5
987
330
944
100
AcDbEntity
  8
0
100
AcDbCircle
 10
-5.056689256528026
 20
0.0980395316389453
 30
0.0
 40
0.0980395409819625
210
0.0
220
0.0
230
-1.0
  0
CIRCLE
  5
988
330
944
100
AcDbEntity
  8
0
100
AcDbCircle
 10
-5.056689256528026
 20
0.0980395316389453
 30
0.0
 40
0.0980395409819625
210
0.0
220
0.0
230
-1.0
  0
CIRCLE
  5
989
330
944
100
AcDbEntity
  8
0
100
AcDbCircle
 10
-5.056689256528026
 20
0.0980395316389453
 30
0.0
 40
0.0980395409819625
210
0.0
220
0.0
230
-1.0
  0
CIRCLE
  5
98A
330
944
100
AcDbEntity
  8
0
100
AcDbCircle
 10
-5.056689256528026
 20
0.0980395316389453
 30
0.0
 40
0.0980395409819625
210
0.0
220
0.0
230
-1.0
  0
CIRCLE
  5
98B
330
944
100
AcDbEntity
  8
0
100
AcDbCircle
 10
-5.056689256528026
 20
0.0980395316389453
 30
0.0
 40
0.0980395409819625
210
0.0
220
0.0
230
-1.0
  0
CIRCLE
  5
98C
330
944
100
AcDbEntity
  8
0
100
AcDbCircle
 10
-5.056689256528026
 20
0.0980395316389453
 30
0.0
 40
0.0980395409819625
210
0.0
220
0.0
230
-1.0
  0
CIRCLE
  5
98D
330
944
100
AcDbEntity
  8
0
100
AcDbCircle
 10
-5.056689256528026
 20
0.0980395316389453
 30
0.0
 40
0.0980395409819625
210
0.0
220
0.0
230
-1.0
  0
CIRCLE
  5
98E
330
944
100
AcDbEntity
  8
0
100
AcDbCircle
 10
-5.056689256528026
 20
0.0980395316389453
 30
0.0
 40
0.0980395409819625
210
0.0
220
0.0
230
-1.0
  0
CIRCLE
  5
98F
330
944
100
AcDbEntity
  8
0
100
AcDbCircle
 10
-5.056689256528026
 20
0.0980395316389453
 30
0.0
 40
0.0980395409819625
210
0.0
220
0.0
230
-1.0
  0
CIRCLE
  5
990
330
944
100
AcDbEntity
  8
0
100
AcDbCircle
 10
-5.056689256528026
 20
0.0980395316389453
 30
0.0
 40
0.0980395409819625
210
0.0
220
0.0
230
-1.0
  0
CIRCLE
  5
991
330
944
100
AcDbEntity
  8
0
100
AcDbCircle
 10
-5.056689256528026
 20
0.3206766785594004
 30
0.0
 40
0.0980395409819625
210
0.0
220
0.0
230
-1.0
  0
CIRCLE
  5
992
330
944
100
AcDbEntity
  8
0
100
AcDbCircle
 10
-5.056689256528026
 20
0.3206766785594004
 30
0.0
 40
0.0980395409819625
210
0.0
220
0.0
230
-1.0
  0
CIRCLE
  5
993
330
944
100
AcDbEntity
  8
0
100
AcDbCircle
 10
-5.056689256528026
 20
0.3206766785594004
 30
0.0
 40
0.0980395409819625
210
0.0
220
0.0
230
-1.0
  0
CIRCLE
  5
994
330
944
100
AcDbEntity
  8
0
100
AcDbCircle
 10
-5.056689256528026
 20
0.3206766785594004
 30
0.0
 40
0.0980395409819625
210
0.0
220
0.0
230
-1.0
  0
CIRCLE
  5
995
330
944
100
AcDbEntity
  8
0
100
AcDbCircle
 10
-5.056689256528026
 20
0.3206766785594004
 30
0.0
 40
0.0980395409819625
210
0.0
220
0.0
230
-1.0
  0
CIRCLE
  5
996
330
944
100
AcDbEntity
  8
0
100
AcDbCircle
 10
-5.056689256528026
 20
0.3206766785594004
 30
0.0
 40
0.0980395409819625
210
0.0
220
0.0
230
-1.0
  0
CIRCLE
  5
997
330
944
100
AcDbEntity
  8
0
100
AcDbCircle
 10
-5.056689256528026
 20
0.3206766785594004
 30
0.0
 40
0.0980395409819625
210
0.0
220
0.0
230
-1.0
  0
CIRCLE
  5
998
330
944
100
AcDbEntity
  8
0
100
AcDbCircle
 10
-5.056689256528026
 20
0.3206766785594004
 30
0.0
 40
0.0980395409819625
210
0.0
220
0.0
230
-1.0
  0
CIRCLE
  5
999
330
944
100
AcDbEntity
  8
0
100
AcDbCircle
 10
-5.056689256528026
 20
0.3206766785594004
 30
0.0
 40
0.0980395409819625
210
0.0
220
0.0
230
-1.0
  0
CIRCLE
  5
99A
330
944
100
AcDbEntity
  8
0
100
AcDbCircle
 10
-5.056689256528026
 20
0.3206766785594004
 30
0.0
 40
0.0980395409819625
210
0.0
220
0.0
230
-1.0
  0
CIRCLE
  5
99B
330
944
100
AcDbEntity
  8
0
100
AcDbCircle
 10
-5.056689256528026
 20
0.3206766785594004
 30
0.0
 40
0.0980395409819625
210
0.0
220
0.0
230
-1.0
  0
TEXT
  5
99C
330
944
100
AcDbEntity
  8
0
100
AcDbText
 10
-4.968742853954226
 20
0.2758678408508173
 30
0.0
 40
0.0888620774192805
  1
10
 50
180.0
 71
     4
210
0.0
220
0.0
230
-1.0
100
AcDbText
  0
TEXT
  5
99D
330
944
100
AcDbEntity
  8
0
100
AcDbText
 10
-5.018064639079172
 20
0.7064760579402884
 30
0.0
 40
0.0888620774192805
  1
8
 50
180.0
 71
     4
210
0.0
220
0.0
230
-1.0
100
AcDbText
  0
CIRCLE
  5
99E
330
944
100
AcDbEntity
  8
0
100
AcDbCircle
 10
-5.056689256528026
 20
0.7512848956488716
 30
0.0
 40
0.0980395409819625
210
0.0
220
0.0
230
-1.0
  0
CIRCLE
  5
99F
330
944
100
AcDbEntity
  8
0
100
AcDbCircle
 10
-5.056689256528026
 20
0.7512848956488716
 30
0.0
 40
0.0980395409819625
210
0.0
220
0.0
230
-1.0
  0
CIRCLE
  5
9A0
330
944
100
AcDbEntity
  8
0
100
AcDbCircle
 10
-5.056689256528026
 20
0.7512848956488716
 30
0.0
 40
0.0980395409819625
210
0.0
220
0.0
230
-1.0
  0
CIRCLE
  5
9A1
330
944
100
AcDbEntity
  8
0
100
AcDbCircle
 10
-5.056689256528026
 20
0.7512848956488716
 30
0.0
 40
0.0980395409819625
210
0.0
220
0.0
230
-1.0
  0
CIRCLE
  5
9A2
330
944
100
AcDbEntity
  8
0
100
AcDbCircle
 10
-5.056689256528026
 20
0.7512848956488716
 30
0.0
 40
0.0980395409819625
210
0.0
220
0.0
230
-1.0
  0
CIRCLE
  5
9A3
330
944
100
AcDbEntity
  8
0
100
AcDbCircle
 10
-5.056689256528026
 20
0.7512848956488716
 30
0.0
 40
0.0980395409819625
210
0.0
220
0.0
230
-1.0
  0
CIRCLE
  5
9A4
330
944
100
AcDbEntity
  8
0
100
AcDbCircle
 10
-5.056689256528026
 20
0.7512848956488716
 30
0.0
 40
0.0980395409819625
210
0.0
220
0.0
230
-1.0
  0
CIRCLE
  5
9A5
330
944
100
AcDbEntity
  8
0
100
AcDbCircle
 10
-5.056689256528026
 20
0.7512848956488716
 30
0.0
 40
0.0980395409819625
210
0.0
220
0.0
230
-1.0
  0
CIRCLE
  5
9A6
330
944
100
AcDbEntity
  8
0
100
AcDbCircle
 10
-5.056689256528026
 20
0.7512848956488716
 30
0.0
 40
0.0980395409819625
210
0.0
220
0.0
230
-1.0
  0
CIRCLE
  5
9A7
330
944
100
AcDbEntity
  8
0
100
AcDbCircle
 10
-5.056689256528026
 20
0.7512848956488716
 30
0.0
 40
0.0980395409819625
210
0.0
220
0.0
230
-1.0
  0
CIRCLE
  5
9A8
330
944
100
AcDbEntity
  8
0
100
AcDbCircle
 10
-5.056689256528026
 20
0.7512848956488716
 30
0.0
 40
0.0980395409819625
210
0.0
220
0.0
230
-1.0
  0
CIRCLE
  5
9A9
330
944
100
AcDbEntity
  8
0
100
AcDbCircle
 10
-5.056689256528026
 20
0.971627632279243
 30
0.0
 40
0.0980395409819625
210
0.0
220
0.0
230
-1.0
  0
CIRCLE
  5
9AA
330
944
100
AcDbEntity
  8
0
100
AcDbCircle
 10
-5.056689256528026
 20
0.971627632279243
 30
0.0
 40
0.0980395409819625
210
0.0
220
0.0
230
-1.0
  0
CIRCLE
  5
9AB
330
944
100
AcDbEntity
  8
0
100
AcDbCircle
 10
-5.056689256528026
 20
0.971627632279243
 30
0.0
 40
0.0980395409819625
210
0.0
220
0.0
230
-1.0
  0
CIRCLE
  5
9AC
330
944
100
AcDbEntity
  8
0
100
AcDbCircle
 10
-5.056689256528026
 20
0.971627632279243
 30
0.0
 40
0.0980395409819625
210
0.0
220
0.0
230
-1.0
  0
CIRCLE
  5
9AD
330
944
100
AcDbEntity
  8
0
100
AcDbCircle
 10
-5.056689256528026
 20
0.971627632279243
 30
0.0
 40
0.0980395409819625
210
0.0
220
0.0
230
-1.0
  0
CIRCLE
  5
9AE
330
944
100
AcDbEntity
  8
0
100
AcDbCircle
 10
-5.056689256528026
 20
0.971627632279243
 30
0.0
 40
0.0980395409819625
210
0.0
220
0.0
230
-1.0
  0
CIRCLE
  5
9AF
330
944
100
AcDbEntity
  8
0
100
AcDbCircle
 10
-5.056689256528026
 20
0.971627632279243
 30
0.0
 40
0.0980395409819625
210
0.0
220
0.0
230
-1.0
  0
CIRCLE
  5
9B0
330
944
100
AcDbEntity
  8
0
100
AcDbCircle
 10
-5.056689256528026
 20
0.971627632279243
 30
0.0
 40
0.0980395409819625
210
0.0
220
0.0
230
-1.0
  0
CIRCLE
  5
9B1
330
944
100
AcDbEntity
  8
0
100
AcDbCircle
 10
-5.056689256528026
 20
0.971627632279243
 30
0.0
 40
0.0980395409819625
210
0.0
220
0.0
230
-1.0
  0
CIRCLE
  5
9B2
330
944
100
AcDbEntity
  8
0
100
AcDbCircle
 10
-5.056689256528026
 20
0.971627632279243
 30
0.0
 40
0.0980395409819625
210
0.0
220
0.0
230
-1.0
  0
CIRCLE
  5
9B3
330
944
100
AcDbEntity
  8
0
100
AcDbCircle
 10
-5.056689256528026
 20
0.971627632279243
 30
0.0
 40
0.0980395409819625
210
0.0
220
0.0
230
-1.0
  0
TEXT
  5
9B4
330
944
100
AcDbEntity
  8
0
100
AcDbText
 10
-5.018064639079172
 20
0.9268187945706599
 30
0.0
 40
0.0888620774192805
  1
7
 50
180.0
 71
     4
210
0.0
220
0.0
230
-1.0
100
AcDbText
  0
TEXT
  5
9B5
330
944
100
AcDbEntity
  8
0
100
AcDbText
 10
-5.018064639079172
 20
1.169036946009366
 30
0.0
 40
0.0888620774192805
  1
6
 50
180.0
 71
     4
210
0.0
220
0.0
230
-1.0
100
AcDbText
  0
CIRCLE
  5
9B6
330
944
100
AcDbEntity
  8
0
100
AcDbCircle
 10
-5.056689256528026
 20
1.213845783717949
 30
0.0
 40
0.0980395409819625
210
0.0
220
0.0
230
-1.0
  0
CIRCLE
  5
9B7
330
944
100
AcDbEntity
  8
0
100
AcDbCircle
 10
-5.056689256528026
 20
1.213845783717949
 30
0.0
 40
0.0980395409819625
210
0.0
220
0.0
230
-1.0
  0
CIRCLE
  5
9B8
330
944
100
AcDbEntity
  8
0
100
AcDbCircle
 10
-5.056689256528026
 20
1.213845783717949
 30
0.0
 40
0.0980395409819625
210
0.0
220
0.0
230
-1.0
  0
CIRCLE
  5
9B9
330
944
100
AcDbEntity
  8
0
100
AcDbCircle
 10
-5.056689256528026
 20
1.213845783717949
 30
0.0
 40
0.0980395409819625
210
0.0
220
0.0
230
-1.0
  0
CIRCLE
  5
9BA
330
944
100
AcDbEntity
  8
0
100
AcDbCircle
 10
-5.056689256528026
 20
1.213845783717949
 30
0.0
 40
0.0980395409819625
210
0.0
220
0.0
230
-1.0
  0
CIRCLE
  5
9BB
330
944
100
AcDbEntity
  8
0
100
AcDbCircle
 10
-5.056689256528026
 20
1.213845783717949
 30
0.0
 40
0.0980395409819625
210
0.0
220
0.0
230
-1.0
  0
CIRCLE
  5
9BC
330
944
100
AcDbEntity
  8
0
100
AcDbCircle
 10
-5.056689256528026
 20
1.213845783717949
 30
0.0
 40
0.0980395409819625
210
0.0
220
0.0
230
-1.0
  0
CIRCLE
  5
9BD
330
944
100
AcDbEntity
  8
0
100
AcDbCircle
 10
-5.056689256528026
 20
1.213845783717949
 30
0.0
 40
0.0980395409819625
210
0.0
220
0.0
230
-1.0
  0
CIRCLE
  5
9BE
330
944
100
AcDbEntity
  8
0
100
AcDbCircle
 10
-5.056689256528026
 20
1.213845783717949
 30
0.0
 40
0.0980395409819625
210
0.0
220
0.0
230
-1.0
  0
CIRCLE
  5
9BF
330
944
100
AcDbEntity
  8
0
100
AcDbCircle
 10
-5.056689256528026
 20
1.213845783717949
 30
0.0
 40
0.0980395409819625
210
0.0
220
0.0
230
-1.0
  0
CIRCLE
  5
9C0
330
944
100
AcDbEntity
  8
0
100
AcDbCircle
 10
-5.056689256528026
 20
1.213845783717949
 30
0.0
 40
0.0980395409819625
210
0.0
220
0.0
230
-1.0
  0
CIRCLE
  5
9C1
330
944
100
AcDbEntity
  8
0
100
AcDbCircle
 10
-5.056689256528026
 20
2.082061774181393
 30
0.0
 40
0.0980395409819625
210
0.0
220
0.0
230
-1.0
  0
CIRCLE
  5
9C2
330
944
100
AcDbEntity
  8
0
100
AcDbCircle
 10
-5.056689256528026
 20
2.082061774181393
 30
0.0
 40
0.0980395409819625
210
0.0
220
0.0
230
-1.0
  0
CIRCLE
  5
9C3
330
944
100
AcDbEntity
  8
0
100
AcDbCircle
 10
-5.056689256528026
 20
2.082061774181393
 30
0.0
 40
0.0980395409819625
210
0.0
220
0.0
230
-1.0
  0
CIRCLE
  5
9C4
330
944
100
AcDbEntity
  8
0
100
AcDbCircle
 10
-5.056689256528026
 20
2.082061774181393
 30
0.0
 40
0.0980395409819625
210
0.0
220
0.0
230
-1.0
  0
CIRCLE
  5
9C5
330
944
100
AcDbEntity
  8
0
100
AcDbCircle
 10
-5.056689256528026
 20
2.082061774181393
 30
0.0
 40
0.0980395409819625
210
0.0
220
0.0
230
-1.0
  0
CIRCLE
  5
9C6
330
944
100
AcDbEntity
  8
0
100
AcDbCircle
 10
-5.056689256528026
 20
2.082061774181393
 30
0.0
 40
0.0980395409819625
210
0.0
220
0.0
230
-1.0
  0
CIRCLE
  5
9C7
330
944
100
AcDbEntity
  8
0
100
AcDbCircle
 10
-5.056689256528026
 20
2.082061774181393
 30
0.0
 40
0.0980395409819625
210
0.0
220
0.0
230
-1.0
  0
CIRCLE
  5
9C8
330
944
100
AcDbEntity
  8
0
100
AcDbCircle
 10
-5.056689256528026
 20
2.082061774181393
 30
0.0
 40
0.0980395409819625
210
0.0
220
0.0
230
-1.0
  0
CIRCLE
  5
9C9
330
944
100
AcDbEntity
  8
0
100
AcDbCircle
 10
-5.056689256528026
 20
2.082061774181393
 30
0.0
 40
0.0980395409819625
210
0.0
220
0.0
230
-1.0
  0
CIRCLE
  5
9CA
330
944
100
AcDbEntity
  8
0
100
AcDbCircle
 10
-5.056689256528026
 20
2.082061774181393
 30
0.0
 40
0.0980395409819625
210
0.0
220
0.0
230
-1.0
  0
CIRCLE
  5
9CB
330
944
100
AcDbEntity
  8
0
100
AcDbCircle
 10
-5.056689256528026
 20
2.082061774181393
 30
0.0
 40
0.0980395409819625
210
0.0
220
0.0
230
-1.0
  0
TEXT
  5
9CC
330
944
100
AcDbEntity
  8
0
100
AcDbText
 10
-5.018064639079172
 20
2.03725293647281
 30
0.0
 40
0.0888620774192805
  1
3
 50
180.0
 71
     4
210
0.0
220
0.0
230
-1.0
100
AcDbText
  0
TEXT
  5
9CD
330
944
100
AcDbEntity
  8
0
100
AcDbText
 10
-5.018064639079172
 20
1.533924464729103
 30
0.0
 40
0.0888620774192805
  1
5
 50
180.0
 71
     4
210
0.0
220
0.0
230
-1.0
100
AcDbText
  0
CIRCLE
  5
9CE
330
944
100
AcDbEntity
  8
0
100
AcDbCircle
 10
-5.056689256528026
 20
1.578733302437686
 30
0.0
 40
0.0980395409819625
210
0.0
220
0.0
230
-1.0
  0
CIRCLE
  5
9CF
330
944
100
AcDbEntity
  8
0
100
AcDbCircle
 10
-5.056689256528026
 20
1.578733302437686
 30
0.0
 40
0.0980395409819625
210
0.0
220
0.0
230
-1.0
  0
CIRCLE
  5
9D0
330
944
100
AcDbEntity
  8
0
100
AcDbCircle
 10
-5.056689256528026
 20
1.578733302437686
 30
0.0
 40
0.0980395409819625
210
0.0
220
0.0
230
-1.0
  0
CIRCLE
  5
9D1
330
944
100
AcDbEntity
  8
0
100
AcDbCircle
 10
-5.056689256528026
 20
1.578733302437686
 30
0.0
 40
0.0980395409819625
210
0.0
220
0.0
230
-1.0
  0
CIRCLE
  5
9D2
330
944
100
AcDbEntity
  8
0
100
AcDbCircle
 10
-5.056689256528026
 20
1.578733302437686
 30
0.0
 40
0.0980395409819625
210
0.0
220
0.0
230
-1.0
  0
CIRCLE
  5
9D3
330
944
100
AcDbEntity
  8
0
100
AcDbCircle
 10
-5.056689256528026
 20
1.578733302437686
 30
0.0
 40
0.0980395409819625
210
0.0
220
0.0
230
-1.0
  0
CIRCLE
  5
9D4
330
944
100
AcDbEntity
  8
0
100
AcDbCircle
 10
-5.056689256528026
 20
1.578733302437686
 30
0.0
 40
0.0980395409819625
210
0.0
220
0.0
230
-1.0
  0
CIRCLE
  5
9D5
330
944
100
AcDbEntity
  8
0
100
AcDbCircle
 10
-5.056689256528026
 20
1.578733302437686
 30
0.0
 40
0.0980395409819625
210
0.0
220
0.0
230
-1.0
  0
CIRCLE
  5
9D6
330
944
100
AcDbEntity
  8
0
100
AcDbCircle
 10
-5.056689256528026
 20
1.578733302437686
 30
0.0
 40
0.0980395409819625
210
0.0
220
0.0
230
-1.0
  0
CIRCLE
  5
9D7
330
944
100
AcDbEntity
  8
0
100
AcDbCircle
 10
-5.056689256528026
 20
1.578733302437686
 30
0.0
 40
0.0980395409819625
210
0.0
220
0.0
230
-1.0
  0
CIRCLE
  5
9D8
330
944
100
AcDbEntity
  8
0
100
AcDbCircle
 10
-5.056689256528026
 20
1.578733302437686
 30
0.0
 40
0.0980395409819625
210
0.0
220
0.0
230
-1.0
  0
CIRCLE
  5
9D9
330
944
100
AcDbEntity
  8
0
100
AcDbCircle
 10
-5.056689256528026
 20
1.839118706695532
 30
0.0
 40
0.0980395409819625
210
0.0
220
0.0
230
-1.0
  0
TEXT
  5
9DA
330
944
100
AcDbEntity
  8
0
100
AcDbText
 10
-5.018064639079172
 20
1.794309868986949
 30
0.0
 40
0.0888620774192805
  1
4
 50
180.0
 71
     4
210
0.0
220
0.0
230
-1.0
100
AcDbText
  0
TEXT
  5
9DB
330
944
100
AcDbEntity
  8
0
100
AcDbText
 10
5.233053227187772
 20
1.3816326439679
 30
0.0
 40
0.0684360496240188
  1
GPH
100
AcDbText
  0
CIRCLE
  5
9DC
330
944
100
AcDbEntity
  8
0
100
AcDbCircle
 10
-5.056689256528026
 20
2.362039568851521
 30
0.0
 40
0.0980395409819625
210
0.0
220
0.0
230
-1.0
  0
CIRCLE
  5
9DD
330
944
100
AcDbEntity
  8
0
100
AcDbCircle
 10
-5.056689256528026
 20
2.362039568851521
 30
0.0
 40
0.0980395409819625
210
0.0
220
0.0
230
-1.0
  0
CIRCLE
  5
9DE
330
944
100
AcDbEntity
  8
0
100
AcDbCircle
 10
-5.056689256528026
 20
2.362039568851521
 30
0.0
 40
0.0980395409819625
210
0.0
220
0.0
230
-1.0
  0
CIRCLE
  5
9DF
330
944
100
AcDbEntity
  8
0
100
AcDbCircle
 10
-5.056689256528026
 20
2.362039568851521
 30
0.0
 40
0.0980395409819625
210
0.0
220
0.0
230
-1.0
  0
CIRCLE
  5
9E0
330
944
100
AcDbEntity
  8
0
100
AcDbCircle
 10
-5.056689256528026
 20
2.362039568851521
 30
0.0
 40
0.0980395409819625
210
0.0
220
0.0
230
-1.0
  0
CIRCLE
  5
9E1
330
944
100
AcDbEntity
  8
0
100
AcDbCircle
 10
-5.056689256528026
 20
2.362039568851521
 30
0.0
 40
0.0980395409819625
210
0.0
220
0.0
230
-1.0
  0
CIRCLE
  5
9E2
330
944
100
AcDbEntity
  8
0
100
AcDbCircle
 10
-5.056689256528026
 20
2.362039568851521
 30
0.0
 40
0.0980395409819625
210
0.0
220
0.0
230
-1.0
  0
CIRCLE
  5
9E3
330
944
100
AcDbEntity
  8
0
100
AcDbCircle
 10
-5.056689256528026
 20
2.362039568851521
 30
0.0
 40
0.0980395409819625
210
0.0
220
0.0
230
-1.0
  0
CIRCLE
  5
9E4
330
944
100
AcDbEntity
  8
0
100
AcDbCircle
 10
-5.056689256528026
 20
2.362039568851521
 30
0.0
 40
0.0980395409819625
210
0.0
220
0.0
230
-1.0
  0
CIRCLE
  5
9E5
330
944
100
AcDbEntity
  8
0
100
AcDbCircle
 10
-5.056689256528026
 20
2.362039568851521
 30
0.0
 40
0.0980395409819625
210
0.0
220
0.0
230
-1.0
  0
CIRCLE
  5
9E6
330
944
100
AcDbEntity
  8
0
100
AcDbCircle
 10
-5.056689256528026
 20
2.362039568851521
 30
0.0
 40
0.0980395409819625
210
0.0
220
0.0
230
-1.0
  0
TEXT
  5
9E7
330
944
100
AcDbEntity
  8
0
100
AcDbText
 10
-5.018064639079172
 20
2.317230731142938
 30
0.0
 40
0.0888620774192805
  1
2
 50
180.0
 71
     4
210
0.0
220
0.0
230
-1.0
100
AcDbText
  0
CIRCLE
  5
9E8
330
944
100
AcDbEntity
  8
0
100
AcDbCircle
 10
-5.056689256528026
 20
2.590709408232299
 30
0.0
 40
0.0980395409819625
210
0.0
220
0.0
230
-1.0
  0
CIRCLE
  5
9E9
330
944
100
AcDbEntity
  8
0
100
AcDbCircle
 10
-5.056689256528026
 20
2.590709408232299
 30
0.0
 40
0.0980395409819625
210
0.0
220
0.0
230
-1.0
  0
CIRCLE
  5
9EA
330
944
100
AcDbEntity
  8
0
100
AcDbCircle
 10
-5.056689256528026
 20
2.590709408232299
 30
0.0
 40
0.0980395409819625
210
0.0
220
0.0
230
-1.0
  0
CIRCLE
  5
9EB
330
944
100
AcDbEntity
  8
0
100
AcDbCircle
 10
-5.056689256528026
 20
2.590709408232299
 30
0.0
 40
0.0980395409819625
210
0.0
220
0.0
230
-1.0
  0
CIRCLE
  5
9EC
330
944
100
AcDbEntity
  8
0
100
AcDbCircle
 10
-5.056689256528026
 20
2.590709408232299
 30
0.0
 40
0.0980395409819625
210
0.0
220
0.0
230
-1.0
  0
CIRCLE
  5
9ED
330
944
100
AcDbEntity
  8
0
100
AcDbCircle
 10
-5.056689256528026
 20
2.590709408232299
 30
0.0
 40
0.0980395409819625
210
0.0
220
0.0
230
-1.0
  0
CIRCLE
  5
9EE
330
944
100
AcDbEntity
  8
0
100
AcDbCircle
 10
-5.056689256528026
 20
2.590709408232299
 30
0.0
 40
0.0980395409819625
210
0.0
220
0.0
230
-1.0
  0
CIRCLE
  5
9EF
330
944
100
AcDbEntity
  8
0
100
AcDbCircle
 10
-5.056689256528026
 20
2.590709408232299
 30
0.0
 40
0.0980395409819625
210
0.0
220
0.0
230
-1.0
  0
CIRCLE
  5
9F0
330
944
100
AcDbEntity
  8
0
100
AcDbCircle
 10
-5.056689256528026
 20
2.590709408232299
 30
0.0
 40
0.0980395409819625
210
0.0
220
0.0
230
-1.0
  0
CIRCLE
  5
9F1
330
944
100
AcDbEntity
  8
0
100
AcDbCircle
 10
-5.056689256528026
 20
2.590709408232299
 30
0.0
 40
0.0980395409819625
210
0.0
220
0.0
230
-1.0
  0
CIRCLE
  5
9F2
330
944
100
AcDbEntity
  8
0
100
AcDbCircle
 10
-5.056689256528026
 20
2.590709408232299
 30
0.0
 40
0.0980395409819625
210
0.0
220
0.0
230
-1.0
  0
TEXT
  5
9F3
330
944
100
AcDbEntity
  8
0
100
AcDbText
 10
-5.020156605915177
 20
2.545900570523716
 30
0.0
 40
0.0888620774192805
  1
1
 50
180.0
 71
     4
210
0.0
220
0.0
230
-1.0
100
AcDbText
  0
ENDBLK
  5
1760
330
944
100
AcDbEntity
  8
0
100
AcDbBlockEnd
  0
BLOCK
  5
1761
330
DA6
100
AcDbEntity
  8
0
100
AcDbBlockBegin
  2
A$C7B224919
 70
     0
 10
0.0
 20
0.0
 30
0.0
  3
A$C7B224919
  1

  0
LINE
  5
DA7
330
DA6
100
AcDbEntity
  8
0
100
AcDbLine
 10
0.2030336518564546
 20
0.4694950185160049
 30
0.0
 11
0.2765411405431712
 21
0.4694950185160049
 31
0.0
  0
LINE
  5
DA8
330
DA6
100
AcDbEntity
  8
0
100
AcDbLine
 10
0.2176053932756026
 20
0.4523028035173793
 30
0.0
 11
0.2894378995829947
 21
0.4523028035173793
 31
0.0
  0
LINE
  5
DA9
330
DA6
100
AcDbEntity
  8
0
100
AcDbLine
 10
0.0789978754874325
 20
0.4261467507920145
 30
0.0
 11
0.4271283738959917
 21
0.4261467507920162
 31
0.0
  0
LINE
  5
DAA
330
DA6
100
AcDbEntity
  8
0
100
AcDbLine
 10
0.0532104288944169
 20
0.3359918406777584
 30
0.0
 11
0.4529158204890069
 21
0.3359918406777584
 31
0.0
  0
LINE
  5
DAB
330
DA6
100
AcDbEntity
  8
0
100
AcDbLine
 10
0.0532104288944164
 20
0.3263323991475247
 30
0.0
 11
0.4529158204890069
 21
0.3263323991475273
 31
0.0
  0
LINE
  5
DAC
330
DA6
100
AcDbEntity
  8
0
100
AcDbLine
 10
0.1379366890954548
 20
0.2393973585579525
 30
0.0
 11
0.3691066037631434
 21
0.2393973585579499
 31
0.0
  0
LINE
  5
DAD
330
DA6
100
AcDbEntity
  8
0
100
AcDbLine
 10
0.2018392106774467
 20
0.1784336683542209
 30
0.0
 11
0.3052040821811501
 21
0.1784336683542227
 31
0.0
  0
LINE
  5
DAE
330
DA6
100
AcDbEntity
  8
0
100
AcDbLine
 10
0.1324418326193744
 20
-0.0000000109170095
 30
0.0
 11
0.3743129502179476
 21
-0.0000000109170095
 31
0.0
  0
ARC
  5
DAF
330
DA6
100
AcDbEntity
  8
0
100
AcDbCircle
 10
0.2535216464292986
 20
0.1004856877947322
 30
0.0
 40
0.022223628860455
100
AcDbArc
 50
359.9999999999998
 51
90.0
  0
LINE
  5
DB0
330
DA6
100
AcDbEntity
  8
0
100
AcDbLine
 10
0.1307440919699161
 20
0.122709316655186
 30
0.0
 11
0.3762992008886812
 21
0.122709316655186
 31
0.0
  0
LINE
  5
DB1
330
DA6
100
AcDbEntity
  8
0
100
AcDbLine
 10
0.3985228297491354
 20
0.0006975202900517
 30
0.0
 11
0.108520463109461
 21
0.0006975202900517
 31
0.0
  0
LINE
  5
DB2
330
DA6
100
AcDbEntity
  8
0
100
AcDbLine
 10
0.0040989108210596
 20
0.3540347763551326
 30
0.0
 11
0.0040989108210596
 21
0.4522987944661088
 31
0.0
  0
LINE
  5
DB3
330
DA6
100
AcDbEntity
  8
0
100
AcDbLine
 10
0.0139363171801805
 20
0.4522987944661061
 30
0.0
 11
0.0139363171801805
 21
0.3540347763551326
 31
0.0
  0
LINE
  5
DB4
330
DA6
100
AcDbEntity
  8
0
100
AcDbLine
 10
0.0789978754874325
 20
0.4036080316156427
 30
0.0
 11
0.0789978754874325
 21
0.4261467507920145
 31
0.0
  0
LINE
  5
DB5
330
DA6
100
AcDbEntity
  8
0
100
AcDbLine
 10
-0.0000000033957268
 20
0.3540347763551326
 30
0.0
 11
0.1024732191893376
 21
0.3540347763551326
 31
0.0
  0
LINE
  5
DB6
330
DA6
100
AcDbEntity
  8
0
100
AcDbLine
 10
0.1032930387492539
 20
0.3098159431486263
 30
0.0
 11
-0.0000000033957268
 21
0.3098159431486263
 31
0.0
  0
LINE
  5
DB7
330
DA6
100
AcDbEntity
  8
0
100
AcDbLine
 10
-0.0000000033957268
 20
0.3098159431486263
 30
0.0
 11
-0.0000000033957268
 21
0.3540347763551326
 31
0.0
  0
LINE
  5
DB8
330
DA6
100
AcDbEntity
  8
0
100
AcDbLine
 10
0.2176053932756026
 20
0.1784336683542227
 30
0.0
 11
0.2176053932756026
 21
0.2393973585579499
 31
0.0
  0
ARC
  5
DB9
330
DA6
100
AcDbEntity
  8
0
100
AcDbCircle
 10
0.1307440919699161
 20
0.1004856877947322
 30
0.0
 40
0.022223628860455
100
AcDbArc
 50
359.9999999999998
 51
90.0
  0
ARC
  5
DBA
330
DA6
100
AcDbEntity
  8
0
100
AcDbCircle
 10
0.1307440919699161
 20
0.1004856877947322
 30
0.0
 40
0.022223628860455
100
AcDbArc
 50
89.99999999999957
 51
180.0
  0
LINE
  5
DBB
330
DA6
100
AcDbEntity
  8
0
100
AcDbLine
 10
0.108520463109461
 20
0.0006975202900517
 30
0.0
 11
0.108520463109461
 21
0.1004856877947322
 31
0.0
  0
LINE
  5
DBC
330
DA6
100
AcDbEntity
  8
0
100
AcDbLine
 10
0.2018392106774476
 20
0.122709316655186
 30
0.0
 11
0.2018392106774476
 21
0.1784336683542227
 31
0.0
  0
ARC
  5
DBD
330
DA6
100
AcDbEntity
  8
0
100
AcDbCircle
 10
0.2535216464292986
 20
0.1004856877947322
 30
0.0
 40
0.022223628860455
100
AcDbArc
 50
89.99999999999957
 51
180.0
  0
LINE
  5
DBE
330
DA6
100
AcDbEntity
  8
0
100
AcDbLine
 10
0.2312980175688435
 20
0.1004856877947322
 30
0.0
 11
0.2312980175688435
 21
0.0006975202900517
 31
0.0
  0
LINE
  5
DBF
330
DA6
100
AcDbEntity
  8
0
100
AcDbLine
 10
0.1529677208303712
 20
0.1004856877947322
 30
0.0
 11
0.1529677208303708
 21
0.0006975202900517
 31
0.0
  0
LINE
  5
DC0
330
DA6
100
AcDbEntity
  8
0
100
AcDbLine
 10
0.1379366890954539
 20
0.2393973585579499
 30
0.0
 11
0.1379366890954548
 21
0.3263323991475273
 31
0.0
  0
LINE
  5
DC1
330
DA6
100
AcDbEntity
  8
0
100
AcDbLine
 10
0.09833844513363
 20
0.3540347763551353
 30
0.0
 11
0.09833844513363
 21
0.4036080316156427
 31
0.0
  0
LINE
  5
DC2
330
DA6
100
AcDbEntity
  8
0
100
AcDbLine
 10
0.1024732191893376
 20
0.3540347763551326
 30
0.0
 11
0.1024732191893376
 21
0.3359918406777584
 31
0.0
  0
LINE
  5
DC3
330
DA6
100
AcDbEntity
  8
0
100
AcDbLine
 10
0.09833844513363
 20
0.4036080316156427
 30
0.0
 11
0.0789978754874325
 21
0.4036080316156427
 31
0.0
  0
LINE
  5
DC4
330
DA6
100
AcDbEntity
  8
0
100
AcDbLine
 10
0.0532104288944169
 20
0.3263323991475247
 30
0.0
 11
0.0532104288944169
 21
0.3359918406777584
 31
0.0
  0
LINE
  5
DC5
330
DA6
100
AcDbEntity
  8
0
100
AcDbLine
 10
0.1180491788850677
 20
0.3263323991475229
 30
0.0
 11
0.1032930387492539
 21
0.3098159431486263
 31
0.0
  0
LINE
  5
DC6
330
DA6
100
AcDbEntity
  8
0
100
AcDbLine
 10
0.1669475435647456
 20
0.2393973585579525
 30
0.0
 11
0.1669475435647456
 21
0.3263323991475273
 31
0.0
  0
LINE
  5
DC7
330
DA6
100
AcDbEntity
  8
0
100
AcDbLine
 10
0.0040989108210596
 20
0.4522987944661088
 30
0.0
 11
0.0139363171801805
 21
0.4522987944661061
 31
0.0
  0
LINE
  5
DC8
330
DA6
100
AcDbEntity
  8
0
100
AcDbLine
 10
0.1883271986534476
 20
0.4563931382982869
 30
0.0
 11
0.2030336518564528
 21
0.4694950185160049
 31
0.0
  0
LINE
  5
DC9
330
DA6
100
AcDbEntity
  8
0
100
AcDbLine
 10
0.1516603733734718
 20
0.4563931382982886
 30
0.0
 11
0.1883271986534494
 21
0.4563931382982886
 31
0.0
  0
LINE
  5
DCA
330
DA6
100
AcDbEntity
  8
0
100
AcDbLine
 10
0.1516603733734718
 20
0.4449290223404567
 30
0.0
 11
0.2176053932756026
 21
0.4449290223404541
 31
0.0
  0
LINE
  5
DCB
330
DA6
100
AcDbEntity
  8
0
100
AcDbLine
 10
0.2176053932756026
 20
0.4261467507920189
 30
0.0
 11
0.2176053932756026
 21
0.4523028035173793
 31
0.0
  0
LINE
  5
DCC
330
DA6
100
AcDbEntity
  8
0
100
AcDbLine
 10
0.1516603733734718
 20
0.4563931382982869
 30
0.0
 11
0.1516603733734718
 21
0.4449290223404594
 31
0.0
  0
LINE
  5
DCD
330
DA6
100
AcDbEntity
  8
0
100
AcDbLine
 10
0.5205641215459238
 20
0.3359918406777584
 30
0.0
 11
0.5205641215459238
 21
0.4449290223404541
 31
0.0
  0
LINE
  5
DCE
330
DA6
100
AcDbEntity
  8
0
100
AcDbLine
 10
0.4529158204890069
 20
0.3359918406777611
 30
0.0
 11
0.4529158204890065
 21
0.4449290223404541
 31
0.0
  0
LINE
  5
DCF
330
DA6
100
AcDbEntity
  8
0
100
AcDbLine
 10
0.4271283738959917
 20
0.4036080316156427
 30
0.0
 11
0.4271283738959917
 21
0.4261467507920145
 31
0.0
  0
LINE
  5
DD0
330
DA6
100
AcDbEntity
  8
0
100
AcDbLine
 10
0.4529158204890069
 20
0.3359918406777584
 30
0.0
 11
0.5205641215459238
 21
0.3359918406777584
 31
0.0
  0
LINE
  5
DD1
330
DA6
100
AcDbEntity
  8
0
100
AcDbLine
 10
0.4037502541093438
 20
0.3098159431486263
 30
0.0
 11
0.5070432962543245
 21
0.3098159431486263
 31
0.0
  0
LINE
  5
DD2
330
DA6
100
AcDbEntity
  8
0
100
AcDbLine
 10
0.2894378995829947
 20
0.1784336683542227
 30
0.0
 11
0.2894378995829947
 21
0.2393973585579499
 31
0.0
  0
ARC
  5
DD3
330
DA6
100
AcDbEntity
  8
0
100
AcDbCircle
 10
0.3762992008886812
 20
0.1004856877947322
 30
0.0
 40
0.022223628860455
100
AcDbArc
 50
359.9999999999998
 51
90.0
  0
LINE
  5
DD4
330
DA6
100
AcDbEntity
  8
0
100
AcDbLine
 10
0.3052040821811497
 20
0.122709316655186
 30
0.0
 11
0.3052040821811501
 21
0.1784336683542227
 31
0.0
  0
ARC
  5
DD5
330
DA6
100
AcDbEntity
  8
0
100
AcDbCircle
 10
0.3762992008886812
 20
0.1004856877947322
 30
0.0
 40
0.022223628860455
100
AcDbArc
 50
89.99999999999957
 51
180.0
  0
LINE
  5
DD6
330
DA6
100
AcDbEntity
  8
0
100
AcDbLine
 10
0.354075572028226
 20
0.1004856877947322
 30
0.0
 11
0.354075572028226
 21
0.0006975202900534
 31
0.0
  0
LINE
  5
DD7
330
DA6
100
AcDbEntity
  8
0
100
AcDbLine
 10
0.2757452752897538
 20
0.1004856877947322
 30
0.0
 11
0.2757452752897538
 21
0.0006975202900517
 31
0.0
  0
LINE
  5
DD8
330
DA6
100
AcDbEntity
  8
0
100
AcDbLine
 10
0.3985228297491354
 20
0.0006975202900517
 30
0.0
 11
0.3985228297491363
 21
0.1004856877947322
 31
0.0
  0
LINE
  5
DD9
330
DA6
100
AcDbEntity
  8
0
100
AcDbLine
 10
0.369106603763143
 20
0.2393973585579499
 30
0.0
 11
0.3691066037631434
 21
0.3263323991475273
 31
0.0
  0
LINE
  5
DDA
330
DA6
100
AcDbEntity
  8
0
100
AcDbLine
 10
0.3400957492938517
 20
0.2393973585579525
 30
0.0
 11
0.3400957492938517
 21
0.3263323991475273
 31
0.0
  0
LINE
  5
DDB
330
DA6
100
AcDbEntity
  8
0
100
AcDbLine
 10
0.4529158204890065
 20
0.3263323991475273
 30
0.0
 11
0.4529158204890069
 21
0.3359918406777611
 31
0.0
  0
LINE
  5
DDC
330
DA6
100
AcDbEntity
  8
0
100
AcDbLine
 10
0.4077878042497942
 20
0.3359918406777584
 30
0.0
 11
0.4077878042497942
 21
0.4036080316156427
 31
0.0
  0
LINE
  5
DDD
330
DA6
100
AcDbEntity
  8
0
100
AcDbLine
 10
0.4077878042497942
 20
0.4036080316156427
 30
0.0
 11
0.4271283738959917
 21
0.4036080316156427
 31
0.0
  0
LINE
  5
DDE
330
DA6
100
AcDbEntity
  8
0
100
AcDbLine
 10
0.38899411397353
 20
0.3263323991475229
 30
0.0
 11
0.4037502541093438
 21
0.3098159431486263
 31
0.0
  0
LINE
  5
DDF
330
DA6
100
AcDbEntity
  8
0
100
AcDbLine
 10
0.4077878042497942
 20
0.3564913559274325
 30
0.0
 11
0.4529158204890065
 21
0.3564913559274325
 31
0.0
  0
LINE
  5
DE0
330
DA6
100
AcDbEntity
  8
0
100
AcDbLine
 10
0.5070432962543245
 20
0.3098159431486263
 30
0.0
 11
0.5070432962543245
 21
0.3359918406777584
 31
0.0
  0
LINE
  5
DE1
330
DA6
100
AcDbEntity
  8
0
100
AcDbLine
 10
0.2894378995829947
 20
0.4449290223404541
 30
0.0
 11
0.5205641215459238
 21
0.4449290223404541
 31
0.0
  0
LINE
  5
DE2
330
DA6
100
AcDbEntity
  8
0
100
AcDbLine
 10
0.4719918685328275
 20
0.4563931382982913
 30
0.0
 11
0.5010942272165373
 21
0.4449290223404541
 31
0.0
  0
LINE
  5
DE3
330
DA6
100
AcDbEntity
  8
0
100
AcDbLine
 10
0.2912475937461778
 20
0.4563931382982886
 30
0.0
 11
0.4719918685328275
 21
0.4563931382982913
 31
0.0
  0
LINE
  5
DE4
330
DA6
100
AcDbEntity
  8
0
100
AcDbLine
 10
0.2912475937461783
 20
0.4563931382982886
 30
0.0
 11
0.2765411405431739
 21
0.4694950185160049
 31
0.0
  0
LINE
  5
DE5
330
DA6
100
AcDbEntity
  8
0
100
AcDbLine
 10
0.2894378995829947
 20
0.4261467507920189
 30
0.0
 11
0.2894378995829947
 21
0.4523028035173793
 31
0.0
  0
ENDBLK
  5
1762
330
DA6
100
AcDbEntity
  8
0
100
AcDbBlockEnd
  0
BLOCK
  5
1763
330
F8D
100
AcDbEntity
  8
0
100
AcDbBlockBegin
  2
A$C3FF5331E
 70
     0
 10
0.0
 20
0.0
 30
0.0
  3
A$C3FF5331E
  1

  0
LINE
  5
F8E
330
F8D
100
AcDbEntity
  8
0
100
AcDbLine
 10
6.670732667702794
 20
0.0000000114264074
 30
-0.0000000000000015
 11
6.670732667702794
 21
0.1828592965939952
 31
-0.0000000000000015
  0
LINE
  5
F8F
330
F8D
100
AcDbEntity
  8
0
100
AcDbLine
 10
3.742998033983696
 20
0.0000000114264074
 30
-0.0000000000000015
 11
3.742998033983696
 21
1.002308880721908
 31
-0.0000000000000015
  0
LINE
  5
F90
330
F8D
100
AcDbEntity
  8
0
100
AcDbLine
 10
5.329001446138919
 20
0.0000000114264074
 30
-0.0000000000000015
 11
5.329001446138919
 21
1.002308880721908
 31
-0.0000000000000015
  0
LINE
  5
F91
330
F8D
100
AcDbEntity
  8
0
100
AcDbLine
 10
0.000000011114917
 20
0.0000000163101452
 30
-0.0000000000000013
 11
7.940000011114918
 21
0.0000000163101452
 31
-0.0000000000000013
  0
LINE
  5
F92
330
F8D
100
AcDbEntity
  8
0
100
AcDbLine
 10
3.742998033983696
 20
0.4928423120822432
 30
-0.0000000000000015
 11
5.329001446138919
 21
0.4928423120822432
 31
-0.0000000000000015
  0
LINE
  5
F93
330
F8D
100
AcDbEntity
  8
0
100
AcDbLine
 10
3.742998033983696
 20
0.279138102039501
 30
-0.0000000000000015
 11
5.329001446138919
 21
0.279138102039501
 31
-0.0000000000000015
  0
LINE
  5
F94
330
F8D
100
AcDbEntity
  8
0
100
AcDbLine
 10
3.670030044945271
 20
1.002308880721908
 30
-0.0000000000000015
 11
7.940000011114918
 21
1.002308880721908
 31
-0.0000000000000015
  0
TEXT
  5
F95
330
F8D
100
AcDbEntity
  8
0
 62
     7
100
AcDbText
 10
0.079759888473486
 20
0.8638800831721811
 30
0.0
 40
0.0608158393258724
  1
NOTE: 
100
AcDbText
  0
ARC
  5
F96
330
F8D
100
AcDbEntity
  8
LOGO
 62
     7
100
AcDbCircle
 10
4.403458315506743
 20
0.8918670422605945
 30
-0.0000000000000015
 40
0.0673816981175471
100
AcDbArc
 50
122.0260033892477
 51
208.0161118868835
  0
TEXT
  5
F97
330
F8D
100
AcDbEntity
  8
0
 62
     7
100
AcDbText
 10
4.150929241779895
 20
0.5244904103466581
 30
0.0
 40
0.0571569851655855
  1
IRRIGATION PRODUCTS
 41
0.625582221243132
 72
     5
 11
4.783102283093331
 21
0.5244904103466581
 31
0.0
100
AcDbText
  0
ARC
  5
F98
330
F8D
100
AcDbEntity
  8
LOGO
 62
     7
100
AcDbCircle
 10
4.445349253753252
 20
0.9103970767840543
 30
-0.0000000000000015
 40
0.1131162792606516
100
AcDbArc
 50
206.3350300869302
 51
272.2277691305709
  0
TEXT
  5
F99
330
F8D
100
AcDbEntity
  8
0
 62
     7
100
AcDbText
 10
3.808307061097867
 20
0.3607942257789754
 30
0.0
 40
0.0608158393258724
  1
DATE: 11-10-99
100
AcDbText
  0
TEXT
  5
F9A
330
F8D
100
AcDbEntity
  8
0
100
AcDbText
 10
3.808307061097867
 20
0.0940980852836057
 30
0.0
 40
0.0608158393258724
  1
REVISIONS:
100
AcDbText
  0
ARC
  5
F9B
330
F8D
100
AcDbEntity
  8
LOGO
 62
     7
100
AcDbCircle
 10
4.670375879967249
 20
0.7295143798133203
 30
-0.0000000000000015
 40
0.1137288586413809
100
AcDbArc
 50
43.57405058908683
 51
10.66127669565378
  0
ARC
  5
F9C
330
F8D
100
AcDbEntity
  8
LOGO
 62
     7
100
AcDbCircle
 10
4.469876776134264
 20
0.8618060594664474
 30
-0.0000000000000015
 40
0.0675108796499993
100
AcDbArc
 50
138.4175550410183
 51
252.6516243536209
  0
ARC
  5
F9D
330
F8D
100
AcDbEntity
  8
LOGO
 62
     7
100
AcDbCircle
 10
4.469876776134264
 20
0.8618060594664474
 30
-0.0000000000000015
 40
0.0675108796499993
100
AcDbArc
 50
287.3483756463791
 51
41.58244495898141
  0
ARC
  5
F9E
330
F8D
100
AcDbEntity
  8
LOGO
 62
     7
100
AcDbCircle
 10
4.494404298515278
 20
0.9103970767840543
 30
-0.0000000000000015
 40
0.1131162792606516
100
AcDbArc
 50
267.7722308694291
 51
333.6649699130697
  0
LINE
  5
F9F
330
F8D
100
AcDbEntity
  8
LOGO
 62
     7
100
AcDbLine
 10
4.421436701781865
 20
0.6158977209734884
 30
-0.0000000000000015
 11
4.518316850486666
 21
0.6158977209734884
 31
-0.0000000000000015
  0
LINE
  5
FA0
330
F8D
100
AcDbEntity
  8
LOGO
 62
     7
100
AcDbLine
 10
4.394057543119644
 20
0.7758026516038168
 30
-0.0000000000000015
 11
4.545696009148887
 21
0.7758026516038168
 31
-0.0000000000000015
  0
LINE
  5
FA1
330
F8D
100
AcDbEntity
  8
LOGO
 62
     7
100
AcDbLine
 10
4.394057543119644
 20
0.7758026516038168
 30
-0.0000000000000015
 11
4.421436701781865
 21
0.6158977209734884
 31
-0.0000000000000015
  0
LINE
  5
FA2
330
F8D
100
AcDbEntity
  8
LOGO
 62
     7
100
AcDbLine
 10
4.545696009148887
 20
0.7758026516038168
 30
-0.0000000000000015
 11
4.518316850486666
 21
0.6158977209734884
 31
-0.0000000000000015
  0
LINE
  5
FA3
330
F8D
100
AcDbEntity
  8
LOGO
 62
     7
100
AcDbLine
 10
4.670375879967249
 20
0.7505545001410372
 30
-0.0000000000000015
 11
4.782141557276816
 21
0.7505545001410372
 31
-0.0000000000000015
  0
ARC
  5
FA4
330
F8D
100
AcDbEntity
  8
LOGO
 62
     7
100
AcDbCircle
 10
4.670375879967249
 20
0.7295143798133203
 30
-0.0000000000000015
 40
0.0470411463120155
100
AcDbArc
 50
43.57405058908686
 51
333.4312990519632
  0
LINE
  5
FA5
330
F8D
100
AcDbEntity
  8
LOGO
 62
     7
100
AcDbLine
 10
4.670375879967249
 20
0.7084742594856035
 30
-0.0000000000000015
 11
4.712449420143276
 21
0.7084742594856035
 31
-0.0000000000000015
  0
LINE
  5
FA6
330
F8D
100
AcDbEntity
  8
LOGO
 62
     7
100
AcDbLine
 10
4.670375879967249
 20
0.7505545001410372
 30
-0.0000000000000015
 11
4.670375879967249
 21
0.7084742594856035
 31
-0.0000000000000015
  0
LINE
  5
FA7
330
F8D
100
AcDbEntity
  8
LOGO
 62
     7
100
AcDbLine
 10
4.704456443347802
 20
0.7619394418180825
 30
-0.0000000000000015
 11
4.75277063177489
 21
0.8079067146581806
 31
-0.0000000000000015
  0
ARC
  5
FA8
330
F8D
100
AcDbEntity
  8
LOGO
 62
     7
100
AcDbCircle
 10
4.564955073643301
 20
0.9376860831718483
 30
-0.0000000000000015
 40
0.0133375424658731
100
AcDbArc
 50
57.97399661075209
 51
139.0852896065208
  0
ARC
  5
FA9
330
F8D
100
AcDbEntity
  8
LOGO
 62
     7
100
AcDbCircle
 10
4.469876776134264
 20
0.8618060594664474
 30
-0.0000000000000015
 40
0.0675108796499993
100
AcDbArc
 50
55.76830433924557
 51
124.2316956607548
  0
CIRCLE
  5
FAA
330
F8D
100
AcDbEntity
  8
LOGO
 62
     7
100
AcDbCircle
 10
4.469876776134264
 20
0.8618060594664474
 30
-0.0000000000000015
 40
0.0432555883111094
  0
ARC
  5
FAB
330
F8D
100
AcDbEntity
  8
LOGO
 62
     7
100
AcDbCircle
 10
4.469876776134264
 20
0.6142627554948712
 30
-0.0000000000000015
 40
0.3718478266740365
100
AcDbArc
 50
79.83810088077882
 51
100.1618991192212
  0
CIRCLE
  5
FAC
330
F8D
100
AcDbEntity
  8
LOGO
 62
     7
100
AcDbCircle
 10
4.469876776134264
 20
0.8618060594664474
 30
-0.0000000000000015
 40
0.0311279426416641
  0
LINE
  5
FAD
330
F8D
100
AcDbEntity
  8
LOGO
 62
     7
100
AcDbLine
 10
4.419378538380681
 20
0.9066128318886966
 30
-0.0000000000000015
 11
4.384877463977768
 21
0.946421304593903
 31
-0.0000000000000015
  0
ARC
  5
FAE
330
F8D
100
AcDbEntity
  8
LOGO
 62
     7
100
AcDbCircle
 10
4.37479847862523
 20
0.9376860831718483
 30
-0.0000000000000015
 40
0.0133375424658731
100
AcDbArc
 50
40.91471039347918
 51
122.0260033892479
  0
ARC
  5
FAF
330
F8D
100
AcDbEntity
  8
LOGO
 62
     7
100
AcDbCircle
 10
4.4066247259933
 20
0.967149142361782
 30
-0.0000000000000015
 40
0.0133375424658731
100
AcDbArc
 50
100.1618991192206
 51
220.9147103934802
  0
LINE
  5
FB0
330
F8D
100
AcDbEntity
  8
LOGO
 62
     7
100
AcDbLine
 10
4.431899150028274
 20
0.9176219961375303
 30
-0.0000000000000015
 11
4.396545740640764
 21
0.9584139209397282
 31
-0.0000000000000015
  0
ARC
  5
FB1
330
F8D
100
AcDbEntity
  8
LOGO
 62
     7
100
AcDbCircle
 10
4.533128826275229
 20
0.967149142361782
 30
-0.0000000000000015
 40
0.0133375424658731
100
AcDbArc
 50
319.0852896065217
 51
79.83810088077949
  0
LINE
  5
FB2
330
F8D
100
AcDbEntity
  8
LOGO
 62
     7
100
AcDbLine
 10
4.507854402240255
 20
0.9176219961375303
 30
-0.0000000000000015
 11
4.543207811627767
 21
0.9584139209397282
 31
-0.0000000000000015
  0
LINE
  5
FB3
330
F8D
100
AcDbEntity
  8
LOGO
 62
     7
100
AcDbLine
 10
4.520375013887849
 20
0.9066128318886966
 30
-0.0000000000000015
 11
4.554876088290762
 21
0.946421304593903
 31
-0.0000000000000015
  0
ARC
  5
FB4
330
F8D
100
AcDbEntity
  8
LOGO
 62
     7
100
AcDbCircle
 10
4.536295236761788
 20
0.8918670422605945
 30
-0.0000000000000015
 40
0.0673816981175471
100
AcDbArc
 50
331.9838881131166
 51
57.97399661075228
  0
TEXT
  5
FB5
330
F8D
100
AcDbEntity
  8
0
100
AcDbText
 10
5.412541747221965
 20
0.333987323589823
 30
0.0
 40
0.0689306978542596
  1
FNPT BASE WITH SUPPORT ROD FOR BELOW GROUND
 41
0.8342043265153578
 72
     5
 11
7.885140061551056
 21
0.333987323589823
 31
0.0
100
AcDbText
  0
TEXT
  5
FB6
330
F8D
100
AcDbEntity
  8
0
100
AcDbText
 10
5.412541747221965
 20
0.4392980962985211
 30
0.0
 40
0.0689306978542596
  1
ADJUSTABLE COMPACT MICRO SPRINKLER ON 1/2"
 41
0.8892113544908375
 72
     5
 11
7.885140061551056
 21
0.4392980962985211
 31
0.0
100
AcDbText
  0
LINE
  5
FB7
330
F8D
100
AcDbEntity
  8
0
100
AcDbLine
 10
5.329001446138919
 20
0.1828592965939952
 30
-0.0000000000000015
 11
7.940000011114918
 21
0.1828592965939952
 31
-0.0000000000000015
  0
LINE
  5
FB8
330
F8D
100
AcDbEntity
  8
0
100
AcDbLine
 10
5.329001446138919
 20
0.6345470537315299
 30
-0.0000000000000015
 11
7.940000011114918
 21
0.6345470537315299
 31
-0.0000000000000015
  0
TEXT
  5
FB9
330
F8D
100
AcDbEntity
  8
0
100
AcDbText
 10
5.444503915281633
 20
0.8945386044173924
 30
0.0
 40
0.0608158393258724
  1
1290 ACTIVITY  DRIVE, VISTA, CA 92083 
100
AcDbText
  0
TEXT
  5
FBA
330
F8D
100
AcDbEntity
  8
0
100
AcDbText
 10
5.444503915281633
 20
0.7794515345218249
 30
0.0
 40
0.0608158393258724
  1
TEL. 1-800-822-9146
100
AcDbText
  0
TEXT
  5
FBB
330
F8D
100
AcDbEntity
  8
0
100
AcDbText
 10
5.444503915281633
 20
0.6670629138856645
 30
0.0
 40
0.0608158393258724
  1
EMAIL dig@digcorp.com
100
AcDbText
  0
TEXT
  5
FBC
330
F8D
100
AcDbEntity
  8
0
100
AcDbText
 10
5.755811109656463
 20
0.0346501353480759
 30
0.0
 40
0.0939845171888294
  1
NOT TO SCALE
 41
0.5953753753479595
 72
     5
 11
6.408818413859411
 21
0.0346501353480759
 31
0.0
100
AcDbText
  0
TEXT
  5
FBD
330
F8D
100
AcDbEntity
  8
0
100
AcDbText
 10
5.412541747221965
 20
0.2361987450918077
 30
0.0
 40
0.0689306978542596
  1
INSTALLATION                                           
 41
0.3723353336117955
 72
     5
 11
7.885140061551056
 21
0.2361987450918077
 31
0.0
100
AcDbText
  0
TEXT
  5
FBE
330
F8D
100
AcDbEntity
  8
0
100
AcDbText
 10
5.362829102726248
 20
0.5426324617092364
 30
0.0
 40
0.0608158393258724
  1
DWG. NAME
100
AcDbText
  0
TEXT
  5
FBF
330
F8D
100
AcDbEntity
  8
0
100
AcDbText
 10
5.342864421238215
 20
0.0868190302390319
 30
0.0
 40
0.0608158393258724
  1
SCALE
100
AcDbText
  0
TEXT
  5
FC0
330
F8D
100
AcDbEntity
  8
0
100
AcDbText
 10
6.718990757781839
 20
0.082091837140557
 30
0.0
 40
0.0608158393258724
  1
DWG. NO.
100
AcDbText
  0
TEXT
  5
FC1
330
F8D
100
AcDbEntity
  8
0
100
AcDbText
 10
7.275437236768422
 20
0.0442068424965818
 30
0.0
 40
0.0751876137510635
  1
I2    
 41
0.8013876159527875
 72
     5
 11
7.797843080130779
 21
0.0442068424965818
 31
0.0
100
AcDbText
  0
LWPOLYLINE
  5
FC2
330
F8D
100
AcDbEntity
  8
0
100
AcDbPolyline
 90
        2
 70
     0
 43
0.0
 10
7.940000011114918
 20
1.002308880721908
 10
0.0000000111149205
 20
1.002308880721908
  0
LWPOLYLINE
  5
FC3
330
F8D
100
AcDbEntity
  8
LOGO
 62
     7
100
AcDbPolyline
 90
        4
 70
     1
 43
0.0
 10
4.158175421927167
 20
0.6158977222727557
 10
4.255055553680258
 20
0.6158977222727557
 42
1.11220835911755
 10
4.255055553680258
 20
0.843131037353885
 10
4.158175421927167
 20
0.8431310373538858
  0
LWPOLYLINE
  5
FC4
330
F8D
100
AcDbEntity
  8
LOGO
 62
     7
100
AcDbPolyline
 90
        4
 70
     1
 43
0.0
 10
4.224863134256532
 20
0.682585434602121
 10
4.259365474236677
 20
0.682585434602121
 42
1.043882780016063
 10
4.259365474236677
 20
0.7764433250245197
 10
4.224863134256532
 20
0.7764433250245197
  0
ENDBLK
  5
1764
330
F8D
100
AcDbEntity
  8
0
100
AcDbBlockEnd
  0
BLOCK
  5
1765
330
114D
100
AcDbEntity
  8
0
100
AcDbBlockBegin
  2
A$C6F081CB3
 70
     0
 10
0.0
 20
0.0
 30
0.0
  3
A$C6F081CB3
  1

  0
LINE
  5
114E
330
114D
100
AcDbEntity
  8
0
100
AcDbLine
 10
0.0000000122890107
 20
0.272440810449968
 30
-0.0000000000000005
 11
0.0000000122890107
 21
0.0305696928513948
 31
-0.0000000000000004
  0
LINE
  5
114F
330
114D
100
AcDbEntity
  8
0
100
AcDbLine
 10
0.0000000122890107
 20
0.3030105065653119
 30
-0.0000000000000005
 11
0.3731238264468235
 21
0.3030105065653117
 31
-0.0000000000000005
  0
LINE
  5
1150
330
114D
100
AcDbEntity
  8
0
100
AcDbLine
 10
0.5246290813614545
 20
0.0556076686946181
 30
-0.0000000000000005
 11
0.1951566762777648
 21
0.0556076686946181
 31
-0.0000000000000005
  0
LINE
  5
1151
330
114D
100
AcDbEntity
  8
0
100
AcDbLine
 10
0.3231238264468232
 20
0.2474028346067445
 30
-0.0000000000000005
 11
0.1951566762777652
 21
0.2474028346067447
 31
-0.0000000000000005
  0
LINE
  5
1152
330
114D
100
AcDbEntity
  8
0
100
AcDbLine
 10
0.0000000122890107
 20
-0.0000000032639491
 30
-0.0000000000000005
 11
0.7814141830385903
 21
-0.0000000032639491
 31
-0.0000000000000005
210
0.0
220
0.0
230
-1.0
  0
LINE
  5
1153
330
114D
100
AcDbEntity
  8
0
100
AcDbLine
 10
0.0000000122890107
 20
0.3030105065653119
 30
-0.0000000000000005
 11
0.0000000122890107
 21
-0.0000000032639491
 31
-0.0000000000000005
210
0.0
220
0.0
230
-1.0
  0
LINE
  5
1154
330
114D
100
AcDbEntity
  8
0
100
AcDbLine
 10
0.1951566762777652
 20
0.2474028346067447
 30
-0.0000000000000005
 11
0.195156676277765
 21
0.0556076686946185
 31
-0.0000000000000005
  0
ARC
  5
1155
330
114D
100
AcDbEntity
  8
0
100
AcDbCircle
 10
0.2018207034875852
 20
0.1515052516506816
 30
-0.0000000000000005
 40
0.0830626912943201
100
AcDbArc
 50
94.70350217272696
 51
265.2964978272729
  0
LINE
  5
1156
330
114D
100
AcDbEntity
  8
0
100
AcDbLine
 10
0.7814141830385903
 20
0.3030105065653119
 30
-0.0000000000000005
 11
0.7814141830385903
 21
-0.0000000032639491
 31
-0.0000000000000005
210
0.0
220
0.0
230
-1.0
  0
LINE
  5
1157
330
114D
100
AcDbEntity
  8
0
100
AcDbLine
 10
0.2897642999635686
 20
0.2474028346067443
 30
-0.0000000000000005
 11
0.2897642999635683
 21
0.0556076686946181
 31
-0.0000000000000005
  0
ARC
  5
1158
330
114D
100
AcDbEntity
  8
0
100
AcDbCircle
 10
0.4978980144904281
 20
0.2324604632169711
 30
-0.0000000000000005
 40
0.1788615690035996
100
AcDbArc
 50
278.5951211476511
 51
4.792163104095265
  0
LINE
  5
1159
330
114D
100
AcDbEntity
  8
0
100
AcDbLine
 10
0.3731238264468235
 20
0.408313567773094
 30
-0.0000000000000005
 11
0.6761343362760854
 21
0.408313567773094
 31
-0.0000000000000005
210
0.0
220
0.0
230
-1.0
  0
LINE
  5
115A
330
114D
100
AcDbEntity
  8
0
100
AcDbLine
 10
0.4036935225621683
 20
0.4845500505937483
 30
-0.0000000000000005
 11
0.6455646401607407
 21
0.4845500505937483
 31
-0.0000000000000005
  0
LINE
  5
115B
330
114D
100
AcDbEntity
  8
0
100
AcDbLine
 10
0.4036935225621683
 20
0.4208103040736937
 30
-0.0000000000000005
 11
0.6455646401607407
 21
0.4208103040736937
 31
-0.0000000000000005
  0
LINE
  5
115C
330
114D
100
AcDbEntity
  8
0
100
AcDbLine
 10
0.4036935225621683
 20
0.452680177333721
 30
-0.0000000000000005
 11
0.6455646401607407
 21
0.452680177333721
 31
-0.0000000000000005
  0
LINE
  5
115D
330
114D
100
AcDbEntity
  8
0
100
AcDbLine
 10
0.4036935225621683
 20
0.4367452407037078
 30
-0.0000000000000005
 11
0.6455646401607407
 21
0.4367452407037078
 31
-0.0000000000000005
  0
LINE
  5
115E
330
114D
100
AcDbEntity
  8
0
100
AcDbLine
 10
0.4036935225621683
 20
0.4686151139637342
 30
-0.0000000000000005
 11
0.6455646401607407
 21
0.4686151139637342
 31
-0.0000000000000005
  0
LINE
  5
115F
330
114D
100
AcDbEntity
  8
0
100
AcDbLine
 10
0.4036935225621683
 20
0.409563310637254
 30
-0.0000000000000005
 11
0.4036935225621683
 21
0.4845500505937483
 31
-0.0000000000000005
  0
LINE
  5
1160
330
114D
100
AcDbEntity
  8
0
100
AcDbLine
 10
0.3731238264468235
 20
0.2974028346067445
 30
-0.0000000000000005
 11
0.3731238264468235
 21
0.408313567773094
 31
-0.0000000000000005
210
0.0
220
0.0
230
-1.0
  0
ARC
  5
1161
330
114D
100
AcDbEntity
  8
0
100
AcDbCircle
 10
0.3231238264468235
 20
0.2974028346067445
 30
-0.0000000000000005
 40
0.05
100
AcDbArc
 50
269.9999999999998
 51
0.0
  0
LINE
  5
1162
330
114D
100
AcDbEntity
  8
0
100
AcDbLine
 10
0.6455646401607407
 20
0.4845500505937483
 30
-0.0000000000000005
 11
0.6455646401607407
 21
0.409563310637254
 31
-0.0000000000000005
  0
LINE
  5
1163
330
114D
100
AcDbEntity
  8
0
100
AcDbLine
 10
0.6761343362760854
 20
0.3030105065653117
 30
-0.0000000000000005
 11
0.7814141830385903
 21
0.3030105065653119
 31
-0.0000000000000005
  0
LINE
  5
1164
330
114D
100
AcDbEntity
  8
0
100
AcDbLine
 10
0.6761343362760859
 20
0.2474028346067447
 30
-0.0000000000000005
 11
0.6761343362760854
 21
0.408313567773094
 31
-0.0000000000000005
210
0.0
220
0.0
230
-1.0
  0
ENDBLK
  5
1766
330
114D
100
AcDbEntity
  8
0
100
AcDbBlockEnd
  0
ENDSEC
  0
SECTION
  2
ENTITIES
  0
ARC
  5
134
330
1F
100
AcDbEntity
  8
0
100
AcDbCircle
 10
2.473937298733942
 20
7.004799194742818
 30
-0.0000000145908928
 40
1.448061006618917
210
0.0
220
-1.0
230
6.123031769111886E-17
100
AcDbArc
 50
69.56287189922945
 51
112.4104415948111
  0
ARC
  5
135
330
1F
100
AcDbEntity
  8
0
100
AcDbCircle
 10
4.016400460660261
 20
11.92617032824524
 30
-0.0000000145908928
 40
3.712192145838354
210
0.0
220
-1.0
230
6.123031769111886E-17
100
AcDbArc
 50
253.7813293747688
 51
256.5534105472574
  0
LINE
  5
141
330
1F
100
AcDbEntity
  8
0
100
AcDbLine
 10
1.486480397011494
 20
-0.000000002688998
 30
5.497617330339993
 11
2.531611945489444
 21
-0.000000002688998
 31
5.497617330339991
210
0.0
220
-1.0
230
6.123031769111886E-17
  0
LINE
  5
142
330
1F
100
AcDbEntity
  8
0
100
AcDbLine
 10
2.531611945489444
 20
-0.000000002688998
 30
5.170748752662266
 11
1.486480397011494
 21
-0.000000002688998
 31
5.170748752662268
210
0.0
220
-1.0
230
6.123031769111886E-17
  0
ARC
  5
146
330
1F
100
AcDbEntity
  8
0
100
AcDbCircle
 10
1.456731458483061
 20
5.416028232761531
 30
0.0000000026889983
 40
0.0868434233965714
210
0.0
220
-1.0
230
6.123031769111886E-17
100
AcDbArc
 50
290.0328185300485
 51
69.96718146995138
  0
ARC
  5
147
330
1F
100
AcDbEntity
  8
0
100
AcDbCircle
 10
1.516022122174816
 20
5.252721990763646
 30
0.0000000026889983
 40
0.0866522724045961
210
0.0
220
-1.0
230
6.123031769111886E-17
100
AcDbArc
 50
109.9330988445268
 51
250.0669011554735
  0
ARC
  5
148
330
1F
100
AcDbEntity
  8
0
100
AcDbCircle
 10
1.516229335539925
 20
5.416028232761531
 30
0.0000000026889983
 40
0.0868434233965714
210
0.0
220
-1.0
230
6.123031769111886E-17
100
AcDbArc
 50
110.0328185300486
 51
249.9671814699515
  0
LINE
  5
159
330
1F
100
AcDbEntity
  8
0
100
AcDbLine
 10
3.959182711937978
 20
-0.000000002688998
 30
5.497617330339989
 11
5.19450316109589
 21
-0.000000002688998
 31
5.497617330339988
210
0.0
220
-1.0
230
6.123031769111886E-17
  0
LINE
  5
15A
330
1F
100
AcDbEntity
  8
0
100
AcDbLine
 10
5.193050660700361
 20
-0.000000002688998
 30
5.170748752662266
 11
3.710441356352659
 21
-0.000000002688998
 31
5.170748752662266
210
0.0
220
-1.0
230
6.123031769111886E-17
  0
ARC
  5
177
330
1F
100
AcDbEntity
  8
0
100
AcDbCircle
 10
5.164961435932582
 20
5.252721990763646
 30
0.0000000026889983
 40
0.0866522724045961
210
0.0
220
-1.0
230
6.123031769111886E-17
100
AcDbArc
 50
288.9147084934261
 51
70.06690115547315
  0
ARC
  5
178
330
1F
100
AcDbEntity
  8
0
100
AcDbCircle
 10
5.164754222567471
 20
5.416028232761531
 30
0.0000000026889983
 40
0.0868434233965714
210
0.0
220
-1.0
230
6.123031769111886E-17
100
AcDbArc
 50
290.0328185300485
 51
69.96718146995138
  0
ARC
  5
179
330
1F
100
AcDbEntity
  8
0
100
AcDbCircle
 10
5.224252099624335
 20
5.416028232761531
 30
0.0000000026889983
 40
0.0868434233965714
210
0.0
220
-1.0
230
6.123031769111886E-17
100
AcDbArc
 50
110.0328185300486
 51
249.9671814699516
  0
ARC
  5
84A
330
1F
100
AcDbEntity
  8
0
100
AcDbCircle
 10
4.016400460660345
 20
11.92617032824545
 30
-0.0000000145908928
 40
3.712192145838583
210
0.0
220
-1.0
230
6.123031769111886E-17
100
AcDbArc
 50
256.5534105472569
 51
263.7902620986418
  0
ARC
  5
AC0
330
1F
100
AcDbEntity
  8
0
100
AcDbCircle
 10
4.99058086191284
 20
7.004799194742818
 30
-0.0000000145908928
 40
1.448061006618917
210
0.0
220
-1.0
230
6.123031769111886E-17
100
AcDbArc
 50
67.58955840518891
 51
110.4371281007705
  0
ARC
  5
AC1
330
1F
100
AcDbEntity
  8
0
100
AcDbCircle
 10
3.44811769998652
 20
11.92617032824524
 30
-0.0000000145908928
 40
3.712192145838354
210
0.0
220
-1.0
230
6.123031769111886E-17
100
AcDbArc
 50
283.4465894527426
 51
286.2186706252312
  0
HATCH
  5
C85
330
1F
100
AcDbEntity
  8
0
100
AcDbHatch
 10
0.0
 20
0.0
 30
-0.0000000145908928
210
0.0
220
-1.0
230
0.0
  2
EARTH
 70
     0
 71
     0
 91
        3
 92
        7
 72
     1
 73
     1
 93
       22
 10
5.54263798853865
 20
8.34349767006571
 42
0.1891669425246198
 10
4.484947875414357
 20
8.361713326828857
 42
-0.0120960757923087
 10
4.311346515100536
 20
8.315740085132818
 42
-0.0229071772099355
 10
3.977427822268748
 20
8.251908317708486
 42
0.0
 10
3.977427822268748
 20
8.224619373946041
 42
0.0
 10
3.996150013956726
 20
8.216827205661678
 42
0.0
 10
3.996150013956727
 20
8.199945522001926
 42
0.0
 10
3.97742782226875
 20
8.207737690286288
 42
0.0
 10
3.97742782226875
 20
8.060022927877858
 42
0.0
 10
3.996150013956727
 20
8.052230759593497
 42
0.0
 10
3.996150013956727
 20
8.035349075933746
 42
0.0
 10
3.977427822268748
 20
8.04314124421811
 42
0.0
 10
3.97742782226875
 20
7.895426481809679
 42
0.0
 10
3.996150013956727
 20
7.887634313525318
 42
0.0
 10
3.996150013956727
 20
7.870752629865564
 42
0.0
 10
3.97742782226875
 20
7.878544798149926
 42
0.0
 10
3.97742782226875
 20
7.730830035741496
 42
0.0
 10
3.996150013956727
 20
7.723037867457133
 42
0.0
 10
3.996150013956727
 20
7.706156183797383
 42
0.0
 10
3.977427822268748
 20
7.713948352081745
 42
0.0
 10
3.97742782226875
 20
7.595562621223204
 42
-0.0830938059416243
 10
5.12414390351539
 20
7.533598089248152
 42
0.724358632313613
 97
        0
 92
        7
 72
     1
 73
     1
 93
        7
 10
3.610682302268012
 20
8.236215951349122
 42
-0.0313039892852145
 10
3.153171645546241
 20
8.315740085132818
 42
-0.0120960757923079
 10
2.979570285232434
 20
8.361713326828854
 42
0.1895244131697687
 10
1.920032768640782
 20
8.342734339072491
 42
0.7235094020549575
 10
2.339275556916533
 20
7.533598089248157
 42
-0.0875499341148775
 10
3.547105568732583
 20
7.588151966077822
 42
-0.0046130941941742
 10
3.610682302268012
 20
7.579274004699391
 42
0.0
 97
        0
 92
        7
 72
     1
 73
     1
 93
       17
 10
3.916313891699302
 20
8.068576836346024
 42
0.0
 10
3.897591700011324
 20
8.076369004630385
 42
0.0
 10
3.897591700011324
 20
8.093250688290134
 42
0.0
 10
3.916313891699302
 20
8.085458520005771
 42
0.0
 10
3.916313891699302
 20
8.233173282414201
 42
0.0
 10
3.896988710105674
 20
8.24121641484298
 42
-0.0030125146657962
 10
3.852553419866585
 20
8.236075170107837
 42
0.0
 10
3.852553419866585
 20
7.579246611635034
 42
-0.0046264439689585
 10
3.916313891699302
 20
7.588151966077822
 42
0.0
 10
3.916313891699302
 20
7.739383944209658
 42
0.0
 10
3.897591700011324
 20
7.747176112494023
 42
0.0
 10
3.897591700011324
 20
7.76405779615377
 42
0.0
 10
3.916313891699302
 20
7.756265627869407
 42
0.0
 10
3.916313891699302
 20
7.903980390277839
 42
0.0
 10
3.897591700011324
 20
7.911772558562202
 42
0.0
 10
3.897591700011324
 20
7.928654242221954
 42
0.0
 10
3.916313891699302
 20
7.92086207393759
 42
0.0
 97
        0
 75
     0
 76
     1
 52
0.0
 41
0.75
 77
     0
 78
     6
 53
0.0
 43
1.494947302546157
 44
0.2382166347846528
 45
0.1875
 46
0.1875
 79
     2
 49
0.1875
 49
-0.1875
 53
0.0
 43
1.494947302546157
 44
0.3085291347846528
 45
0.1875
 46
0.1875
 79
     2
 49
0.1875
 49
-0.1875
 53
0.0
 43
1.494947302546157
 44
0.3788416347846528
 45
0.1875
 46
0.1875
 79
     2
 49
0.1875
 49
-0.1875
 53
90.0
 43
1.518384802546157
 44
0.4022791347846528
 45
-0.1874999999999999
 46
0.1875
 79
     2
 49
0.1875
 49
-0.1875
 53
90.0
 43
1.588697302546157
 44
0.4022791347846528
 45
-0.1874999999999999
 46
0.1875
 79
     2
 49
0.1875
 49
-0.1875
 53
90.0
 43
1.659009802546157
 44
0.4022791347846528
 45
-0.1874999999999999
 46
0.1875
 79
     2
 49
0.1875
 49
-0.1875
 47
0.0
 98
        7
 10
0.0
 20
0.0
 10
0.0
 20
0.0
 10
0.0
 20
0.0
 10
0.0105835590810521
 20
0.2645889770262944
 10
4.775885754104398
 20
8.164573687187746
 10
2.909486684012867
 20
8.114187011094371
 10
3.877996497969951
 20
7.993259007917056
  0
ARC
  5
C86
330
1F
100
AcDbEntity
  8
0
100
AcDbCircle
 10
3.448117699986437
 20
11.92617032824545
 30
-0.0000000145908928
 40
3.712192145838583
210
0.0
220
-1.0
230
6.123031769111886E-17
100
AcDbArc
 50
276.1265760662906
 51
283.4465894527431
  0
LINE
  5
D14
330
1F
100
AcDbEntity
  8
0
100
AcDbLine
 10
7.939999978317097
 20
0.0000000072954467
 30
10.44
 11
7.939999978317097
 21
0.000000007295446
 31
0.0
210
0.0
220
-1.0
230
6.123031769111886E-17
  0
LINE
  5
D15
330
1F
100
AcDbEntity
  8
0
100
AcDbLine
 10
-0.0000000216829035
 20
0.000000007295446
 30
0.0
 11
-0.0000000216829035
 21
0.0000000072954467
 31
10.44
210
0.0
220
-1.0
230
6.123031769111886E-17
  0
LINE
  5
D16
330
1F
100
AcDbEntity
  8
0
100
AcDbLine
 10
7.939999978317097
 20
0.0000000072954467
 30
10.44
 11
-0.0000000216829035
 21
0.0000000072954467
 31
10.44
210
0.0
220
-1.0
230
6.123031769111886E-17
  0
LINE
  5
D17
330
1F
100
AcDbEntity
  8
0
100
AcDbLine
 10
-0.0000000216829035
 20
0.000000007295446
 30
0.0
 11
7.939999978317096
 21
0.000000007295446
 31
0.0
210
0.0
220
-1.0
230
6.123031769111886E-17
  0
CIRCLE
  5
D53
330
1F
100
AcDbEntity
  8
0
100
AcDbCircle
 10
-1.510913779118965
 20
2.607689303936372
 30
0.0000000072954461
 40
0.0980395409819625
210
0.0
220
1.0
230
-6.123031769111886E-17
  0
CIRCLE
  5
D54
330
1F
100
AcDbEntity
  8
0
100
AcDbCircle
 10
-1.510913779118965
 20
2.319522080079897
 30
0.0000000072954461
 40
0.0980395409819625
210
0.0
220
1.0
230
-6.123031769111886E-17
  0
CIRCLE
  5
D55
330
1F
100
AcDbEntity
  8
0
100
AcDbCircle
 10
-1.510913779118965
 20
2.047038092382427
 30
0.0000000072954461
 40
0.0980395409819625
210
0.0
220
1.0
230
-6.123031769111886E-17
  0
TEXT
  5
D56
330
1F
100
AcDbEntity
  8
0
100
AcDbText
 10
-1.483975523065288
 20
2.001568581867272
 30
0.0000000072954461
 40
0.0888620774192805
  1
4
 50
180.0
 71
     4
210
0.0
220
1.0
230
-6.123031769111886E-17
100
AcDbText
  0
TEXT
  5
D57
330
1F
100
AcDbEntity
  8
0
100
AcDbText
 10
-1.483975523065288
 20
2.274052569564744
 30
0.0000000072954461
 40
0.0888620774192805
  1
3
 50
180.0
 71
     4
210
0.0
220
1.0
230
-6.123031769111886E-17
100
AcDbText
  0
TEXT
  5
D58
330
1F
100
AcDbEntity
  8
0
100
AcDbText
 10
-1.483975523065288
 20
2.562219793421219
 30
0.0000000072954461
 40
0.0888620774192805
  1
2
 50
180.0
 71
     4
210
0.0
220
1.0
230
-6.123031769111886E-17
100
AcDbText
  0
CIRCLE
  5
D59
330
1F
100
AcDbEntity
  8
0
100
AcDbCircle
 10
-1.510913779118965
 20
4.390249692361504
 30
0.0000000072954461
 40
0.0980395409819625
210
0.0
220
1.0
230
-6.123031769111886E-17
  0
TEXT
  5
D5A
330
1F
100
AcDbEntity
  8
0
100
AcDbText
 10
-1.493998351530292
 20
4.344780181846351
 30
0.0000000072954461
 40
0.0888620774192805
  1
1
 50
180.0
 71
     4
210
0.0
220
1.0
230
-6.123031769111886E-17
100
AcDbText
  0
TEXT
  5
D5B
330
1F
100
AcDbEntity
  8
0
100
AcDbText
 10
-1.72452327679238
 20
2.552551773936218
 30
0.000000007295446
 40
0.0888620774192805
  1
FINISH GRADE OR MULCH
 50
180.0
 71
     4
210
0.0
220
1.0
230
-6.123031769111886E-17
100
AcDbText
  0
TEXT
  5
D5C
330
1F
100
AcDbEntity
  8
0
100
AcDbText
 10
-1.72452327679238
 20
2.279114302138505
 30
0.000000007295446
 40
0.0888620774192805
  1
STREET ELBOW
 50
180.0
 71
     4
210
0.0
220
1.0
230
-6.123031769111886E-17
100
AcDbText
  0
TEXT
  5
D61
330
1F
100
AcDbEntity
  8
0
100
AcDbText
 10
-1.72452327679238
 20
1.719965803462072
 30
0.000000007295446
 40
0.0888620774192805
  1
PVC LATERAL PIPE
 50
180.0
 71
     4
210
0.0
220
1.0
230
-6.123031769111886E-17
100
AcDbText
  0
TEXT
  5
ED0
330
1F
100
AcDbEntity
  8
0
100
AcDbText
 10
-1.72452327679238
 20
2.898282620555743
 30
0.0000000072954461
 40
0.0888620774192805
  1
MP-126  12" HEIGHT 360º WITH .63 GPM AT 30 PSI
 50
180.0
 71
     4
210
0.0
220
1.0
230
-6.123031769111886E-17
100
AcDbText
  0
TEXT
  5
ED1
330
1F
100
AcDbEntity
  8
0
100
AcDbText
 10
-1.72452327679238
 20
3.037177466524073
 30
0.0000000072954461
 40
0.0888620774192805
  1
MP-125  12" HEIGHT 180º WITH .45 GPM AT 30 PSI
 50
180.0
 71
     4
210
0.0
220
1.0
230
-6.123031769111886E-17
100
AcDbText
  0
TEXT
  5
ED2
330
1F
100
AcDbEntity
  8
0
100
AcDbText
 10
-1.72452327679238
 20
4.039753201060988
 30
0.0000000072954461
 40
0.0888620774192805
  1
DIG MODEL :
 50
180.0
 71
     4
210
0.0
220
1.0
230
-6.123031769111886E-17
100
AcDbText
  0
TEXT
  5
ED3
330
1F
100
AcDbEntity
  8
0
100
AcDbText
 10
-1.72452327679238
 20
4.197108383562183
 30
0.0000000072954461
 40
0.0888620774192805
  1
1/2" FNPT BASE
 50
180.0
 71
     4
210
0.0
220
1.0
230
-6.123031769111886E-17
100
AcDbText
  0
TEXT
  5
ED4
330
1F
100
AcDbEntity
  8
0
100
AcDbText
 10
-1.72452327679238
 20
4.354598679682978
 30
0.0000000072954461
 40
0.0888620774192805
  1
POPUP MICRO SPRINKLER ON
 50
180.0
 71
     4
210
0.0
220
1.0
230
-6.123031769111886E-17
100
AcDbText
  0
LINE
  5
110E
330
1F
100
AcDbEntity
  8
0
100
AcDbLine
 10
-0.0000000216829061
 20
0.000000007295446
 30
0.0
 11
7.939999978317097
 21
0.000000007295446
 31
0.0
210
0.0
220
-1.0
230
0.0
  0
LINE
  5
1111
330
1F
100
AcDbEntity
  8
0
100
AcDbLine
 10
-0.0000000216829044
 20
0.000000007295446
 30
0.0
 11
7.939999978317097
 21
0.000000007295446
 31
0.0
210
0.0
220
-1.0
230
6.123031769111886E-17
  0
LINE
  5
13C4
330
1F
100
AcDbEntity
  8
0
  6
Continuous
 62
     7
370
    15
100
AcDbLine
 10
3.84430242188816
 20
0.0000000145908932
 30
5.878692746130962
 11
3.84430242188816
 21
0.0000000145908932
 31
9.408593296921994
210
0.0
220
-1.0
230
0.0
  0
LINE
  5
13C5
330
1F
100
AcDbEntity
  8
0
  6
Continuous
 62
     7
370
    15
100
AcDbLine
 10
3.614858878321052
 20
0.0000000145908932
 30
9.408593296921994
 11
3.614858878321052
 21
0.0000000145908932
 31
5.878692746130962
210
0.0
220
-1.0
230
0.0
  0
LINE
  5
13C7
330
1F
100
AcDbEntity
  8
0
  6
Continuous
 62
     7
370
    15
100
AcDbLine
 10
3.623197030611685
 20
0.0000000145908932
 30
5.789617952177155
 11
3.836484301279655
 21
0.0000000145908932
 31
5.79987130732507
210
0.0
220
-1.0
230
0.0
  0
LWPOLYLINE
  5
13C8
330
1F
100
AcDbEntity
  8
0
  6
Continuous
 62
     7
370
    15
100
AcDbPolyline
 90
       11
 70
   128
 43
0.0
 38
-0.0000000145908932
 10
3.623182674868267
 20
5.768755384465495
 10
3.624595728705018
 20
5.790233474899368
 10
3.6389889631557
 20
5.791354873095418
 10
3.663610724113163
 20
5.792474669617616
 10
3.695690088848457
 20
5.793594692639146
 10
3.731614127071008
 20
5.79471593983564
 10
3.767332024610728
 20
5.795837343424532
 10
3.798813325947369
 20
5.796957145339571
 10
3.822504827181349
 20
5.798077162968259
 10
3.835729346646818
 20
5.799198404771913
 10
3.837183968503956
 20
5.77900306634441
210
0.0
220
-1.0
230
0.0
  0
LWPOLYLINE
  5
13C9
330
1F
100
AcDbEntity
  8
0
  6
Continuous
 62
     7
370
    15
100
AcDbPolyline
 90
       11
 70
   128
 43
0.0
 38
-0.0000000145908932
 10
3.62396487413512
 20
5.747882586533976
 10
3.622836907458422
 20
5.768942548414058
 10
3.632805844158598
 20
5.770062317972049
 10
3.65369818035398
 20
5.771182367957785
 10
3.683165010107956
 20
5.772303625939962
 10
3.717887367243761
 20
5.77342501335033
 10
3.75395045751868
 20
5.774544793694004
 10
3.787287675512275
 20
5.775664832894058
 10
3.81413727851304
 20
5.776786090876234
 10
3.83146518392451
 20
5.77790746750092
 10
3.835270113856988
 20
5.758134291472466
210
0.0
220
-1.0
230
0.0
  0
LWPOLYLINE
  5
13CA
330
1F
100
AcDbEntity
  8
0
  6
Continuous
 62
     7
370
    15
100
AcDbPolyline
 90
       11
 70
   128
 43
0.0
 38
-0.0000000145908932
 10
3.625085366333839
 20
5.72701849264824
 10
3.628271985445175
 20
5.748770075633471
 10
3.645140426174641
 20
5.749891355187014
 10
3.671546063519166
 20
5.751012710240334
 10
3.704515179650863
 20
5.752132469012643
 10
3.740333329772444
 20
5.753252529784062
 10
3.774962655003775
 20
5.754373809337604
 10
3.804494862172272
 20
5.755495164390924
 10
3.825594385935795
 20
5.756614933948915
 10
3.835876409427816
 20
5.757734983934651
 10
3.834843755827443
 20
5.737269615159875
210
0.0
220
-1.0
230
0.0
  0
LWPOLYLINE
  5
13CB
330
1F
100
AcDbEntity
  8
0
  6
Continuous
 62
     7
370
    15
100
AcDbPolyline
 90
       10
 70
   128
 43
0.0
 38
-0.0000000145908932
 10
3.627404964839801
 20
5.727653514039146
 10
3.638060855175878
 20
5.728600450273069
 10
3.661011725163392
 20
5.729720187474012
 10
3.691712919655586
 20
5.730840269816796
 10
3.726706998805555
 20
5.731961560156021
 10
3.762048304803032
 20
5.733082893637976
 10
3.793749081296609
 20
5.734202641624602
 10
3.818231771663813
 20
5.735322723967386
 10
3.832730020912234
 20
5.73644401430661
 10
3.833622532929812
 20
5.727653514039146
210
0.0
220
-1.0
230
0.0
  0
SPLINE
  5
13D0
330
1F
100
AcDbEntity
  8
0
  6
Continuous
 62
     7
370
    15
100
AcDbSpline
210
0.0
220
1.0
230
0.0
 70
    12
 71
     3
 72
    20
 73
    16
 74
     0
 42
0.0000000001
 43
0.0000000001
 40
0.0
 40
0.0
 40
0.0
 40
0.0
 40
0.0789044374706855
 40
0.1570652345198997
 40
0.2352426967694602
 40
0.3134368648757336
 40
0.3916477787245222
 40
0.469875464390766
 40
0.5481199492821256
 40
0.6263812513347977
 40
0.704659377988629
 40
0.7829543292508544
 40
0.8612660808018562
 40
0.9395946027637915
 40
1.0
 40
1.0
 40
1.0
 40
1.0
 10
3.606079138617171
 20
0.0000000145908932
 30
5.759131762176498
 41
1.0
 10
3.605823434934237
 20
0.0000000145908932
 30
5.768163668475214
 41
1.0
 10
3.605314437465716
 20
0.0000000145908932
 30
5.786142359236385
 41
1.0
 10
3.616434279189775
 20
0.0000000145908932
 30
5.780059007754396
 41
1.0
 10
3.634037914203343
 20
0.0000000145908932
 30
5.782770438617645
 41
1.0
 10
3.658217921941869
 20
0.0000000145908932
 30
5.783130184051343
 41
1.0
 10
3.687053558418981
 20
0.0000000145908932
 30
5.784119008184552
 41
1.0
 10
3.718729708822747
 20
0.0000000145908932
 30
5.784943839216381
 41
1.0
 10
3.751130306550055
 20
0.0000000145908932
 30
5.785795370393936
 41
1.0
 10
3.782126438447592
 20
0.0000000145908932
 30
5.786704165029475
 41
1.0
 10
3.809649866983016
 20
0.0000000145908932
 30
5.787357114287955
 41
1.0
 10
3.831949624407501
 20
0.0000000145908932
 30
5.788976474234186
 41
1.0
 10
3.847295080965017
 20
0.0000000145908932
 30
5.786984956560222
 41
1.0
 10
3.854986114936096
 20
0.0000000145908932
 30
5.797597389264043
 41
1.0
 10
3.854085317296899
 20
0.0000000145908932
 30
5.778073804318761
 41
1.0
 10
3.85369310579203
 20
0.0000000145908932
 30
5.769573144127577
 41
1.0
  0
SPLINE
  5
13D1
330
1F
100
AcDbEntity
  8
0
  6
Continuous
 62
     7
370
    15
100
AcDbSpline
210
0.0
220
1.0
230
0.0
 70
    12
 71
     3
 72
    20
 73
    16
 74
     0
 42
0.0000000001
 43
0.0000000001
 40
0.0
 40
0.0
 40
0.0
 40
0.0
 40
0.0909738935582202
 40
0.1688724871950289
 40
0.2467877007966246
 40
0.3247195715906454
 40
0.4026681448250164
 40
0.4806334421622034
 40
0.5586155135735279
 40
0.6366143814162827
 40
0.7146300841085269
 40
0.7926626429966824
 40
0.8707120468790693
 40
0.9487782988023367
 40
1.0
 40
1.0
 40
1.0
 40
1.0
 10
3.607291212046067
 20
0.0000000145908932
 30
5.738402953106462
 41
1.0
 10
3.607548016560029
 20
0.0000000145908932
 30
5.747618597335562
 41
1.0
 10
3.60802471614163
 20
0.0000000145908932
 30
5.764725359519778
 41
1.0
 10
3.622987932456635
 20
0.0000000145908932
 30
5.759794927444897
 41
1.0
 10
3.643003031172274
 20
0.0000000145908932
 30
5.762132502222665
 41
1.0
 10
3.669068282984496
 20
0.0000000145908932
 30
5.762592509473292
 41
1.0
 10
3.699055795282717
 20
0.0000000145908932
 30
5.763554188691081
 41
1.0
 10
3.731096027464158
 20
0.0000000145908932
 30
5.764387308104272
 41
1.0
 10
3.763043045811031
 20
0.0000000145908932
 30
5.765232838019484
 41
1.0
 10
3.792797526292516
 20
0.0000000145908932
 30
5.766157352097574
 41
1.0
 10
3.818378573367065
 20
0.0000000145908932
 30
5.766753409003231
 41
1.0
 10
3.838140737179572
 20
0.0000000145908932
 30
5.768584684402449
 41
1.0
 10
3.850605219664844
 20
0.0000000145908932
 30
5.765802154638397
 41
1.0
 10
3.855011505669085
 20
0.0000000145908932
 30
5.778588305319152
 41
1.0
 10
3.853098718652929
 20
0.0000000145908932
 30
5.757173165139113
 41
1.0
 10
3.852340904775988
 20
0.0000000145908932
 30
5.748688848658503
 41
1.0
  0
SPLINE
  5
13D2
330
1F
100
AcDbEntity
  8
0
  6
Continuous
 62
     7
370
    15
100
AcDbSpline
210
0.0
220
1.0
230
0.0
 70
    12
 71
     3
 72
    20
 73
    16
 74
     0
 42
0.0000000001
 43
0.0000000001
 40
0.0235039917534003
 40
0.0235039917534003
 40
0.0235039917534003
 40
0.0235039917534003
 40
0.0583467904927398
 40
0.136319016076378
 40
0.2143078796727812
 40
0.292313406363926
 40
0.3703356336795595
 40
0.4483745858257475
 40
0.5264302953890595
 40
0.6045028021198409
 40
0.6825921482662745
 40
0.7606983772127335
 40
0.8388214978645804
 40
0.9169615664296239
 40
1.0
 40
1.0
 40
1.0
 40
1.0
 10
3.607412088555917
 20
0.0000000145908932
 30
5.727653514039151
 41
1.0
 10
3.607100634855428
 20
0.0000000145908932
 30
5.732353861882443
 41
1.0
 10
3.606718962408927
 20
0.0000000145908932
 30
5.745359595743365
 41
1.0
 10
3.61459367901083
 20
0.0000000145908932
 30
5.737269930218569
 41
1.0
 10
3.63018503615571
 20
0.0000000145908932
 30
5.741014380565909
 41
1.0
 10
3.652795007755159
 20
0.0000000145908932
 30
5.741097121865858
 41
1.0
 10
3.68036761804369
 20
0.0000000145908932
 30
5.742160571055114
 41
1.0
 10
3.711235533172792
 20
0.0000000145908932
 30
5.742963987972612
 41
1.0
 10
3.743318574160169
 20
0.0000000145908932
 30
5.743826530324244
 41
1.0
 10
3.774515641511916
 20
0.0000000145908932
 30
5.744712694702112
 41
1.0
 10
3.802736789346922
 20
0.0000000145908932
 30
5.745445176889926
 41
1.0
 10
3.826213396637879
 20
0.0000000145908932
 30
5.746768949657668
 41
1.0
 10
3.843033262300085
 20
0.0000000145908932
 30
5.745880573669059
 41
1.0
 10
3.85363925766219
 20
0.0000000145908932
 30
5.753405493677102
 41
1.0
 10
3.852186792010602
 20
0.0000000145908932
 30
5.736613326488118
 41
1.0
 10
3.8514384882919
 20
0.0000000145908932
 30
5.727962078082461
 41
1.0
  0
LINE
  5
13D8
330
1F
100
AcDbEntity
  8
0
  6
Continuous
 62
     7
370
    15
100
AcDbLine
 10
3.786611607361301
 20
0.0000000145908932
 30
5.878692746130962
 11
3.672549692847911
 21
0.0000000145908932
 31
5.878692746130962
210
0.0
220
-1.0
230
0.0
  0
LINE
  5
13D9
330
1F
100
AcDbEntity
  8
0
  6
Continuous
 62
     7
370
    15
100
AcDbLine
 10
3.672549692847911
 20
0.0000000145908932
 30
5.83162740358423
 11
3.786611607361301
 21
0.0000000145908932
 31
5.83162740358423
210
0.0
220
-1.0
230
0.0
  0
LINE
  5
13DA
330
1F
100
AcDbEntity
  8
0
  6
Continuous
 62
     7
370
    15
100
AcDbLine
 10
3.786611607361301
 20
0.0000000145908932
 30
5.805153153120429
 11
3.672549692847911
 21
0.0000000145908932
 31
5.805153153120429
210
0.0
220
-1.0
230
0.0
  0
LINE
  5
13DB
330
1F
100
AcDbEntity
  8
0
  6
Continuous
 62
     7
370
    15
100
AcDbLine
 10
3.786611607361301
 20
0.0000000145908932
 30
5.828685824393796
 11
3.672549692847911
 21
0.0000000145908932
 31
5.828685824393796
210
0.0
220
-1.0
230
0.0
  0
LINE
  5
13DC
330
1F
100
AcDbEntity
  8
0
  6
Continuous
 62
     7
370
    15
100
AcDbLine
 10
3.786611607361301
 20
0.0000000145908932
 30
5.85221849297074
 11
3.672549692847911
 21
0.0000000145908932
 31
5.85221849297074
210
0.0
220
-1.0
230
0.0
  0
LINE
  5
13DD
330
1F
100
AcDbEntity
  8
0
  6
Continuous
 62
     7
370
    15
100
AcDbLine
 10
3.672549692847911
 20
0.0000000145908932
 30
5.855160074857596
 11
3.786611607361301
 21
0.0000000145908932
 31
5.855160074857596
210
0.0
220
-1.0
230
0.0
  0
LWPOLYLINE
  5
13E5
330
1F
100
AcDbEntity
  8
0
  6
Continuous
 62
     7
370
    15
100
AcDbPolyline
 90
       11
 70
   128
 43
0.0
 38
-0.0000000145908932
 10
3.835070945443793
 20
5.758719209820564
 10
3.828318299267533
 20
5.736754102678718
 10
3.809567082835247
 20
5.735631938699211
 10
3.78179840486376
 20
5.734510119861543
 10
3.748151906076035
 20
5.733389789448061
 10
3.712431646808898
 20
5.732268833464994
 10
3.678671446704382
 20
5.731146658699803
 10
3.650680071353309
 20
5.730024861433501
 10
3.631613594814152
 20
5.728904531020019
 10
3.62361990486578
 20
5.727783553465588
 10
3.624291378316005
 20
5.748455122918553
210
0.0
220
-1.0
230
0.0
  0
LWPOLYLINE
  5
13E6
330
1F
100
AcDbEntity
  8
0
  6
Continuous
 62
     7
370
    15
100
AcDbPolyline
 90
       11
 70
   128
 43
0.0
 38
-0.0000000145908932
 10
3.83622152969671
 20
5.779581556425732
 10
3.833328712576894
 20
5.758058284767831
 10
3.818660863863873
 20
5.756936379644705
 10
3.793945591039066
 20
5.755816038445539
 10
3.761980627341715
 20
5.754695147176568
 10
3.726379648285645
 20
5.75357302633979
 10
3.691162863329776
 20
5.752451132002345
 10
3.66030495556716
 20
5.751330801588863
 10
3.63728843852306
 20
5.750209888748526
 10
3.624706033880028
 20
5.749087757126066
 10
3.622410312143862
 20
5.769322053438788
210
0.0
220
-1.0
230
0.0
  0
LWPOLYLINE
  5
13E7
330
1F
100
AcDbEntity
  8
0
  6
Continuous
 62
     7
370
    15
100
AcDbPolyline
 90
       11
 70
   128
 43
0.0
 38
-0.0000000145908932
 10
3.836903281902365
 20
5.800455734924612
 10
3.832321815186351
 20
5.799547483386288
 10
3.815074360180708
 20
5.798425459620653
 10
3.78818707200526
 20
5.797303419676493
 10
3.754700213452548
 20
5.796183035334598
 10
3.718399542230286
 20
5.795062268100976
 10
3.683385361601596
 20
5.793940233549658
 10
3.653608168440609
 20
5.792818204391182
 10
3.632425681207235
 20
5.79169783083497
 10
3.6222248739045
 20
5.790577047422823
 10
3.622889250375635
 20
5.790189765921005
210
0.0
220
-1.0
230
0.0
  0
SPLINE
  5
13E8
330
1F
100
AcDbEntity
  8
0
  6
Continuous
 62
     7
370
    15
100
AcDbSpline
210
0.0
220
-1.0
230
0.0
 70
    12
 71
     3
 72
    13
 73
     9
 74
     0
 42
0.0000000001
 43
0.0000000001
 40
0.0
 40
0.0
 40
0.0
 40
0.0
 40
0.0666001495308977
 40
0.2436001438332762
 40
0.4206378856047566
 40
0.5977134795436972
 40
0.7748269249473798
 40
1.0
 40
1.0
 40
1.0
 40
1.0
 10
3.605266200155171
 20
0.0000000145908932
 30
5.800313595807679
 41
1.0
 10
3.605014127097065
 20
0.0000000145908932
 30
5.800421063565912
 41
1.0
 10
3.604092131671475
 20
0.0000000145908932
 30
5.80081414318431
 41
1.0
 10
3.611133870585715
 20
0.0000000145908932
 30
5.801492700625239
 41
1.0
 10
3.625854701925827
 20
0.0000000145908932
 30
5.802349301225593
 41
1.0
 10
3.647993209160314
 20
0.0000000145908932
 30
5.803206033306219
 41
1.0
 10
3.677758977511993
 20
0.0000000145908932
 30
5.804139608726491
 41
1.0
 10
3.701856570716144
 20
0.0000000145908932
 30
5.804789427855059
 41
1.0
 10
3.71534479089561
 20
0.0000000145908932
 30
5.805153153120429
 41
1.0
  0
SPLINE
  5
13E9
330
1F
100
AcDbEntity
  8
0
  6
Continuous
 62
     7
370
    15
100
AcDbSpline
210
0.0
220
0.0
230
1.0
 70
    28
 71
     1
 72
     4
 73
     2
 74
     0
 42
0.0000000001
 43
0.0000000001
 40
0.0
 40
0.0
 40
1.0
 40
1.0
 10
3.605699471807204
 20
0.0000000145908932
 30
5.779428486019578
 41
1.0
 10
3.853629750692977
 20
0.0000000145908932
 30
5.789718614952003
 41
1.0
  0
SPLINE
  5
13EA
330
1F
100
AcDbEntity
  8
0
  6
Continuous
 62
     7
370
    15
100
AcDbSpline
210
0.0
220
1.0
230
0.0
 70
    12
 71
     3
 72
    20
 73
    16
 74
     0
 42
0.0000000001
 43
0.0000000001
 40
0.0
 40
0.0
 40
0.0
 40
0.0
 40
0.0790701008985683
 40
0.1573910350513812
 40
0.2357286737946402
 40
0.3140830788943759
 40
0.3924542511662918
 40
0.4708422556931904
 40
0.5492471039542723
 40
0.6276688141952522
 40
0.7061074070354263
 40
0.7845628587570658
 40
0.8630351682177738
 40
0.9415242832642184
 40
1.0
 40
1.0
 40
1.0
 40
1.0
 10
3.60607581662696
 20
0.0000000145908932
 30
5.758543662052061
 41
1.0
 10
3.605820831897371
 20
0.0000000145908932
 30
5.767575644611981
 41
1.0
 10
3.605313278346078
 20
0.0000000145908932
 30
5.785554034262647
 41
1.0
 10
3.616438816266711
 20
0.0000000145908932
 30
5.779471100600698
 41
1.0
 10
3.634046870175167
 20
0.0000000145908932
 30
5.782182410946177
 41
1.0
 10
3.658230903513464
 20
0.0000000145908932
 30
5.782542184783971
 41
1.0
 10
3.687069683965446
 20
0.0000000145908932
 30
5.783530949772929
 41
1.0
 10
3.718747897430988
 20
0.0000000145908932
 30
5.784355989829583
 41
1.0
 10
3.751149474192841
 20
0.0000000145908932
 30
5.785206743516041
 41
1.0
 10
3.782144932263519
 20
0.0000000145908932
 30
5.786118439977749
 41
1.0
 10
3.809667956705931
 20
0.0000000145908932
 30
5.786760556365156
 41
1.0
 10
3.831960601675267
 20
0.0000000145908932
 30
5.788420357700453
 41
1.0
 10
3.847318843081394
 20
0.0000000145908932
 30
5.78627786186857
 41
1.0
 10
3.854877114794597
 20
0.0000000145908932
 30
5.797305785924091
 41
1.0
 10
3.854183219192042
 20
0.0000000145908932
 30
5.77742772679489
 41
1.0
 10
3.85388696764943
 20
0.0000000145908932
 30
5.768940995275776
 41
1.0
  0
SPLINE
  5
13EB
330
1F
100
AcDbEntity
  8
0
  6
Continuous
 62
     7
370
    15
100
AcDbSpline
210
0.0
220
1.0
230
0.0
 70
    12
 71
     3
 72
    20
 73
    16
 74
     0
 42
0.0000000001
 43
0.0000000001
 40
0.0
 40
0.0
 40
0.0
 40
0.0
 40
0.0529097499382651
 40
0.1312665647952469
 40
0.2096400794596119
 40
0.2880303358347759
 40
0.3664373421237469
 40
0.4448611684408132
 40
0.5233018390741372
 40
0.6017593970483021
 40
0.6802338691794786
 40
0.7587252869702525
 40
0.8372336669024174
 40
0.9157590180807831
 40
1.0
 40
1.0
 40
1.0
 40
1.0
 10
3.607258391214195
 20
0.0000000145908932
 30
5.737657284946264
 41
1.0
 10
3.606438122511869
 20
0.0000000145908932
 30
5.746150139989699
 41
1.0
 10
3.604403075003817
 20
0.0000000145908932
 30
5.767220508081713
 41
1.0
 10
3.609718453231801
 20
0.0000000145908932
 30
5.756888235276044
 41
1.0
 10
3.622753867372944
 20
0.0000000145908932
 30
5.761079787681258
 41
1.0
 10
3.643078562831785
 20
0.0000000145908932
 30
5.761042687562503
 41
1.0
 10
3.669065492407449
 20
0.0000000145908932
 30
5.762138267504152
 41
1.0
 10
3.699078010741371
 20
0.0000000145908932
 30
5.762933039206932
 41
1.0
 10
3.73111231184973
 20
0.0000000145908932
 30
5.763798022076809
 41
1.0
 10
3.763067083399775
 20
0.0000000145908932
 30
5.764683072021429
 41
1.0
 10
3.792798223315526
 20
0.0000000145908932
 30
5.765417570877389
 41
1.0
 10
3.818459265139718
 20
0.0000000145908932
 30
5.766734389028294
 41
1.0
 10
3.837911977478814
 20
0.0000000145908932
 30
5.765871823300746
 41
1.0
 10
3.851844771410042
 20
0.0000000145908932
 30
5.773322909402012
 41
1.0
 10
3.852008055490266
 20
0.0000000145908932
 30
5.756600774450574
 41
1.0
 10
3.85209256443624
 20
0.0000000145908932
 30
5.747946103418265
 41
1.0
  0
SPLINE
  5
13EC
330
1F
100
AcDbEntity
  8
0
  6
Continuous
 62
     7
370
    15
100
AcDbSpline
210
0.0
220
1.0
230
0.0
 70
    12
 71
     3
 72
    20
 73
    16
 74
     0
 42
0.0000000001
 43
0.0000000001
 40
0.0286441639855147
 40
0.0286441639855147
 40
0.0286441639855147
 40
0.0286441639855147
 40
0.0671422745469587
 40
0.1460470189237726
 40
0.224968618699062
 40
0.303907087345727
 40
0.3828624581556154
 40
0.4618347776013516
 40
0.5408240688335418
 40
0.6198303676482738
 40
0.6988537211923767
 40
0.7778941649059773
 40
0.85695173133328
 40
0.9360264517941406
 40
1.0
 40
1.0
 40
1.0
 40
1.0
 10
3.607034285563358
 20
0.0000000145908932
 30
5.727653514039147
 41
1.0
 10
3.606836647593783
 20
0.0000000145908932
 30
5.732173369571395
 41
1.0
 10
3.606868140332781
 20
0.0000000145908932
 30
5.743773410582222
 41
1.0
 10
3.614501762682304
 20
0.0000000145908932
 30
5.737069744451391
 41
1.0
 10
3.630219616355003
 20
0.0000000145908932
 30
5.740322397789464
 41
1.0
 10
3.652800928682545
 20
0.0000000145908932
 30
5.740537041006964
 41
1.0
 10
3.680385457260106
 20
0.0000000145908932
 30
5.7415648252607
 41
1.0
 10
3.711253184928597
 20
0.0000000145908932
 30
5.742378961660983
 41
1.0
 10
3.743337668146575
 20
0.0000000145908932
 30
5.74323429992152
 41
1.0
 10
3.774534722849969
 20
0.0000000145908932
 30
5.744138563461114
 41
1.0
 10
3.802752642763816
 20
0.0000000145908932
 30
5.744805834344792
 41
1.0
 10
3.826233061694019
 20
0.0000000145908932
 30
5.746372426053564
 41
1.0
 10
3.843025087459137
 20
0.0000000145908932
 30
5.744577712115515
 41
1.0
 10
3.852833191418198
 20
0.0000000145908932
 30
5.75464727301401
 41
1.0
 10
3.852304789894989
 20
0.0000000145908932
 30
5.735585411560552
 41
1.0
 10
3.852068480007198
 20
0.0000000145908932
 30
5.727060632309799
 41
1.0
  0
LINE
  5
1404
330
1F
100
AcDbEntity
  8
0
  6
Continuous
 62
     7
370
    15
100
AcDbLine
 10
3.592797002035744
 20
0.0000000145908932
 30
5.83162740358423
 11
3.649827964685281
 21
0.0000000145908932
 31
5.83162740358423
210
0.0
220
-1.0
230
0.0
  0
LINE
  5
1405
330
1F
100
AcDbEntity
  8
0
  6
Continuous
 62
     7
370
    15
100
AcDbLine
 10
3.649827964685281
 20
0.0000000145908932
 30
5.85221849297074
 11
3.592797002035744
 21
0.0000000145908932
 31
5.85221849297074
210
0.0
220
-1.0
230
0.0
  0
LINE
  5
1406
330
1F
100
AcDbEntity
  8
0
  6
Continuous
 62
     7
370
    15
100
AcDbLine
 10
3.647280478155168
 20
0.0000000145908932
 30
5.805153153120429
 11
3.590249520898473
 21
0.0000000145908932
 31
5.805153153120429
210
0.0
220
-1.0
230
0.0
  0
LINE
  5
1407
330
1F
100
AcDbEntity
  8
0
  6
Continuous
 62
     7
370
    15
100
AcDbLine
 10
3.647280478155168
 20
0.0000000145908932
 30
5.828685824393796
 11
3.590249520898473
 21
0.0000000145908932
 31
5.828685824393796
210
0.0
220
-1.0
230
0.0
  0
LINE
  5
1408
330
1F
100
AcDbEntity
  8
0
  6
Continuous
 62
     7
370
    15
100
AcDbLine
 10
3.647280478155168
 20
0.0000000145908932
 30
5.878692746130962
 11
3.590249520898473
 21
0.0000000145908932
 31
5.878692746130962
210
0.0
220
-1.0
230
0.0
  0
LINE
  5
1409
330
1F
100
AcDbEntity
  8
0
  6
Continuous
 62
     7
370
    15
100
AcDbLine
 10
3.590249520898473
 20
0.0000000145908932
 30
5.855160074857596
 11
3.647280478155168
 21
0.0000000145908932
 31
5.855160074857596
210
0.0
220
-1.0
230
0.0
  0
ARC
  5
140A
330
1F
100
AcDbEntity
  8
0
  6
Continuous
 62
     7
370
    15
100
AcDbCircle
 10
3.606034132353828
 20
5.841922949181326
 30
-0.0000000145908932
 40
0.0102955431458983
210
0.0
220
-1.0
230
0.0
100
AcDbArc
 50
270.0000000000023
 51
89.99999999999858
  0
LWPOLYLINE
  5
140B
330
1F
100
AcDbEntity
  8
0
  6
Continuous
 62
     7
370
    15
100
AcDbPolyline
 90
        3
 70
   128
 43
0.0
 38
-0.0000000145908932
 10
3.623134441296091
 20
5.747973585337297
 10
3.614758032189601
 20
5.743187870151626
 10
3.606378603092009
 20
5.738402154965957
210
0.0
220
-1.0
230
0.0
  0
LWPOLYLINE
  5
140C
330
1F
100
AcDbEntity
  8
0
  6
Continuous
 62
     7
370
    15
100
AcDbPolyline
 90
        3
 70
   128
 43
0.0
 38
-0.0000000145908932
 10
3.622493103042794
 20
5.768845121343962
 10
3.614113134661077
 20
5.764066244281002
 10
3.60573015707394
 20
5.759287367218043
210
0.0
220
-1.0
230
0.0
  0
LWPOLYLINE
  5
140D
330
1F
100
AcDbEntity
  8
0
  6
Continuous
 62
     7
370
    15
100
AcDbPolyline
 90
        3
 70
   128
 43
0.0
 38
-0.0000000145908932
 10
3.621849273296838
 20
5.789715012534046
 10
3.613466284924018
 20
5.784943582984857
 10
3.605080373631239
 20
5.78017211568578
210
0.0
220
-1.0
230
0.0
  0
LINE
  5
140E
330
1F
100
AcDbEntity
  8
0
  6
Continuous
 62
     7
370
    15
100
AcDbLine
 10
3.611645952930078
 20
0.0000000145908932
 30
5.805153153120429
 11
3.604431474614504
 21
0.0000000145908932
 31
5.801056152298473
210
0.0
220
-1.0
230
0.0
  0
LWPOLYLINE
  5
140F
330
1F
100
AcDbEntity
  8
0
  6
Continuous
 62
     7
370
    15
100
AcDbPolyline
 90
        3
 70
   128
 43
0.0
 38
-0.0000000145908932
 10
3.606368335122261
 20
5.737503513470747
 10
3.615053344176673
 20
5.73241902409392
 10
3.623449361653962
 20
5.727501939295301
210
0.0
220
-1.0
230
0.0
  0
LWPOLYLINE
  5
1410
330
1F
100
AcDbEntity
  8
0
  6
Continuous
 62
     7
370
    15
100
AcDbPolyline
 90
        3
 70
   128
 43
0.0
 38
-0.0000000145908932
 10
3.605719597890764
 20
5.758389718005622
 10
3.61440110159836
 20
5.753298066935612
 10
3.622800850921798
 20
5.748369862098327
210
0.0
220
-1.0
230
0.0
  0
LWPOLYLINE
  5
1411
330
1F
100
AcDbEntity
  8
0
  6
Continuous
 62
     7
370
    15
100
AcDbPolyline
 90
        3
 70
   128
 43
0.0
 38
-0.0000000145908932
 10
3.605067797525434
 20
5.779276893251925
 10
3.613744879103202
 20
5.774178706058313
 10
3.622152361760998
 20
5.769237170117449
210
0.0
220
-1.0
230
0.0
  0
LWPOLYLINE
  5
1412
330
1F
100
AcDbEntity
  8
0
  6
Continuous
 62
     7
370
    15
100
AcDbPolyline
 90
        3
 70
   128
 43
0.0
 38
-0.0000000145908932
 10
3.604416860014705
 20
5.80016287128747
 10
3.613088904678742
 20
5.795058196505829
 10
3.621503915742928
 20
5.790103156890464
210
0.0
220
-1.0
230
0.0
  0
LINE
  5
1413
330
1F
100
AcDbEntity
  8
0
  6
Continuous
 62
     7
370
    15
100
AcDbLine
 10
3.590249520898473
 20
0.0000000145908932
 30
5.805153153120429
 11
3.58985542284531
 21
0.0000000145908932
 31
5.805153153120429
210
0.0
220
-1.0
230
0.0
  0
LINE
  5
1414
330
1F
100
AcDbEntity
  8
0
  6
Continuous
 62
     7
370
    15
100
AcDbLine
 10
3.58985542284531
 20
0.0000000145908932
 30
5.805153153120429
 11
3.58985542284531
 21
0.0000000145908932
 31
5.828685824393796
210
0.0
220
-1.0
230
0.0
  0
LINE
  5
1415
330
1F
100
AcDbEntity
  8
0
  6
Continuous
 62
     7
370
    15
100
AcDbLine
 10
3.590249520898473
 20
0.0000000145908932
 30
5.828685824393796
 11
3.58985542284531
 21
0.0000000145908932
 31
5.828685824393796
210
0.0
220
-1.0
230
0.0
  0
ARC
  5
1416
330
1F
100
AcDbEntity
  8
0
  6
Continuous
 62
     7
370
    15
100
AcDbCircle
 10
3.592797005451958
 20
5.828685822279457
 30
-0.0000000145908932
 40
0.0029415837559709
210
0.0
220
-1.0
230
0.0
100
AcDbArc
 50
90.0
 51
180.0000000000004
  0
ARC
  5
1417
330
1F
100
AcDbEntity
  8
0
  6
Continuous
 62
     7
370
    15
100
AcDbCircle
 10
3.593038606081225
 20
5.828895058173115
 30
-0.0000000145908932
 40
0.0027969224034736
210
0.0
220
-1.0
230
0.0
100
AcDbArc
 50
94.95550602575071
 51
184.2902235601596
  0
LINE
  5
1418
330
1F
100
AcDbEntity
  8
0
  6
Continuous
 62
     7
370
    15
100
AcDbLine
 10
3.590249520898473
 20
0.0000000145908932
 30
5.828685824393796
 11
3.590249520898473
 21
0.0000000145908932
 31
5.805153153120429
210
0.0
220
-1.0
230
0.0
  0
SPLINE
  5
1419
330
1F
100
AcDbEntity
  8
0
  6
Continuous
 62
     7
370
    15
100
AcDbSpline
210
0.0
220
0.0
230
1.0
 70
    28
 71
     1
 72
     4
 73
     2
 74
     0
 42
0.0000000001
 43
0.0000000001
 40
0.0
 40
0.0
 40
1.0
 40
1.0
 10
3.606093828716748
 20
0.0000000145908932
 30
5.780173658038379
 41
1.0
 10
3.605086219471159
 20
0.0000000145908932
 30
5.801056427333377
 41
1.0
  0
LINE
  5
141A
330
1F
100
AcDbEntity
  8
0
  6
Continuous
 62
     7
370
    15
100
AcDbLine
 10
3.58985542284531
 20
0.0000000145908932
 30
5.878692746130962
 11
3.590249520898473
 21
0.0000000145908932
 31
5.878692746130962
210
0.0
220
-1.0
230
0.0
  0
LINE
  5
141B
330
1F
100
AcDbEntity
  8
0
  6
Continuous
 62
     7
370
    15
100
AcDbLine
 10
3.58985542284531
 20
0.0000000145908932
 30
5.855160074857596
 11
3.58985542284531
 21
0.0000000145908932
 31
5.878692746130962
210
0.0
220
-1.0
230
0.0
  0
LINE
  5
141C
330
1F
100
AcDbEntity
  8
0
  6
Continuous
 62
     7
370
    15
100
AcDbLine
 10
3.58985542284531
 20
0.0000000145908932
 30
5.855160074857596
 11
3.590249520898473
 21
0.0000000145908932
 31
5.855160074857596
210
0.0
220
-1.0
230
0.0
  0
ARC
  5
141D
330
1F
100
AcDbEntity
  8
0
  6
Continuous
 62
     7
370
    15
100
AcDbCircle
 10
3.592797005451958
 20
5.855160076083195
 30
-0.0000000145908932
 40
0.002941583755971
210
0.0
220
-1.0
230
0.0
100
AcDbArc
 50
180.0000000000004
 51
270.0000000000008
  0
ARC
  5
141E
330
1F
100
AcDbEntity
  8
0
  6
Continuous
 62
     7
370
    15
100
AcDbCircle
 10
3.593038610060788
 20
5.854950843780404
 30
-0.0000000145908932
 40
0.0027969261697445
210
0.0
220
-1.0
230
0.0
100
AcDbArc
 50
175.7098377371125
 51
265.0444188356245
  0
LINE
  5
141F
330
1F
100
AcDbEntity
  8
0
  6
Continuous
 62
     7
370
    15
100
AcDbLine
 10
3.590249520898473
 20
0.0000000145908932
 30
5.878692746130962
 11
3.590249520898473
 21
0.0000000145908932
 31
5.855160074857596
210
0.0
220
-1.0
230
0.0
  0
LINE
  5
1420
330
1F
100
AcDbEntity
  8
0
  6
Continuous
 62
     7
370
    15
100
AcDbLine
 10
3.671078903252693
 20
0.0000000145908932
 30
5.805153153120429
 11
3.648357169697222
 21
0.0000000145908932
 31
5.805153153120429
210
0.0
220
-1.0
230
0.0
  0
LINE
  5
1421
330
1F
100
AcDbEntity
  8
0
  6
Continuous
 62
     7
370
    15
100
AcDbLine
 10
3.649827964685281
 20
0.0000000145908932
 30
5.83162740358423
 11
3.672549692847911
 21
0.0000000145908932
 31
5.83162740358423
210
0.0
220
-1.0
230
0.0
  0
LINE
  5
1422
330
1F
100
AcDbEntity
  8
0
  6
Continuous
 62
     7
370
    15
100
AcDbLine
 10
3.671078903252693
 20
0.0000000145908932
 30
5.828685824393796
 11
3.648357169697222
 21
0.0000000145908932
 31
5.828685824393796
210
0.0
220
-1.0
230
0.0
  0
LINE
  5
1423
330
1F
100
AcDbEntity
  8
0
  6
Continuous
 62
     7
370
    15
100
AcDbLine
 10
3.648357169697222
 20
0.0000000145908932
 30
5.805153153120429
 11
3.647280478155168
 21
0.0000000145908932
 31
5.805153153120429
210
0.0
220
-1.0
230
0.0
  0
LINE
  5
1424
330
1F
100
AcDbEntity
  8
0
  6
Continuous
 62
     7
370
    15
100
AcDbLine
 10
3.647280478155168
 20
0.0000000145908932
 30
5.805153153120429
 11
3.647280478155168
 21
0.0000000145908932
 31
5.828685824393796
210
0.0
220
-1.0
230
0.0
  0
LINE
  5
1425
330
1F
100
AcDbEntity
  8
0
  6
Continuous
 62
     7
370
    15
100
AcDbLine
 10
3.648357169697222
 20
0.0000000145908932
 30
5.828685824393796
 11
3.647280478155168
 21
0.0000000145908932
 31
5.828685824393796
210
0.0
220
-1.0
230
0.0
  0
ARC
  5
1426
330
1F
100
AcDbEntity
  8
0
  6
Continuous
 62
     7
370
    15
100
AcDbCircle
 10
3.65006954984065
 20
5.828895071473479
 30
-0.0000000145908932
 40
0.0027969099390411
210
0.0
220
-1.0
230
0.0
100
AcDbArc
 50
94.95513974217353
 51
184.2905159441062
  0
LINE
  5
1427
330
1F
100
AcDbEntity
  8
0
  6
Continuous
 62
     7
370
    15
100
AcDbLine
 10
3.648357169697222
 20
0.0000000145908932
 30
5.828685824393796
 11
3.648357169697222
 21
0.0000000145908932
 31
5.805153153120429
210
0.0
220
-1.0
230
0.0
  0
LWPOLYLINE
  5
1428
330
1F
100
AcDbEntity
  8
0
  6
Continuous
 62
     7
370
    15
100
AcDbPolyline
 90
        9
 70
   128
 43
0.0
 38
-0.0000000145908932
 10
3.648357169697222
 20
5.828685824393796
 10
3.648385433578235
 20
5.829259698203004
 10
3.648469130474498
 20
5.829811515291484
 10
3.648605046252624
 20
5.830320076400264
 10
3.648787955249437
 20
5.830765837872642
 10
3.649010835985626
 20
5.831131661259111
 10
3.649265113843596
 20
5.831403492815362
 10
3.649541027780677
 20
5.831570886607889
 10
3.649827964685281
 20
5.83162740358423
210
0.0
220
-1.0
230
0.0
  0
LINE
  5
1429
330
1F
100
AcDbEntity
  8
0
  6
Continuous
 62
     7
370
    15
100
AcDbLine
 10
3.621502567532615
 20
0.0000000145908932
 30
5.790146671726543
 11
3.621521766047479
 21
0.0000000145908932
 31
5.789528603583258
210
0.0
220
-1.0
230
0.0
  0
LINE
  5
142A
330
1F
100
AcDbEntity
  8
0
  6
Continuous
 62
     7
370
    15
100
AcDbLine
 10
3.622149978125164
 20
0.0000000145908932
 30
5.769313964176907
 11
3.622170265993962
 21
0.0000000145908932
 31
5.768661020529231
210
0.0
220
-1.0
230
0.0
  0
LINE
  5
142B
330
1F
100
AcDbEntity
  8
0
  6
Continuous
 62
     7
370
    15
100
AcDbLine
 10
3.622799642925357
 20
0.0000000145908932
 30
5.748408766055134
 11
3.622818776726126
 21
0.0000000145908932
 31
5.747793237940078
210
0.0
220
-1.0
230
0.0
  0
LINE
  5
142C
330
1F
100
AcDbEntity
  8
0
  6
Continuous
 62
     7
370
    15
100
AcDbLine
 10
3.623447409445428
 20
0.0000000145908932
 30
5.727564776681593
 11
3.623467233529878
 21
0.0000000145908932
 31
5.726926922203746
210
0.0
220
-1.0
230
0.0
  0
LINE
  5
142D
330
1F
100
AcDbEntity
  8
0
  6
Continuous
 62
     7
370
    15
100
AcDbLine
 10
3.672549692847911
 20
0.0000000145908932
 30
5.805153153120429
 11
3.671078903252693
 21
0.0000000145908932
 31
5.805153153120429
210
0.0
220
-1.0
230
0.0
  0
LINE
  5
142E
330
1F
100
AcDbEntity
  8
0
  6
Continuous
 62
     7
370
    15
100
AcDbLine
 10
3.671078903252693
 20
0.0000000145908932
 30
5.805153153120429
 11
3.671078903252693
 21
0.0000000145908932
 31
5.828685824393796
210
0.0
220
-1.0
230
0.0
  0
LWPOLYLINE
  5
142F
330
1F
100
AcDbEntity
  8
0
  6
Continuous
 62
     7
370
    15
100
AcDbPolyline
 90
        9
 70
   128
 43
0.0
 38
-0.0000000145908932
 10
3.671078903252693
 20
5.828685824393796
 10
3.671107161740864
 20
5.829259698203004
 10
3.671190858637127
 20
5.829811515291484
 10
3.671326774415253
 20
5.830320076400264
 10
3.671509683412067
 20
5.830765837872642
 10
3.671732564148256
 20
5.831131661259111
 10
3.671986847399066
 20
5.831403492815362
 10
3.672262755943306
 20
5.831570886607889
 10
3.672549692847911
 20
5.83162740358423
210
0.0
220
-1.0
230
0.0
  0
LINE
  5
1430
330
1F
100
AcDbEntity
  8
0
  6
Continuous
 62
     7
370
    15
100
AcDbLine
 10
3.672549692847911
 20
0.0000000145908932
 30
5.828685824393796
 11
3.671078903252693
 21
0.0000000145908932
 31
5.828685824393796
210
0.0
220
-1.0
230
0.0
  0
LINE
  5
1431
330
1F
100
AcDbEntity
  8
0
  6
Continuous
 62
     7
370
    15
100
AcDbLine
 10
3.672549692847911
 20
0.0000000145908932
 30
5.83162740358423
 11
3.672549692847911
 21
0.0000000145908932
 31
5.828685824393796
210
0.0
220
-1.0
230
0.0
  0
LINE
  5
1432
330
1F
100
AcDbEntity
  8
0
  6
Continuous
 62
     7
370
    15
100
AcDbLine
 10
3.672549692847911
 20
0.0000000145908932
 30
5.828685824393796
 11
3.672549692847911
 21
0.0000000145908932
 31
5.805153153120429
210
0.0
220
-1.0
230
0.0
  0
LINE
  5
1433
330
1F
100
AcDbEntity
  8
0
  6
Continuous
 62
     7
370
    15
100
AcDbLine
 10
3.671078903252693
 20
0.0000000145908932
 30
5.878692746130962
 11
3.648357169697222
 21
0.0000000145908932
 31
5.878692746130962
210
0.0
220
-1.0
230
0.0
  0
LINE
  5
1434
330
1F
100
AcDbEntity
  8
0
  6
Continuous
 62
     7
370
    15
100
AcDbLine
 10
3.648357169697222
 20
0.0000000145908932
 30
5.855160074857596
 11
3.671078903252693
 21
0.0000000145908932
 31
5.855160074857596
210
0.0
220
-1.0
230
0.0
  0
LINE
  5
1435
330
1F
100
AcDbEntity
  8
0
  6
Continuous
 62
     7
370
    15
100
AcDbLine
 10
3.672549692847911
 20
0.0000000145908932
 30
5.85221849297074
 11
3.649827964685281
 21
0.0000000145908932
 31
5.85221849297074
210
0.0
220
-1.0
230
0.0
  0
LINE
  5
1436
330
1F
100
AcDbEntity
  8
0
  6
Continuous
 62
     7
370
    15
100
AcDbLine
 10
3.647280478155168
 20
0.0000000145908932
 30
5.878692746130962
 11
3.648357169697222
 21
0.0000000145908932
 31
5.878692746130962
210
0.0
220
-1.0
230
0.0
  0
LINE
  5
1437
330
1F
100
AcDbEntity
  8
0
  6
Continuous
 62
     7
370
    15
100
AcDbLine
 10
3.647280478155168
 20
0.0000000145908932
 30
5.855160074857596
 11
3.647280478155168
 21
0.0000000145908932
 31
5.878692746130962
210
0.0
220
-1.0
230
0.0
  0
LINE
  5
1438
330
1F
100
AcDbEntity
  8
0
  6
Continuous
 62
     7
370
    15
100
AcDbLine
 10
3.647280478155168
 20
0.0000000145908932
 30
5.855160074857596
 11
3.648357169697222
 21
0.0000000145908932
 31
5.855160074857596
210
0.0
220
-1.0
230
0.0
  0
ARC
  5
1439
330
1F
100
AcDbEntity
  8
0
  6
Continuous
 62
     7
370
    15
100
AcDbCircle
 10
3.650069553820138
 20
5.854950830479966
 30
-0.0000000145908932
 40
0.0027969137052278
210
0.0
220
-1.0
230
0.0
100
AcDbArc
 50
175.709545352189
 51
265.0447851198022
  0
LINE
  5
143A
330
1F
100
AcDbEntity
  8
0
  6
Continuous
 62
     7
370
    15
100
AcDbLine
 10
3.648357169697222
 20
0.0000000145908932
 30
5.878692746130962
 11
3.648357169697222
 21
0.0000000145908932
 31
5.855160074857596
210
0.0
220
-1.0
230
0.0
  0
LWPOLYLINE
  5
143B
330
1F
100
AcDbEntity
  8
0
  6
Continuous
 62
     7
370
    15
100
AcDbPolyline
 90
        9
 70
   128
 43
0.0
 38
-0.0000000145908932
 10
3.649827964685281
 20
5.852218492970741
 10
3.649541027780677
 20
5.852275015339925
 10
3.649265113843596
 20
5.85244240643603
 10
3.649010835985626
 20
5.852714237992282
 10
3.648787955249437
 20
5.853080061378749
 10
3.648605046252624
 20
5.853525820154706
 10
3.648469130474498
 20
5.854034381263487
 10
3.648385433578235
 20
5.854586201048388
 10
3.648357169697222
 20
5.855160074857596
210
0.0
220
-1.0
230
0.0
  0
LINE
  5
143C
330
1F
100
AcDbEntity
  8
0
  6
Continuous
 62
     7
370
    15
100
AcDbLine
 10
3.671078903252693
 20
0.0000000145908932
 30
5.878692746130962
 11
3.672549692847911
 21
0.0000000145908932
 31
5.878692746130962
210
0.0
220
-1.0
230
0.0
  0
LINE
  5
143D
330
1F
100
AcDbEntity
  8
0
  6
Continuous
 62
     7
370
    15
100
AcDbLine
 10
3.671078903252693
 20
0.0000000145908932
 30
5.855160074857596
 11
3.671078903252693
 21
0.0000000145908932
 31
5.878692746130962
210
0.0
220
-1.0
230
0.0
  0
LWPOLYLINE
  5
143E
330
1F
100
AcDbEntity
  8
0
  6
Continuous
 62
     7
370
    15
100
AcDbPolyline
 90
        9
 70
   128
 43
0.0
 38
-0.0000000145908932
 10
3.672549692847911
 20
5.852218492970741
 10
3.672262755943306
 20
5.852275015339925
 10
3.671986847399066
 20
5.85244240643603
 10
3.671732564148256
 20
5.852714237992282
 10
3.671509683412067
 20
5.853080061378749
 10
3.671326774415253
 20
5.853525820154706
 10
3.671190858637127
 20
5.854034381263487
 10
3.671107161740864
 20
5.854586201048388
 10
3.671078903252693
 20
5.855160074857596
210
0.0
220
-1.0
230
0.0
  0
LINE
  5
143F
330
1F
100
AcDbEntity
  8
0
  6
Continuous
 62
     7
370
    15
100
AcDbLine
 10
3.671078903252693
 20
0.0000000145908932
 30
5.855160074857596
 11
3.672549692847911
 21
0.0000000145908932
 31
5.855160074857596
210
0.0
220
-1.0
230
0.0
  0
LINE
  5
1440
330
1F
100
AcDbEntity
  8
0
  6
Continuous
 62
     7
370
    15
100
AcDbLine
 10
3.672549692847911
 20
0.0000000145908932
 30
5.878692746130962
 11
3.672549692847911
 21
0.0000000145908932
 31
5.855160074857596
210
0.0
220
-1.0
230
0.0
  0
LINE
  5
1441
330
1F
100
AcDbEntity
  8
0
  6
Continuous
 62
     7
370
    15
100
AcDbLine
 10
3.672549692847911
 20
0.0000000145908932
 30
5.855160074857596
 11
3.672549692847911
 21
0.0000000145908932
 31
5.85221849297074
210
0.0
220
-1.0
230
0.0
  0
LINE
  5
145F
330
1F
100
AcDbEntity
  8
0
  6
Continuous
 62
     7
370
    15
100
AcDbLine
 10
3.810804130511989
 20
0.0000000145908932
 30
5.805153153120429
 11
3.788082396956518
 21
0.0000000145908932
 31
5.805153153120429
210
0.0
220
-1.0
230
0.0
  0
LINE
  5
1460
330
1F
100
AcDbEntity
  8
0
  6
Continuous
 62
     7
370
    15
100
AcDbLine
 10
3.810804130511989
 20
0.0000000145908932
 30
5.828685824393796
 11
3.788082396956518
 21
0.0000000145908932
 31
5.828685824393796
210
0.0
220
-1.0
230
0.0
  0
LINE
  5
1461
330
1F
100
AcDbEntity
  8
0
  6
Continuous
 62
     7
370
    15
100
AcDbLine
 10
3.786611607361301
 20
0.0000000145908932
 30
5.83162740358423
 11
3.809333335523931
 21
0.0000000145908932
 31
5.83162740358423
210
0.0
220
-1.0
230
0.0
  0
LINE
  5
1462
330
1F
100
AcDbEntity
  8
0
  6
Continuous
 62
     7
370
    15
100
AcDbLine
 10
3.809333335523931
 20
0.0000000145908932
 30
5.85221849297074
 11
3.786611607361301
 21
0.0000000145908932
 31
5.85221849297074
210
0.0
220
-1.0
230
0.0
  0
LINE
  5
1463
330
1F
100
AcDbEntity
  8
0
  6
Continuous
 62
     7
370
    15
100
AcDbLine
 10
3.810804130511989
 20
0.0000000145908932
 30
5.878692746130962
 11
3.788082396956518
 21
0.0000000145908932
 31
5.878692746130962
210
0.0
220
-1.0
230
0.0
  0
LINE
  5
1464
330
1F
100
AcDbEntity
  8
0
  6
Continuous
 62
     7
370
    15
100
AcDbLine
 10
3.788082396956518
 20
0.0000000145908932
 30
5.855160074857596
 11
3.810804130511989
 21
0.0000000145908932
 31
5.855160074857596
210
0.0
220
-1.0
230
0.0
  0
LINE
  5
1465
330
1F
100
AcDbEntity
  8
0
  6
Continuous
 62
     7
370
    15
100
AcDbLine
 10
3.788082396956518
 20
0.0000000145908932
 30
5.805153153120429
 11
3.786611607361301
 21
0.0000000145908932
 31
5.805153153120429
210
0.0
220
-1.0
230
0.0
  0
LINE
  5
1466
330
1F
100
AcDbEntity
  8
0
  6
Continuous
 62
     7
370
    15
100
AcDbLine
 10
3.788082396956518
 20
0.0000000145908932
 30
5.828685824393796
 11
3.788082396956518
 21
0.0000000145908932
 31
5.805153153120429
210
0.0
220
-1.0
230
0.0
  0
LINE
  5
1467
330
1F
100
AcDbEntity
  8
0
  6
Continuous
 62
     7
370
    15
100
AcDbLine
 10
3.786611607361301
 20
0.0000000145908932
 30
5.805153153120429
 11
3.786611607361301
 21
0.0000000145908932
 31
5.828685824393796
210
0.0
220
-1.0
230
0.0
  0
LINE
  5
1468
330
1F
100
AcDbEntity
  8
0
  6
Continuous
 62
     7
370
    15
100
AcDbLine
 10
3.786611607361301
 20
0.0000000145908932
 30
5.83162740358423
 11
3.786611607361301
 21
0.0000000145908932
 31
5.828685824393796
210
0.0
220
-1.0
230
0.0
  0
LINE
  5
1469
330
1F
100
AcDbEntity
  8
0
  6
Continuous
 62
     7
370
    15
100
AcDbLine
 10
3.788082396956518
 20
0.0000000145908932
 30
5.828685824393796
 11
3.786611607361301
 21
0.0000000145908932
 31
5.828685824393796
210
0.0
220
-1.0
230
0.0
  0
LWPOLYLINE
  5
146A
330
1F
100
AcDbEntity
  8
0
  6
Continuous
 62
     7
370
    15
100
AcDbPolyline
 90
        9
 70
   128
 43
0.0
 38
-0.0000000145908932
 10
3.786611607361301
 20
5.83162740358423
 10
3.786898544265905
 20
5.831570886607889
 10
3.787174452810146
 20
5.831403492815362
 10
3.787428736060956
 20
5.831131661259111
 10
3.787651616797145
 20
5.830765837872642
 10
3.787834525793959
 20
5.830320076400264
 10
3.787970441572085
 20
5.829811515291484
 10
3.788054138468348
 20
5.829259698203004
 10
3.788082396956518
 20
5.828685824393796
210
0.0
220
-1.0
230
0.0
  0
LINE
  5
146B
330
1F
100
AcDbEntity
  8
0
  6
Continuous
 62
     7
370
    15
100
AcDbLine
 10
3.786611607361301
 20
0.0000000145908932
 30
5.855160074857596
 11
3.786611607361301
 21
0.0000000145908932
 31
5.878692746130962
210
0.0
220
-1.0
230
0.0
  0
LINE
  5
146C
330
1F
100
AcDbEntity
  8
0
  6
Continuous
 62
     7
370
    15
100
AcDbLine
 10
3.788082396956518
 20
0.0000000145908932
 30
5.878692746130962
 11
3.788082396956518
 21
0.0000000145908932
 31
5.855160074857596
210
0.0
220
-1.0
230
0.0
  0
LINE
  5
146D
330
1F
100
AcDbEntity
  8
0
  6
Continuous
 62
     7
370
    15
100
AcDbLine
 10
3.786611607361301
 20
0.0000000145908932
 30
5.878692746130962
 11
3.788082396956518
 21
0.0000000145908932
 31
5.878692746130962
210
0.0
220
-1.0
230
0.0
  0
LINE
  5
146E
330
1F
100
AcDbEntity
  8
0
  6
Continuous
 62
     7
370
    15
100
AcDbLine
 10
3.786611607361301
 20
0.0000000145908932
 30
5.855160074857596
 11
3.788082396956518
 21
0.0000000145908932
 31
5.855160074857596
210
0.0
220
-1.0
230
0.0
  0
LWPOLYLINE
  5
146F
330
1F
100
AcDbEntity
  8
0
  6
Continuous
 62
     7
370
    15
100
AcDbPolyline
 90
        9
 70
   128
 43
0.0
 38
-0.0000000145908932
 10
3.788082396956518
 20
5.855160074857596
 10
3.788054138468348
 20
5.854586201048388
 10
3.787970441572085
 20
5.854034381263487
 10
3.787834525793959
 20
5.853525820154706
 10
3.787651616797145
 20
5.853080061378749
 10
3.787428736060956
 20
5.852714237992282
 10
3.787174452810146
 20
5.85244240643603
 10
3.786898544265905
 20
5.852275015339925
 10
3.786611607361301
 20
5.852218492970741
210
0.0
220
-1.0
230
0.0
  0
LINE
  5
1470
330
1F
100
AcDbEntity
  8
0
  6
Continuous
 62
     7
370
    15
100
AcDbLine
 10
3.786611607361301
 20
0.0000000145908932
 30
5.855160074857596
 11
3.786611607361301
 21
0.0000000145908932
 31
5.85221849297074
210
0.0
220
-1.0
230
0.0
  0
ARC
  5
1471
330
1F
100
AcDbEntity
  8
0
  6
Continuous
 62
     7
370
    15
100
AcDbCircle
 10
3.853127167855384
 20
5.841922949181326
 30
-0.0000000145908932
 40
0.0102955431458983
210
0.0
220
-1.0
230
0.0
100
AcDbArc
 50
90.00000000000288
 51
269.9999999999979
  0
LINE
  5
1472
330
1F
100
AcDbEntity
  8
0
  6
Continuous
 62
     7
370
    15
100
AcDbLine
 10
3.809333335523931
 20
0.0000000145908932
 30
5.83162740358423
 11
3.866364298173468
 21
0.0000000145908932
 31
5.83162740358423
210
0.0
220
-1.0
230
0.0
  0
LINE
  5
1473
330
1F
100
AcDbEntity
  8
0
  6
Continuous
 62
     7
370
    15
100
AcDbLine
 10
3.868911779310738
 20
0.0000000145908932
 30
5.805153153120429
 11
3.811880822054043
 21
0.0000000145908932
 31
5.805153153120429
210
0.0
220
-1.0
230
0.0
  0
LINE
  5
1474
330
1F
100
AcDbEntity
  8
0
  6
Continuous
 62
     7
370
    15
100
AcDbLine
 10
3.868911779310738
 20
0.0000000145908932
 30
5.828685824393796
 11
3.811880822054043
 21
0.0000000145908932
 31
5.828685824393796
210
0.0
220
-1.0
230
0.0
  0
LWPOLYLINE
  5
1475
330
1F
100
AcDbEntity
  8
0
  6
Continuous
 62
     7
370
    15
100
AcDbPolyline
 90
        3
 70
   128
 43
0.0
 38
-0.0000000145908932
 10
3.854403871483631
 20
5.790614441384078
 10
3.846015069627939
 20
5.795383007334561
 10
3.837963740992244
 20
5.799961340809806
210
0.0
220
-1.0
230
0.0
  0
LWPOLYLINE
  5
1476
330
1F
100
AcDbEntity
  8
0
  6
Continuous
 62
     7
370
    15
100
AcDbPolyline
 90
        3
 70
   128
 43
0.0
 38
-0.0000000145908932
 10
3.853756288320161
 20
5.769729083525279
 10
3.845371347738808
 20
5.774504271884821
 10
3.837315251831444
 20
5.779093806291351
210
0.0
220
-1.0
230
0.0
  0
LWPOLYLINE
  5
1477
330
1F
100
AcDbEntity
  8
0
  6
Continuous
 62
     7
370
    15
100
AcDbPolyline
 90
        3
 70
   128
 43
0.0
 38
-0.0000000145908932
 10
3.853108737513741
 20
5.748844410557318
 10
3.844728294561992
 20
5.753626232111602
 10
3.836666795027692
 20
5.758227663125939
210
0.0
220
-1.0
230
0.0
  0
LWPOLYLINE
  5
1478
330
1F
100
AcDbEntity
  8
0
  6
Continuous
 62
     7
370
    15
100
AcDbPolyline
 90
        3
 70
   128
 43
0.0
 38
-0.0000000145908932
 10
3.852457972573931
 20
5.727960611229641
 10
3.844080894755126
 20
5.732749831762126
 10
3.836018316652575
 20
5.737360937533671
210
0.0
220
-1.0
230
0.0
  0
LWPOLYLINE
  5
1479
330
1F
100
AcDbEntity
  8
0
  6
Continuous
 62
     7
370
    15
100
AcDbPolyline
 90
        3
 70
   128
 43
0.0
 38
-0.0000000145908932
 10
3.837070481552606
 20
5.77951540783491
 10
3.845742342860039
 20
5.784617262160575
 10
3.854417278086988
 20
5.789719127271923
210
0.0
220
-1.0
230
0.0
  0
LWPOLYLINE
  5
147A
330
1F
100
AcDbEntity
  8
0
  6
Continuous
 62
     7
370
    15
100
AcDbPolyline
 90
        3
 70
   128
 43
0.0
 38
-0.0000000145908932
 10
3.836416071052109
 20
5.758644616040337
 10
3.845091308278168
 20
5.763739103744848
 10
3.853769630209425
 20
5.768833634592091
210
0.0
220
-1.0
230
0.0
  0
LWPOLYLINE
  5
147B
330
1F
100
AcDbEntity
  8
0
  6
Continuous
 62
     7
370
    15
100
AcDbPolyline
 90
        3
 70
   128
 43
0.0
 38
-0.0000000145908932
 10
3.835755221499155
 20
5.7377718288945
 10
3.84443538778212
 20
5.74285964026154
 10
3.85311867112733
 20
5.747947462414261
210
0.0
220
-1.0
230
0.0
  0
LINE
  5
147C
330
1F
100
AcDbEntity
  8
0
  6
Continuous
 62
     7
370
    15
100
AcDbLine
 10
3.811880822054043
 20
0.0000000145908932
 30
5.805153153120429
 11
3.810804130511989
 21
0.0000000145908932
 31
5.805153153120429
210
0.0
220
-1.0
230
0.0
  0
LINE
  5
147D
330
1F
100
AcDbEntity
  8
0
  6
Continuous
 62
     7
370
    15
100
AcDbLine
 10
3.811880822054043
 20
0.0000000145908932
 30
5.828685824393796
 11
3.811880822054043
 21
0.0000000145908932
 31
5.805153153120429
210
0.0
220
-1.0
230
0.0
  0
LINE
  5
147E
330
1F
100
AcDbEntity
  8
0
  6
Continuous
 62
     7
370
    15
100
AcDbLine
 10
3.811880822054043
 20
0.0000000145908932
 30
5.828685824393796
 11
3.810804130511989
 21
0.0000000145908932
 31
5.828685824393796
210
0.0
220
-1.0
230
0.0
  0
ARC
  5
147F
330
1F
100
AcDbEntity
  8
0
  6
Continuous
 62
     7
370
    15
100
AcDbCircle
 10
3.809091750368111
 20
5.828895071473039
 30
-0.0000000145908932
 40
0.0027969099394582
210
0.0
220
-1.0
230
0.0
100
AcDbArc
 50
355.7094840655612
 51
85.04486024928403
  0
LINE
  5
1480
330
1F
100
AcDbEntity
  8
0
  6
Continuous
 62
     7
370
    15
100
AcDbLine
 10
3.810804130511989
 20
0.0000000145908932
 30
5.805153153120429
 11
3.810804130511989
 21
0.0000000145908932
 31
5.828685824393796
210
0.0
220
-1.0
230
0.0
  0
LWPOLYLINE
  5
1481
330
1F
100
AcDbEntity
  8
0
  6
Continuous
 62
     7
370
    15
100
AcDbPolyline
 90
        9
 70
   128
 43
0.0
 38
-0.0000000145908932
 10
3.809333335523931
 20
5.83162740358423
 10
3.809620272428535
 20
5.831570886607889
 10
3.809896186365616
 20
5.831403492815362
 10
3.810150464223586
 20
5.831131661259111
 10
3.810373344959775
 20
5.830765837872642
 10
3.810556253956588
 20
5.830320076400264
 10
3.810692169734714
 20
5.829811515291484
 10
3.810775866630977
 20
5.829259698203004
 10
3.810804130511989
 20
5.828685824393796
210
0.0
220
-1.0
230
0.0
  0
LINE
  5
1482
330
1F
100
AcDbEntity
  8
0
  6
Continuous
 62
     7
370
    15
100
AcDbLine
 10
3.836014358307095
 20
0.0000000145908932
 30
5.737233235052775
 11
3.836036210099856
 21
0.0000000145908932
 31
5.737936526266399
210
0.0
220
-1.0
230
0.0
  0
LINE
  5
1483
330
1F
100
AcDbEntity
  8
0
  6
Continuous
 62
     7
370
    15
100
AcDbLine
 10
3.836662545468783
 20
0.0000000145908932
 30
5.758091019314244
 11
3.836684656117925
 21
0.0000000145908932
 31
5.758802345861335
210
0.0
220
-1.0
230
0.0
  0
LINE
  5
1484
330
1F
100
AcDbEntity
  8
0
  6
Continuous
 62
     7
370
    15
100
AcDbLine
 10
3.837312307340119
 20
0.0000000145908932
 30
5.778999075641882
 11
3.837333156064408
 21
0.0000000145908932
 31
5.779669945093886
210
0.0
220
-1.0
230
0.0
  0
LINE
  5
1485
330
1F
100
AcDbEntity
  8
0
  6
Continuous
 62
     7
370
    15
100
AcDbLine
 10
3.837959523790383
 20
0.0000000145908932
 30
5.799825462781569
 11
3.83798165601089
 21
0.0000000145908932
 31
5.800537808575658
210
0.0
220
-1.0
230
0.0
  0
LINE
  5
1486
330
1F
100
AcDbEntity
  8
0
  6
Continuous
 62
     7
370
    15
100
AcDbLine
 10
3.837729152397692
 20
0.0000000145908932
 30
5.800388993121253
 11
3.844703573777684
 21
0.0000000145908932
 31
5.804499427510772
210
0.0
220
-1.0
230
0.0
  0
LINE
  5
1487
330
1F
100
AcDbEntity
  8
0
  6
Continuous
 62
     7
370
    15
100
AcDbLine
 10
3.869305877363902
 20
0.0000000145908932
 30
5.805153153120429
 11
3.868911779310738
 21
0.0000000145908932
 31
5.805153153120429
210
0.0
220
-1.0
230
0.0
  0
LINE
  5
1488
330
1F
100
AcDbEntity
  8
0
  6
Continuous
 62
     7
370
    15
100
AcDbLine
 10
3.869305877363902
 20
0.0000000145908932
 30
5.828685824393796
 11
3.869305877363902
 21
0.0000000145908932
 31
5.805153153120429
210
0.0
220
-1.0
230
0.0
  0
LINE
  5
1489
330
1F
100
AcDbEntity
  8
0
  6
Continuous
 62
     7
370
    15
100
AcDbLine
 10
3.869305877363902
 20
0.0000000145908932
 30
5.828685824393796
 11
3.868911779310738
 21
0.0000000145908932
 31
5.828685824393796
210
0.0
220
-1.0
230
0.0
  0
ARC
  5
148A
330
1F
100
AcDbEntity
  8
0
  6
Continuous
 62
     7
370
    15
100
AcDbCircle
 10
3.866364294757253
 20
5.828685822279457
 30
-0.0000000145908932
 40
0.0029415837559709
210
0.0
220
-1.0
230
0.0
100
AcDbArc
 50
0.0
 51
90.0
  0
ARC
  5
148B
330
1F
100
AcDbEntity
  8
0
  6
Continuous
 62
     7
370
    15
100
AcDbCircle
 10
3.866122694127564
 20
5.828895058172659
 30
-0.0000000145908932
 40
0.0027969224038613
210
0.0
220
-1.0
230
0.0
100
AcDbArc
 50
355.7097764498035
 51
85.044493966235
  0
LINE
  5
148C
330
1F
100
AcDbEntity
  8
0
  6
Continuous
 62
     7
370
    15
100
AcDbLine
 10
3.868911779310738
 20
0.0000000145908932
 30
5.805153153120429
 11
3.868911779310738
 21
0.0000000145908932
 31
5.828685824393796
210
0.0
220
-1.0
230
0.0
  0
LINE
  5
148D
330
1F
100
AcDbEntity
  8
0
  6
Continuous
 62
     7
370
    15
100
AcDbLine
 10
3.866364298173468
 20
0.0000000145908932
 30
5.85221849297074
 11
3.809333335523931
 21
0.0000000145908932
 31
5.85221849297074
210
0.0
220
-1.0
230
0.0
  0
LINE
  5
148E
330
1F
100
AcDbEntity
  8
0
  6
Continuous
 62
     7
370
    15
100
AcDbLine
 10
3.868911779310738
 20
0.0000000145908932
 30
5.878692746130962
 11
3.811880822054043
 21
0.0000000145908932
 31
5.878692746130962
210
0.0
220
-1.0
230
0.0
  0
LINE
  5
148F
330
1F
100
AcDbEntity
  8
0
  6
Continuous
 62
     7
370
    15
100
AcDbLine
 10
3.811880822054043
 20
0.0000000145908932
 30
5.855160074857596
 11
3.868911779310738
 21
0.0000000145908932
 31
5.855160074857596
210
0.0
220
-1.0
230
0.0
  0
ARC
  5
1490
330
1F
100
AcDbEntity
  8
0
  6
Continuous
 62
     7
370
    15
100
AcDbCircle
 10
3.809091746388623
 20
5.854950830480405
 30
-0.0000000145908932
 40
0.0027969137056448
210
0.0
220
-1.0
230
0.0
100
AcDbArc
 50
274.9552148887419
 51
4.290454638142522
  0
LINE
  5
1491
330
1F
100
AcDbEntity
  8
0
  6
Continuous
 62
     7
370
    15
100
AcDbLine
 10
3.810804130511989
 20
0.0000000145908932
 30
5.878692746130962
 11
3.811880822054043
 21
0.0000000145908932
 31
5.878692746130962
210
0.0
220
-1.0
230
0.0
  0
LINE
  5
1492
330
1F
100
AcDbEntity
  8
0
  6
Continuous
 62
     7
370
    15
100
AcDbLine
 10
3.810804130511989
 20
0.0000000145908932
 30
5.855160074857596
 11
3.811880822054043
 21
0.0000000145908932
 31
5.855160074857596
210
0.0
220
-1.0
230
0.0
  0
LINE
  5
1493
330
1F
100
AcDbEntity
  8
0
  6
Continuous
 62
     7
370
    15
100
AcDbLine
 10
3.811880822054043
 20
0.0000000145908932
 30
5.878692746130962
 11
3.811880822054043
 21
0.0000000145908932
 31
5.855160074857596
210
0.0
220
-1.0
230
0.0
  0
LWPOLYLINE
  5
1494
330
1F
100
AcDbEntity
  8
0
  6
Continuous
 62
     7
370
    15
100
AcDbPolyline
 90
        9
 70
   128
 43
0.0
 38
-0.0000000145908932
 10
3.810804130511989
 20
5.855160074857596
 10
3.810775866630977
 20
5.854586201048388
 10
3.810692169734714
 20
5.854034381263487
 10
3.810556253956588
 20
5.853525820154706
 10
3.810373344959775
 20
5.853080061378749
 10
3.810150464223586
 20
5.852714237992282
 10
3.809896186365616
 20
5.85244240643603
 10
3.809620272428535
 20
5.852275015339925
 10
3.809333335523931
 20
5.852218492970741
210
0.0
220
-1.0
230
0.0
  0
LINE
  5
1495
330
1F
100
AcDbEntity
  8
0
  6
Continuous
 62
     7
370
    15
100
AcDbLine
 10
3.810804130511989
 20
0.0000000145908932
 30
5.855160074857596
 11
3.810804130511989
 21
0.0000000145908932
 31
5.878692746130962
210
0.0
220
-1.0
230
0.0
  0
LINE
  5
1496
330
1F
100
AcDbEntity
  8
0
  6
Continuous
 62
     7
370
    15
100
AcDbLine
 10
3.868911779310738
 20
0.0000000145908932
 30
5.878692746130962
 11
3.869305877363902
 21
0.0000000145908932
 31
5.878692746130962
210
0.0
220
-1.0
230
0.0
  0
LINE
  5
1497
330
1F
100
AcDbEntity
  8
0
  6
Continuous
 62
     7
370
    15
100
AcDbLine
 10
3.869305877363902
 20
0.0000000145908932
 30
5.878692746130962
 11
3.869305877363902
 21
0.0000000145908932
 31
5.855160074857596
210
0.0
220
-1.0
230
0.0
  0
LINE
  5
1498
330
1F
100
AcDbEntity
  8
0
  6
Continuous
 62
     7
370
    15
100
AcDbLine
 10
3.868911779310738
 20
0.0000000145908932
 30
5.855160074857596
 11
3.869305877363902
 21
0.0000000145908932
 31
5.855160074857596
210
0.0
220
-1.0
230
0.0
  0
ARC
  5
1499
330
1F
100
AcDbEntity
  8
0
  6
Continuous
 62
     7
370
    15
100
AcDbCircle
 10
3.866364294757253
 20
5.855160076083195
 30
-0.0000000145908932
 40
0.002941583755971
210
0.0
220
-1.0
230
0.0
100
AcDbArc
 50
270.0000000000008
 51
0.0
  0
ARC
  5
149A
330
1F
100
AcDbEntity
  8
0
  6
Continuous
 62
     7
370
    15
100
AcDbCircle
 10
3.866122690148002
 20
5.854950843780861
 30
-0.0000000145908932
 40
0.0027969261701321
210
0.0
220
-1.0
230
0.0
100
AcDbArc
 50
274.9555811723915
 51
4.290162252912688
  0
LINE
  5
149B
330
1F
100
AcDbEntity
  8
0
  6
Continuous
 62
     7
370
    15
100
AcDbLine
 10
3.868911779310738
 20
0.0000000145908932
 30
5.855160074857596
 11
3.868911779310738
 21
0.0000000145908932
 31
5.878692746130962
210
0.0
220
-1.0
230
0.0
  0
LINE
  5
149C
330
1F
100
AcDbEntity
  8
0
  6
Continuous
 62
     7
370
    15
100
AcDbLine
 10
3.777267932854644
 20
0.0000000145908932
 30
9.578734236676524
 11
3.777267932854644
 21
0.0000000145908932
 31
9.476249726158816
210
0.0
220
-1.0
230
0.0
  0
LINE
  5
149E
330
1F
100
AcDbEntity
  8
0
  6
Continuous
 62
     7
370
    15
100
AcDbLine
 10
3.681893367354568
 20
0.0000000145908932
 30
9.578734236676526
 11
3.681893367354568
 21
0.0000000145908932
 31
9.476249726158816
210
0.0
220
-1.0
230
0.0
  0
ARC
  5
149F
330
1F
100
AcDbEntity
  8
0
  6
Continuous
 62
     7
370
    15
100
AcDbCircle
 10
3.706572983591344
 20
9.452170286050656
 30
-0.0000000145908932
 40
0.0027752966874298
210
0.0
220
-1.0
230
0.0
100
AcDbArc
 50
94.15717563494808
 51
163.7820517731729
  0
LINE
  5
14A0
330
1F
100
AcDbEntity
  8
0
  6
Continuous
 62
     7
370
    15
100
AcDbLine
 10
3.623611448890694
 20
0.0000000145908932
 30
9.432866087121907
 11
3.831300346338739
 21
0.0000000145908932
 31
9.432866087121907
210
0.0
220
-1.0
230
0.0
  0
LINE
  5
14A1
330
1F
100
AcDbEntity
  8
0
  6
Continuous
 62
     7
370
    15
100
AcDbLine
 10
3.83941956006014
 20
0.0000000145908932
 30
9.423635268604174
 11
3.615153047025777
 21
0.0000000145908932
 31
9.423635268604174
210
0.0
220
-1.0
230
0.0
  0
LINE
  5
14A2
330
1F
100
AcDbEntity
  8
0
  6
Continuous
 62
     7
370
    15
100
AcDbLine
 10
3.67360473752517
 20
0.0000000145908932
 30
9.476249726158816
 11
3.767786266325977
 21
0.0000000145908932
 31
9.476249726158816
210
0.0
220
-1.0
230
0.0
  0
LINE
  5
14A3
330
1F
100
AcDbEntity
  8
0
  6
Continuous
 62
     7
370
    15
100
AcDbLine
 10
3.771620083012633
 20
0.0000000145908932
 30
9.47087931912438
 11
3.667987726645872
 21
0.0000000145908932
 31
9.47087931912438
210
0.0
220
-1.0
230
0.0
  0
LWPOLYLINE
  5
14A4
330
1F
100
AcDbEntity
  8
0
  6
Continuous
 62
     7
370
    15
100
AcDbPolyline
 90
        6
 70
   128
 43
0.0
 38
-0.0000000145908932
 10
3.701594171453392
 20
9.45070612370307
 10
3.702274098182282
 20
9.453612563139892
 10
3.703376934218736
 20
9.455427664077815
 10
3.704979462836527
 20
9.45671159172358
 10
3.70662942688599
 20
9.45716303725064
 10
3.706871616690289
 20
9.457170285229283
210
0.0
220
-1.0
230
0.0
  0
ARC
  5
14A5
330
1F
100
AcDbEntity
  8
0
  6
Continuous
 62
     7
370
    15
100
AcDbCircle
 10
-30.69855834486851
 20
27.56753084228167
 30
-0.0000000145908932
 40
38.88144761532231
210
0.0
220
-1.0
230
0.0
100
AcDbArc
 50
332.2091121719465
 51
332.235222719388
  0
LINE
  5
14A6
330
1F
100
AcDbEntity
  8
0
  6
Continuous
 62
     7
370
    15
100
AcDbLine
 10
3.691287988032553
 20
0.0000000145908932
 30
9.433025887793947
 11
3.709731484898252
 21
0.0000000145908932
 31
9.433025887793947
210
0.0
220
-1.0
230
0.0
  0
LINE
  5
14A7
330
1F
100
AcDbEntity
  8
0
  6
Continuous
 62
     7
370
    15
100
AcDbLine
 10
3.839594417544961
 20
0.0000000145908932
 30
9.408593296921994
 11
3.614858878321052
 21
0.0000000145908932
 31
9.408593296921994
210
0.0
220
-1.0
230
0.0
  0
LINE
  5
14A8
330
1F
100
AcDbEntity
  8
0
  6
Continuous
 62
     7
370
    15
100
AcDbLine
 10
3.665433110779621
 20
0.0000000145908932
 30
9.452870853325173
 11
3.638974467198409
 21
0.0000000145908932
 31
9.436830731440965
210
0.0
220
-1.0
230
0.0
  0
LINE
  5
14A9
330
1F
100
AcDbEntity
  8
0
  6
Continuous
 62
     7
370
    15
100
AcDbLine
 10
3.673469733137217
 20
0.0000000145908932
 30
9.450808630829625
 11
3.652944843573519
 21
0.0000000145908932
 31
9.436830731440965
210
0.0
220
-1.0
230
0.0
  0
LWPOLYLINE
  5
14AA
330
1F
100
AcDbEntity
  8
0
  6
Continuous
 62
     7
370
    15
100
AcDbPolyline
 90
        4
 70
   128
 43
0.0
 38
-0.0000000145908932
 10
3.668797283796406
 20
9.454890278232531
 10
3.666217451004451
 20
9.453191144952934
 10
3.661696443431737
 20
9.450213606297018
 10
3.644994706211116
 20
9.439213245564275
210
0.0
220
-1.0
230
0.0
  0
LWPOLYLINE
  5
14AB
330
1F
100
AcDbEntity
  8
0
  6
Continuous
 62
     7
370
    15
100
AcDbPolyline
 90
        4
 70
   128
 43
0.0
 38
-0.0000000145908932
 10
3.650271256236364
 20
9.439213245564275
 10
3.654644974528748
 20
9.442191129362032
 10
3.670803906098626
 20
9.453191144952934
 10
3.673300548921394
 20
9.454890278232531
210
0.0
220
-1.0
230
0.0
  0
LINE
  5
14AC
330
1F
100
AcDbEntity
  8
0
  6
Continuous
 62
     7
370
    15
100
AcDbLine
 10
3.652944843573519
 20
0.0000000145908932
 30
9.436830731440965
 11
3.668249770195247
 21
0.0000000145908932
 31
9.438348320112585
210
0.0
220
-1.0
230
0.0
  0
LWPOLYLINE
  5
14AD
330
1F
100
AcDbEntity
  8
0
  6
Continuous
 62
     7
370
    15
100
AcDbPolyline
 90
        3
 70
   128
 43
0.0
 38
-0.0000000145908932
 10
3.669865325221088
 20
9.435571654007699
 10
3.664739251645351
 20
9.435063950360677
 10
3.644803945237435
 20
9.43308387162311
210
0.0
220
-1.0
230
0.0
  0
LWPOLYLINE
  5
14AE
330
1F
100
AcDbEntity
  8
0
  6
Continuous
 62
     7
370
    15
100
AcDbPolyline
 90
        3
 70
   128
 43
0.0
 38
-0.0000000145908932
 10
3.66473236498707
 20
9.455231968654386
 10
3.650094845613261
 20
9.446359752508682
 10
3.638273365478335
 20
9.439191156486498
210
0.0
220
-1.0
230
0.0
  0
LINE
  5
14AF
330
1F
100
AcDbEntity
  8
0
  6
Continuous
 62
     7
370
    15
100
AcDbLine
 10
3.668480060695319
 20
0.0000000145908932
 30
9.454773275148684
 11
3.644723241368069
 21
0.0000000145908932
 31
9.439132827515495
210
0.0
220
-1.0
230
0.0
  0
LWPOLYLINE
  5
14B0
330
1F
100
AcDbEntity
  8
0
  6
Continuous
 62
     7
370
    15
100
AcDbPolyline
 90
        9
 70
   128
 43
0.0
 38
-0.0000000145908932
 10
3.638974467198409
 20
9.436830731440965
 10
3.63872965377684
 20
9.437298743776358
 10
3.638522083316972
 20
9.437745012175812
 10
3.638358993011767
 20
9.43815400525652
 10
3.63824607770159
 20
9.438511572203028
 10
3.638187263374873
 20
9.438805287909089
 10
3.638184620882659
 20
9.439024798119492
 10
3.638238214939041
 20
9.439162164571917
 10
3.63827286933694
 20
9.43919184677018
210
0.0
220
-1.0
230
0.0
  0
LINE
  5
14B1
330
1F
100
AcDbEntity
  8
0
  6
Continuous
 62
     7
370
    15
100
AcDbLine
 10
3.638974467198409
 20
0.0000000145908932
 30
9.436830731440965
 11
3.641467836566537
 21
0.0000000145908932
 31
9.437055418778973
210
0.0
220
-1.0
230
0.0
  0
ARC
  5
14B2
330
1F
100
AcDbEntity
  8
0
  6
Continuous
 62
     7
370
    15
100
AcDbCircle
 10
3.537303462051464
 20
9.721329734606755
 30
-0.0000000145908932
 40
0.3021203006914937
210
0.0
220
-1.0
230
0.0
100
AcDbArc
 50
287.5395902811105
 51
289.665293266456
  0
LWPOLYLINE
  5
14B3
330
1F
100
AcDbEntity
  8
0
  6
Continuous
 62
     7
370
    15
100
AcDbPolyline
 90
        3
 70
   128
 43
0.0
 38
-0.0000000145908932
 10
3.644722648155531
 20
9.439133172657336
 10
3.644773788469143
 20
9.439162164571917
 10
3.644994706211116
 20
9.439213245564275
210
0.0
220
-1.0
230
0.0
  0
ARC
  5
14B4
330
1F
100
AcDbEntity
  8
0
  6
Continuous
 62
     7
370
    15
100
AcDbCircle
 10
3.555502990033498
 20
9.573290702741522
 30
-0.0000000145908932
 40
0.1576063462274886
210
0.0
220
-1.0
230
0.0
100
AcDbArc
 50
297.1203355998371
 51
301.7109106342116
  0
ARC
  5
14B5
330
1F
100
AcDbEntity
  8
0
  6
Continuous
 62
     7
370
    15
100
AcDbCircle
 10
3.648870441682329
 20
9.435103115757531
 30
-0.0000000145908932
 40
0.0044255402744274
210
0.0
220
-1.0
230
0.0
100
AcDbArc
 50
22.9777703020343
 51
71.5468200950706
  0
ARC
  5
14B6
330
1F
100
AcDbEntity
  8
0
  6
Continuous
 62
     7
370
    15
100
AcDbCircle
 10
3.613420899697088
 20
9.481198503005158
 30
-0.0000000145908932
 40
0.0525325337306565
210
0.0
220
-1.0
230
0.0
100
AcDbArc
 50
293.0915524229584
 51
306.9439442234598
  0
ARC
  5
14B7
330
1F
100
AcDbEntity
  8
0
  6
Continuous
 62
     7
370
    15
100
AcDbCircle
 10
3.661453016775208
 20
9.419161066291595
 30
-0.0000000145908932
 40
0.0229591302607853
210
0.0
220
-1.0
230
0.0
100
AcDbArc
 50
119.1454878105706
 51
142.4240037218723
  0
LWPOLYLINE
  5
14B8
330
1F
100
AcDbEntity
  8
0
  6
Continuous
 62
     7
370
    15
100
AcDbPolyline
 90
        8
 70
   128
 43
0.0
 38
-0.0000000145908932
 10
3.652944843573519
 20
9.436830731440965
 10
3.647488356006988
 20
9.434635974478757
 10
3.645306277614568
 20
9.433622292893913
 10
3.644676226578016
 20
9.433222273501055
 10
3.644629966785739
 20
9.4331497937146
 10
3.644644877991806
 20
9.433111828112171
 10
3.644723047225784
 20
9.433086977899674
 10
3.644803945237435
 20
9.43308387162311
210
0.0
220
-1.0
230
0.0
  0
ARC
  5
14B9
330
1F
100
AcDbEntity
  8
0
  6
Continuous
 62
     7
370
    15
100
AcDbCircle
 10
3.64286930130186
 20
9.46341077151551
 30
-0.0000000145908932
 40
0.0303885456091784
210
0.0
220
-1.0
230
0.0
100
AcDbArc
 50
270.7307545289975
 51
273.6501235950062
  0
LINE
  5
14BA
330
1F
100
AcDbEntity
  8
0
  6
Continuous
 62
     7
370
    15
100
AcDbLine
 10
3.634024237997443
 20
0.0000000145908932
 30
9.433025887793947
 11
3.643256868509838
 21
0.0000000145908932
 31
9.433025887793947
210
0.0
220
-1.0
230
0.0
  0
LINE
  5
14BB
330
1F
100
AcDbEntity
  8
0
  6
Continuous
 62
     7
370
    15
100
AcDbLine
 10
3.633943237521808
 20
0.0000000145908932
 30
9.43308387162311
 11
3.634108312392594
 21
0.0000000145908932
 31
9.433100093289603
210
0.0
220
-1.0
230
0.0
  0
LINE
  5
14BC
330
1F
100
AcDbEntity
  8
0
  6
Continuous
 62
     7
370
    15
100
AcDbLine
 10
3.63603587564203
 20
0.0000000145908932
 30
9.433952938776885
 11
3.623611448890694
 21
0.0000000145908932
 31
9.432866087121907
210
0.0
220
-1.0
230
0.0
  0
ARC
  5
14BD
330
1F
100
AcDbEntity
  8
0
  6
Continuous
 62
     7
370
    15
100
AcDbCircle
 10
3.624419030828645
 20
9.423635208919606
 30
-0.0000000145908932
 40
0.0092659888313087
210
0.0
220
-1.0
230
0.0
100
AcDbArc
 50
94.9999999999978
 51
180.0000000000004
  0
LINE
  5
14BE
330
1F
100
AcDbEntity
  8
0
  6
Continuous
 62
     7
370
    15
100
AcDbLine
 10
3.615153047025777
 20
0.0000000145908932
 30
9.423635268604174
 11
3.615153047025777
 21
0.0000000145908932
 31
9.408593296921994
210
0.0
220
-1.0
230
0.0
  0
LWPOLYLINE
  5
14BF
330
1F
100
AcDbEntity
  8
0
  6
Continuous
 62
     7
370
    15
100
AcDbPolyline
 90
        9
 70
   128
 43
0.0
 38
-0.0000000145908932
 10
3.665433110779621
 20
9.452870853325173
 10
3.665189284248002
 20
9.453337139951364
 10
3.664982366321925
 20
9.45378202778346
 10
3.664819529480258
 20
9.454189985438644
 10
3.664706398456431
 20
9.454547207243314
 10
3.664646883060351
 20
9.454840922949375
 10
3.66464304875022
 20
9.455061123443459
 10
3.664695024954226
 20
9.455200215605084
 10
3.664731971309658
 20
9.455232658938067
210
0.0
220
-1.0
230
0.0
  0
ARC
  5
14C0
330
1F
100
AcDbEntity
  8
0
  6
Continuous
 62
     7
370
    15
100
AcDbCircle
 10
3.672563922979717
 20
9.452947625406587
 30
-0.0000000145908932
 40
0.0071312254616946
210
0.0
220
-1.0
230
0.0
100
AcDbArc
 50
161.7743315501115
 51
180.6168366496017
  0
LINE
  5
14C1
330
1F
100
AcDbEntity
  8
0
  6
Continuous
 62
     7
370
    15
100
AcDbLine
 10
3.665590624886969
 20
0.0000000145908932
 30
9.452870853325173
 11
3.665433110779621
 21
0.0000000145908932
 31
9.452870853325173
210
0.0
220
-1.0
230
0.0
  0
LWPOLYLINE
  5
14C2
330
1F
100
AcDbEntity
  8
0
  6
Continuous
 62
     7
370
    15
100
AcDbPolyline
 90
        3
 70
   128
 43
0.0
 38
-0.0000000145908932
 10
3.667987726645872
 20
9.47087931912438
 10
3.667227864527493
 20
9.470901063060317
 10
3.667235554719121
 20
9.470900717918477
210
0.0
220
-1.0
230
0.0
  0
ARC
  5
14C3
330
1F
100
AcDbEntity
  8
0
  6
Continuous
 62
     7
370
    15
100
AcDbCircle
 10
3.702677074987138
 20
9.474412435061621
 30
-0.0000000145908932
 40
0.0237310319685434
210
0.0
220
-1.0
230
0.0
100
AcDbArc
 50
267.3845488248357
 51
270.1041253881231
  0
LWPOLYLINE
  5
14C4
330
1F
100
AcDbEntity
  8
0
  6
Continuous
 62
     7
370
    15
100
AcDbPolyline
 90
        4
 70
   128
 43
0.0
 38
-0.0000000145908932
 10
3.667987726645872
 20
9.47087931912438
 10
3.666771883620939
 20
9.457946509228027
 10
3.666408433084622
 20
9.454073327496637
 10
3.666342128101403
 20
9.453365786724106
210
0.0
220
-1.0
230
0.0
  0
LWPOLYLINE
  5
14C5
330
1F
100
AcDbEntity
  8
0
  6
Continuous
 62
     7
370
    15
100
AcDbPolyline
 90
        5
 70
   128
 43
0.0
 38
-0.0000000145908932
 10
3.668406475376407
 20
9.455078380535472
 10
3.668513253633237
 20
9.455427664077815
 10
3.669256273908378
 20
9.45671159172358
 10
3.669998296507889
 20
9.45716303725064
 10
3.670106304332525
 20
9.457170285229283
210
0.0
220
-1.0
230
0.0
  0
LINE
  5
14C6
330
1F
100
AcDbEntity
  8
0
  6
Continuous
 62
     7
370
    15
100
AcDbLine
 10
3.676894942331315
 20
0.0000000145908932
 30
9.443994840619228
 11
3.699133312828764
 21
0.0000000145908932
 31
9.443994840619228
210
0.0
220
-1.0
230
0.0
  0
LINE
  5
14C7
330
1F
100
AcDbEntity
  8
0
  6
Continuous
 62
     7
370
    15
100
AcDbLine
 10
3.701422269245578
 20
0.0000000145908932
 30
9.448295998232537
 11
3.701594171453392
 21
0.0000000145908932
 31
9.45070612370307
210
0.0
220
-1.0
230
0.0
  0
ARC
  5
14C8
330
1F
100
AcDbEntity
  8
0
  6
Continuous
 62
     7
370
    15
100
AcDbCircle
 10
3.698001716608494
 20
9.436917316019551
 30
-0.0000000145908932
 40
0.0022986745146753
210
0.0
220
-1.0
230
0.0
100
AcDbArc
 50
87.19965902912247
 51
149.9336650765515
  0
LINE
  5
14C9
330
1F
100
AcDbEntity
  8
0
  6
Continuous
 62
     7
370
    15
100
AcDbLine
 10
3.67360473752517
 20
0.0000000145908932
 30
9.476249726158816
 11
3.673086685015782
 21
0.0000000145908932
 31
9.476249726158816
210
0.0
220
-1.0
230
0.0
  0
ARC
  5
14CA
330
1F
100
AcDbEntity
  8
0
  6
Continuous
 62
     7
370
    15
100
AcDbCircle
 10
3.667122824419564
 20
9.457357177180416
 30
-0.0000000145908932
 40
0.002989327849608
210
0.0
220
-1.0
230
0.0
100
AcDbArc
 50
304.0658799268126
 51
356.4155460037826
  0
ARC
  5
14CB
330
1F
100
AcDbEntity
  8
0
  6
Continuous
 62
     7
370
    15
100
AcDbCircle
 10
3.671466154673888
 20
9.457310490439554
 30
-0.0000000145908932
 40
0.003049659924647
210
0.0
220
-1.0
230
0.0
100
AcDbArc
 50
306.977962726696
 51
357.3649523087655
  0
ARC
  5
14CC
330
1F
100
AcDbEntity
  8
0
  6
Continuous
 62
     7
370
    15
100
AcDbCircle
 10
3.676189286284738
 20
9.480045208608608
 30
-0.0000000145908932
 40
0.0293627902207661
210
0.0
220
-1.0
230
0.0
100
AcDbArc
 50
264.6857040072597
 51
271.9835921400874
  0
ARC
  5
14CD
330
1F
100
AcDbEntity
  8
0
  6
Continuous
 62
     7
370
    15
100
AcDbCircle
 10
3.668791541482877
 20
9.454469917597214
 30
-0.0000000145908932
 40
0.000420562349575
210
0.0
220
-1.0
230
0.0
100
AcDbArc
 50
89.21766521931409
 51
136.1644604563588
  0
ARC
  5
14CE
330
1F
100
AcDbEntity
  8
0
  6
Continuous
 62
     7
370
    15
100
AcDbCircle
 10
3.6758862668444
 20
9.47346255311208
 30
-0.0000000145908932
 40
0.0294909453139764
210
0.0
220
-1.0
230
0.0
100
AcDbArc
 50
264.7072138210473
 51
271.9600633909641
  0
LINE
  5
14CF
330
1F
100
AcDbEntity
  8
0
  6
Continuous
 62
     7
370
    15
100
AcDbLine
 10
3.673165868103916
 20
0.0000000145908932
 30
9.444097347745783
 11
3.673469733137217
 21
0.0000000145908932
 31
9.450808630829625
210
0.0
220
-1.0
230
0.0
  0
ARC
  5
14D0
330
1F
100
AcDbEntity
  8
0
  6
Continuous
 62
     7
370
    15
100
AcDbCircle
 10
3.667406901325692
 20
9.444003643747264
 30
-0.0000000145908932
 40
0.0057597290554352
210
0.0
220
-1.0
230
0.0
100
AcDbArc
 50
278.4147839681565
 51
0.9321758797759967
  0
LWPOLYLINE
  5
14D1
330
1F
100
AcDbEntity
  8
0
  6
Continuous
 62
     7
370
    15
100
AcDbPolyline
 90
        7
 70
   128
 43
0.0
 38
-0.0000000145908932
 10
3.673300548921394
 20
9.454890278232531
 10
3.673654572771199
 20
9.454778797418127
 10
3.67372471206455
 20
9.454715981603199
 10
3.673979788063025
 20
9.45419447228257
 10
3.674045246370166
 20
9.453367857575147
 10
3.673886222267267
 20
9.4522109421266
 10
3.673469733137217
 20
9.450808630829625
210
0.0
220
-1.0
230
0.0
  0
LINE
  5
14D2
330
1F
100
AcDbEntity
  8
0
  6
Continuous
 62
     7
370
    15
100
AcDbLine
 10
3.673300548921395
 20
0.0000000145908932
 30
9.454890278232531
 11
3.668797283796406
 21
0.0000000145908932
 31
9.454890278232531
210
0.0
220
-1.0
230
0.0
  0
LWPOLYLINE
  5
14D3
330
1F
100
AcDbEntity
  8
0
  6
Continuous
 62
     7
370
    15
100
AcDbPolyline
 90
        9
 70
   128
 43
0.0
 38
-0.0000000145908932
 10
3.668249770195247
 20
9.438348320112587
 10
3.668330172065503
 20
9.437803341146816
 10
3.668457588725812
 20
9.437283212393545
 10
3.668627517153728
 20
9.436806226370306
 10
3.668833960509774
 20
9.436388949885435
 10
3.669069622279735
 20
9.436046224038057
 10
3.669326181309555
 20
9.435790473934423
 10
3.669594572233087
 20
9.435630328120544
 10
3.669865325221088
 20
9.435571654007699
210
0.0
220
-1.0
230
0.0
  0
ARC
  5
14D4
330
1F
100
AcDbEntity
  8
0
  6
Continuous
 62
     7
370
    15
100
AcDbCircle
 10
3.668765825999773
 20
9.443534581682112
 30
-0.0000000145908932
 40
0.0081421355074041
210
0.0
220
-1.0
230
0.0
100
AcDbArc
 50
277.7608280918016
 51
3.240545325241379
  0
ARC
  5
14D5
330
1F
100
AcDbEntity
  8
0
  6
Continuous
 62
     7
370
    15
100
AcDbCircle
 10
3.673729652733361
 20
9.47052739285454
 30
-0.0000000145908932
 40
0.0057527008694705
210
0.0
220
-1.0
230
0.0
100
AcDbArc
 50
91.2442289187218
 51
176.4926929426826
  0
LINE
  5
14D6
330
1F
100
AcDbEntity
  8
0
  6
Continuous
 62
     7
370
    15
100
AcDbLine
 10
3.670106304332525
 20
0.0000000145908932
 30
9.457170285229283
 11
3.674512589993243
 21
0.0000000145908932
 31
9.457170285229283
210
0.0
220
-1.0
230
0.0
  0
LWPOLYLINE
  5
14D7
330
1F
100
AcDbEntity
  8
0
  6
Continuous
 62
     7
370
    15
100
AcDbPolyline
 90
        6
 70
   128
 43
0.0
 38
-0.0000000145908932
 10
3.674512589993243
 20
9.457170285229283
 10
3.675392906613872
 20
9.456871392395618
 10
3.676158118430774
 20
9.456026830312505
 10
3.676752398751288
 20
9.454710114191917
 10
3.677135112516564
 20
9.45288914584271
 10
3.677205629308801
 20
9.45070612370307
210
0.0
220
-1.0
230
0.0
  0
LWPOLYLINE
  5
14D8
330
1F
100
AcDbEntity
  8
0
  6
Continuous
 62
     7
370
    15
100
AcDbPolyline
 90
        3
 70
   128
 43
0.0
 38
-0.0000000145908932
 10
3.677205629308801
 20
9.45070612370307
 10
3.677163716146575
 20
9.44980185208159
 10
3.676894942331315
 20
9.443994840619228
210
0.0
220
-1.0
230
0.0
  0
ARC
  5
14D9
330
1F
100
AcDbEntity
  8
0
  6
Continuous
 62
     7
370
    15
100
AcDbCircle
 10
3.697826677437363
 20
9.437099142803973
 30
-0.0000000145908932
 40
0.0020493352528512
210
0.0
220
-1.0
230
0.0
100
AcDbArc
 50
152.2922416020138
 51
187.5259283840312
  0
LWPOLYLINE
  5
14DA
330
1F
100
AcDbEntity
  8
0
  6
Continuous
 62
     7
370
    15
100
AcDbPolyline
 90
        9
 70
   128
 43
0.0
 38
-0.0000000145908932
 10
3.689896155026136
 20
9.43308387162311
 10
3.689972304641064
 20
9.43308456190679
 10
3.690197353299436
 20
9.433103889849844
 10
3.690426114929013
 20
9.433144271445157
 10
3.690678507988964
 20
9.433208122685604
 10
3.690997974512013
 20
9.433312700663203
 10
3.691860195453813
 20
9.433697188673252
 10
3.693326924239567
 20
9.434611814549939
 10
3.695794995789371
 20
9.436830731440965
210
0.0
220
-1.0
230
0.0
  0
ARC
  5
14DB
330
1F
100
AcDbEntity
  8
0
  6
Continuous
 62
     7
370
    15
100
AcDbCircle
 10
3.687104207037024
 20
9.44429454347993
 30
-0.0000000145908932
 40
0.0121258224390916
210
0.0
220
-1.0
230
0.0
100
AcDbArc
 50
290.1836697758649
 51
335.2255210563605
  0
ARC
  5
14DC
330
1F
100
AcDbEntity
  8
0
  6
Continuous
 62
     7
370
    15
100
AcDbCircle
 10
3.690761796732278
 20
9.439209358350631
 30
-0.0000000145908932
 40
0.0062058186736204
210
0.0
220
-1.0
230
0.0
100
AcDbArc
 50
261.9817382073236
 51
274.8639485585655
  0
LINE
  5
14DD
330
1F
100
AcDbEntity
  8
0
  6
Continuous
 62
     7
370
    15
100
AcDbLine
 10
3.693965266769546
 20
0.0000000145908932
 30
9.435571654007699
 11
3.669865325221088
 21
0.0000000145908932
 31
9.435571654007699
210
0.0
220
-1.0
230
0.0
  0
ARC
  5
14DE
330
1F
100
AcDbEntity
  8
0
  6
Continuous
 62
     7
370
    15
100
AcDbCircle
 10
3.666256647009006
 20
9.452717009635629
 30
-0.0000000145908932
 40
0.0029415837559709
210
0.0
220
-1.0
230
0.0
100
AcDbArc
 50
98.13466864730964
 51
121.2201775875289
  0
LINE
  5
14DF
330
1F
100
AcDbEntity
  8
0
  6
Continuous
 62
     7
370
    15
100
AcDbLine
 10
3.667237404463672
 20
0.0000000145908932
 30
9.470900717918477
 11
3.665585426188001
 21
0.0000000145908932
 31
9.452738318858515
210
0.0
220
-1.0
230
0.0
  0
ARC
  5
14E0
330
1F
100
AcDbEntity
  8
0
  6
Continuous
 62
     7
370
    15
100
AcDbCircle
 10
3.673086643932097
 20
9.470366512171452
 30
-0.0000000145908932
 40
0.0058831675355909
210
0.0
220
-1.0
230
0.0
100
AcDbArc
 50
89.99999878337931
 51
174.8002415656793
  0
LWPOLYLINE
  5
14E1
330
1F
100
AcDbEntity
  8
0
  6
Continuous
 62
     7
370
    15
100
AcDbPolyline
 90
        3
 70
   128
 43
0.0
 38
-0.0000000145908932
 10
3.668721945804086
 20
9.454977253976276
 10
3.668645038494962
 20
9.454899251920377
 10
3.668351748823361
 20
9.45470252107143
210
0.0
220
-1.0
230
0.0
  0
LINE
  5
14E2
330
1F
100
AcDbEntity
  8
0
  6
Continuous
 62
     7
370
    15
100
AcDbLine
 10
3.703884206438456
 20
0.0000000145908932
 30
9.452960245061801
 11
3.696013289914074
 21
0.0000000145908932
 31
9.43804873699524
210
0.0
220
-1.0
230
0.0
  0
LINE
  5
14E3
330
1F
100
AcDbEntity
  8
0
  6
Continuous
 62
     7
370
    15
100
AcDbLine
 10
3.815510252753591
 20
0.0000000145908932
 30
9.436830731440965
 11
3.789522954283666
 21
0.0000000145908932
 31
9.452870853325173
210
0.0
220
-1.0
230
0.0
  0
LWPOLYLINE
  5
14E4
330
1F
100
AcDbEntity
  8
0
  6
Continuous
 62
     7
370
    15
100
AcDbPolyline
 90
        4
 70
   128
 43
0.0
 38
-0.0000000145908932
 10
3.820815109802582
 20
9.439213245564275
 10
3.815904000272073
 20
9.442191129362032
 10
3.796259680792544
 20
9.45410197426938
 10
3.794360284352979
 20
9.455253712590324
210
0.0
220
-1.0
230
0.0
  0
LWPOLYLINE
  5
14E5
330
1F
100
AcDbEntity
  8
0
  6
Continuous
 62
     7
370
    15
100
AcDbPolyline
 90
        4
 70
   128
 43
0.0
 38
-0.0000000145908932
 10
3.791743316456149
 20
9.455253712590324
 10
3.7959128024574
 20
9.452681370454872
 10
3.815214174983061
 20
9.440770180405684
 10
3.817736611765548
 20
9.439213245564275
210
0.0
220
-1.0
230
0.0
  0
LINE
  5
14E6
330
1F
100
AcDbEntity
  8
0
  6
Continuous
 62
     7
370
    15
100
AcDbLine
 10
3.792451326405869
 20
0.0000000145908932
 30
9.438915388156131
 11
3.815510252753591
 21
0.0000000145908932
 31
9.436830731440965
210
0.0
220
-1.0
230
0.0
  0
LWPOLYLINE
  5
14E7
330
1F
100
AcDbEntity
  8
0
  6
Continuous
 62
     7
370
    15
100
AcDbPolyline
 90
        4
 70
   128
 43
0.0
 38
-0.0000000145908932
 10
3.825147880251325
 20
9.43308387162311
 10
3.82016691185521
 20
9.43353566229201
 10
3.797695158063229
 20
9.435570618582178
 10
3.79139662687045
 20
9.436139067193086
210
0.0
220
-1.0
230
0.0
  0
LINE
  5
14E8
330
1F
100
AcDbEntity
  8
0
  6
Continuous
 62
     7
370
    15
100
AcDbLine
 10
3.820886694377388
 20
0.0000000145908932
 30
9.439188740493616
 11
3.794428196402891
 21
0.0000000145908932
 31
9.455230588087028
210
0.0
220
-1.0
230
0.0
  0
ARC
  5
14E9
330
1F
100
AcDbEntity
  8
0
  6
Continuous
 62
     7
370
    15
100
AcDbCircle
 10
3.753305045528951
 20
9.473289544250198
 30
-0.0000000145908932
 40
0.022616574229894
210
0.0
220
-1.0
230
0.0
100
AcDbArc
 50
266.8972757864827
 51
275.9656297615183
  0
ARC
  5
14EA
330
1F
100
AcDbEntity
  8
0
  6
Continuous
 62
     7
370
    15
100
AcDbCircle
 10
3.75325795050547
 20
9.466602964921096
 30
-0.0000000145908932
 40
0.0226407973057188
210
0.0
220
-1.0
230
0.0
100
AcDbArc
 50
266.9215043423053
 51
275.9534662699605
  0
LWPOLYLINE
  5
14EB
330
1F
100
AcDbEntity
  8
0
  6
Continuous
 62
     7
370
    15
100
AcDbPolyline
 90
        6
 70
   128
 43
0.0
 38
-0.0000000145908932
 10
3.752080894276932
 20
9.45070612370307
 10
3.752585774771556
 20
9.453612563139892
 10
3.753590396383091
 20
9.455427664077815
 10
3.755113696073599
 20
9.45671159172358
 10
3.756705072295677
 20
9.45716303725064
 10
3.756939569211927
 20
9.457170285229283
210
0.0
220
-1.0
230
0.0
  0
LWPOLYLINE
  5
14EC
330
1F
100
AcDbEntity
  8
0
  6
Continuous
 62
     7
370
    15
100
AcDbPolyline
 90
        6
 70
   128
 43
0.0
 38
-0.0000000145908932
 10
3.755450398117296
 20
9.435571654007699
 10
3.754151108963219
 20
9.436362028821893
 10
3.753075053776434
 20
9.43811742022145
 10
3.752350099519492
 20
9.440620733988853
 10
3.75204876777337
 20
9.443564793886262
 10
3.752042048293168
 20
9.443994840619228
210
0.0
220
-1.0
230
0.0
  0
LINE
  5
14ED
330
1F
100
AcDbEntity
  8
0
  6
Continuous
 62
     7
370
    15
100
AcDbLine
 10
3.755450398117296
 20
0.0000000145908932
 30
9.435571654007699
 11
3.719490075847629
 21
0.0000000145908932
 31
9.435571654007699
210
0.0
220
-1.0
230
0.0
  0
ARC
  5
14EE
330
1F
100
AcDbEntity
  8
0
  6
Continuous
 62
     7
370
    15
100
AcDbCircle
 10
3.701609510116476
 20
9.457077714097489
 30
-0.0000000145908932
 40
0.0052629207678449
210
0.0
220
-1.0
230
0.0
100
AcDbArc
 50
334.8064307853958
 51
1.007845058002978
  0
ARC
  5
14EF
330
1F
100
AcDbEntity
  8
0
  6
Continuous
 62
     7
370
    15
100
AcDbCircle
 10
3.70752566878529
 20
9.45704788928842
 30
-0.0000000145908932
 40
0.0081490477942032
210
0.0
220
-1.0
230
0.0
100
AcDbArc
 50
344.2227377422078
 51
0.8605955828995786
  0
ARC
  5
14F0
330
1F
100
AcDbEntity
  8
0
  6
Continuous
 62
     7
370
    15
100
AcDbCircle
 10
3.719780359647889
 20
9.467298135433952
 30
-0.0000000145908932
 40
0.016635284876378
210
0.0
220
-1.0
230
0.0
100
AcDbArc
 50
263.0866379797404
 51
274.1335760295572
  0
ARC
  5
14F1
330
1F
100
AcDbEntity
  8
0
  6
Continuous
 62
     7
370
    15
100
AcDbCircle
 10
3.719963594177568
 20
9.460578590499525
 30
-0.0000000145908932
 40
0.0166264792410031
210
0.0
220
-1.0
230
0.0
100
AcDbArc
 50
263.0941183787944
 51
274.1085987941621
  0
LINE
  5
14F2
330
1F
100
AcDbEntity
  8
0
  6
Continuous
 62
     7
370
    15
100
AcDbLine
 10
3.706871616690289
 20
0.0000000145908932
 30
9.457170285229283
 11
3.715673797354837
 21
0.0000000145908932
 31
9.457170285229283
210
0.0
220
-1.0
230
0.0
  0
ARC
  5
14F3
330
1F
100
AcDbEntity
  8
0
  6
Continuous
 62
     7
370
    15
100
AcDbCircle
 10
3.714826346111983
 20
9.45120138745956
 30
-0.0000000145908932
 40
0.0061730169032135
210
0.0
220
-1.0
230
0.0
100
AcDbArc
 50
355.3981894325155
 51
82.10933545885116
  0
LWPOLYLINE
  5
14F4
330
1F
100
AcDbEntity
  8
0
  6
Continuous
 62
     7
370
    15
100
AcDbPolyline
 90
        3
 70
   128
 43
0.0
 38
-0.0000000145908932
 10
3.720979463330017
 20
9.45070612370307
 10
3.721003061729239
 20
9.44980185208159
 10
3.721154833808862
 20
9.443994840619228
210
0.0
220
-1.0
230
0.0
  0
LWPOLYLINE
  5
14F5
330
1F
100
AcDbEntity
  8
0
  6
Continuous
 62
     7
370
    15
100
AcDbPolyline
 90
        3
 70
   128
 43
0.0
 38
-0.0000000145908932
 10
3.752042048293168
 20
9.443994840619228
 10
3.75207598409497
 20
9.449851552506585
 10
3.752080894276932
 20
9.45070612370307
210
0.0
220
-1.0
230
0.0
  0
LINE
  5
14F6
330
1F
100
AcDbEntity
  8
0
  6
Continuous
 62
     7
370
    15
100
AcDbLine
 10
3.721154833808862
 20
0.0000000145908932
 30
9.443994840619228
 11
3.752042048293168
 21
0.0000000145908932
 31
9.443994840619228
210
0.0
220
-1.0
230
0.0
  0
LWPOLYLINE
  5
14F7
330
1F
100
AcDbEntity
  8
0
  6
Continuous
 62
     7
370
    15
100
AcDbPolyline
 90
        6
 70
   128
 43
0.0
 38
-0.0000000145908932
 10
3.721154833808862
 20
9.443994840619228
 10
3.721080376197878
 20
9.441021788807232
 10
3.720777831062474
 20
9.438466358621953
 10
3.72027768413426
 20
9.436607424670315
 10
3.719625990277545
 20
9.435642062943112
 10
3.719490075847629
 20
9.435571654007699
210
0.0
220
-1.0
230
0.0
  0
LINE
  5
14F8
330
1F
100
AcDbEntity
  8
0
  6
Continuous
 62
     7
370
    15
100
AcDbLine
 10
3.717964447123805
 20
0.0000000145908932
 30
9.444097347745783
 11
3.717777997726707
 21
0.0000000145908932
 31
9.450808630829625
210
0.0
220
-1.0
230
0.0
  0
ARC
  5
14F9
330
1F
100
AcDbEntity
  8
0
  6
Continuous
 62
     7
370
    15
100
AcDbCircle
 10
3.711059142397663
 20
9.442488623458464
 30
-0.0000000145908932
 40
0.0070902205320766
210
0.0
220
-1.0
230
0.0
100
AcDbArc
 50
321.8628736122375
 51
13.11424228099023
  0
LINE
  5
14FA
330
1F
100
AcDbEntity
  8
0
  6
Continuous
 62
     7
370
    15
100
AcDbLine
 10
3.717777997726707
 20
0.0000000145908932
 30
9.450808630829625
 11
3.711807437567634
 21
0.0000000145908932
 31
9.436830731440965
210
0.0
220
-1.0
230
0.0
  0
LWPOLYLINE
  5
14FB
330
1F
100
AcDbEntity
  8
0
  6
Continuous
 62
     7
370
    15
100
AcDbPolyline
 90
        7
 70
   128
 43
0.0
 38
-0.0000000145908932
 10
3.715367709122729
 20
9.454890278232531
 10
3.716039996891983
 20
9.454778797418127
 10
3.716192176131121
 20
9.454715981603199
 10
3.716887136753217
 20
9.45419447228257
 10
3.717410374479471
 20
9.453367857575147
 10
3.717733897767353
 20
9.4522109421266
 10
3.717777997726707
 20
9.450808630829625
210
0.0
220
-1.0
230
0.0
  0
LINE
  5
14FC
330
1F
100
AcDbEntity
  8
0
  6
Continuous
 62
     7
370
    15
100
AcDbLine
 10
3.711807437567634
 20
0.0000000145908932
 30
9.436830731440965
 11
3.716635849225723
 21
0.0000000145908932
 31
9.438348320112585
210
0.0
220
-1.0
230
0.0
  0
ARC
  5
14FD
330
1F
100
AcDbEntity
  8
0
  6
Continuous
 62
     7
370
    15
100
AcDbCircle
 10
3.719600995625927
 20
9.438527394865199
 30
-0.0000000145908932
 40
0.0029705489293515
210
0.0
220
-1.0
230
0.0
100
AcDbArc
 50
183.4560791278994
 51
267.8600881350179
  0
LINE
  5
14FE
330
1F
100
AcDbEntity
  8
0
  6
Continuous
 62
     7
370
    15
100
AcDbLine
 10
3.715367709122729
 20
0.0000000145908932
 30
9.454890278232531
 11
3.70637179468076
 21
0.0000000145908932
 31
9.454890278232531
210
0.0
220
-1.0
230
0.0
  0
LWPOLYLINE
  5
14FF
330
1F
100
AcDbEntity
  8
0
  6
Continuous
 62
     7
370
    15
100
AcDbPolyline
 90
        4
 70
   128
 43
0.0
 38
-0.0000000145908932
 10
3.708654690892215
 20
9.439213245564275
 10
3.709928950521821
 20
9.442191129362032
 10
3.714639400518529
 20
9.453191144952934
 10
3.715367709122729
 20
9.454890278232531
210
0.0
220
-1.0
230
0.0
  0
LWPOLYLINE
  5
1500
330
1F
100
AcDbEntity
  8
0
  6
Continuous
 62
     7
370
    15
100
AcDbPolyline
 90
        8
 70
   128
 43
0.0
 38
-0.0000000145908932
 10
3.711807437567634
 20
9.436830731440965
 10
3.710562831823874
 20
9.434635974478757
 10
3.710553445583671
 20
9.433622292893913
 10
3.710919965994871
 20
9.433222273501055
 10
3.711094241052837
 20
9.4331497937146
 10
3.711246572639741
 20
9.433111828112171
 10
3.711453601119063
 20
9.433086977899674
 10
3.711591981425642
 20
9.43308387162311
210
0.0
220
-1.0
230
0.0
  0
ARC
  5
1501
330
1F
100
AcDbEntity
  8
0
  6
Continuous
 62
     7
370
    15
100
AcDbCircle
 10
3.708664008393758
 20
9.435911926938575
 30
-0.0000000145908932
 40
0.0033013317743342
210
0.0
220
-1.0
230
0.0
100
AcDbArc
 50
17.79238191478806
 51
90.1617087464356
  0
LWPOLYLINE
  5
1502
330
1F
100
AcDbEntity
  8
0
  6
Continuous
 62
     7
370
    15
100
AcDbPolyline
 90
        4
 70
   128
 43
0.0
 38
-0.0000000145908932
 10
3.709731484898252
 20
9.433025887793947
 10
3.708865405378535
 20
9.43364265626249
 10
3.708027922747776
 20
9.435407021349896
 10
3.708654690892215
 20
9.439213245564275
210
0.0
220
-1.0
230
0.0
  0
LWPOLYLINE
  5
1503
330
1F
100
AcDbEntity
  8
0
  6
Continuous
 62
     7
370
    15
100
AcDbPolyline
 90
        3
 70
   128
 43
0.0
 38
-0.0000000145908932
 10
3.719490075847629
 20
9.435571654007699
 10
3.717875010896237
 20
9.435063950360677
 10
3.711591981425642
 20
9.43308387162311
210
0.0
220
-1.0
230
0.0
  0
ARC
  5
1504
330
1F
100
AcDbEntity
  8
0
  6
Continuous
 62
     7
370
    15
100
AcDbCircle
 10
3.710048405165191
 20
9.454190724021215
 30
-0.0000000145908932
 40
0.021167208861413
210
0.0
220
-1.0
230
0.0
100
AcDbArc
 50
269.1421225000344
 51
274.1818918127923
  0
LINE
  5
1505
330
1F
100
AcDbEntity
  8
0
  6
Continuous
 62
     7
370
    15
100
AcDbLine
 10
3.791918826474762
 20
0.0000000145908932
 30
9.470900372776638
 11
3.791200899089975
 21
0.0000000145908932
 31
9.47087931912438
210
0.0
220
-1.0
230
0.0
  0
LINE
  5
1506
330
1F
100
AcDbEntity
  8
0
  6
Continuous
 62
     7
370
    15
100
AcDbLine
 10
3.794429388220808
 20
0.0000000145908932
 30
9.455232658938067
 11
3.794360284352979
 21
0.0000000145908932
 31
9.455253712590324
210
0.0
220
-1.0
230
0.0
  0
ELLIPSE
  5
1507
330
1F
100
AcDbEntity
  8
0
  6
Continuous
 62
     7
370
    15
100
AcDbEllipse
 10
3.787036279526763
 20
0.0000000145908932
 30
9.452460633718522
 11
-0.0005356943455416817
 21
0.0
 31
0.00588127936485705
210
0.0
220
-1.0
230
0.0
 40
0.2782188846924817
 41
5.387754715433262
 42
6.25784925658179
  0
LWPOLYLINE
  5
1508
330
1F
100
AcDbEntity
  8
0
  6
Continuous
 62
     7
370
    15
100
AcDbPolyline
 90
        3
 70
   128
 43
0.0
 38
-0.0000000145908932
 10
3.792588309966564
 20
9.455658563968948
 10
3.791463638315872
 20
9.467998420183738
 10
3.791200899089975
 20
9.47087931912438
210
0.0
220
-1.0
230
0.0
  0
LWPOLYLINE
  5
1509
330
1F
100
AcDbEntity
  8
0
  6
Continuous
 62
     7
370
    15
100
AcDbPolyline
 90
        3
 70
   128
 43
0.0
 38
-0.0000000145908932
 10
3.776031731853977
 20
9.444026248526692
 10
3.777704715246333
 20
9.444050753597349
 10
3.779267350320948
 20
9.444234714198208
210
0.0
220
-1.0
230
0.0
  0
LWPOLYLINE
  5
150A
330
1F
100
AcDbEntity
  8
0
  6
Continuous
 62
     7
370
    15
100
AcDbPolyline
 90
        6
 70
   128
 43
0.0
 38
-0.0000000145908932
 10
3.764981452286166
 20
9.457170285229283
 10
3.766361364416992
 20
9.456871392395618
 10
3.767591849005928
 20
9.456026830312505
 10
3.768607720084319
 20
9.454710114191917
 10
3.769384610098957
 20
9.45288914584271
 10
3.769663705812378
 20
9.451392610823344
210
0.0
220
-1.0
230
0.0
  0
LWPOLYLINE
  5
150B
330
1F
100
AcDbEntity
  8
0
  6
Continuous
 62
     7
370
    15
100
AcDbPolyline
 90
        4
 70
   128
 43
0.0
 38
-0.0000000145908932
 10
3.773651660687756
 20
9.446779444986438
 10
3.773037995799355
 20
9.454073327496637
 10
3.771863505081159
 20
9.467998420183738
 10
3.771620083012633
 20
9.47087931912438
210
0.0
220
-1.0
230
0.0
  0
ARC
  5
150C
330
1F
100
AcDbEntity
  8
0
  6
Continuous
 62
     7
370
    15
100
AcDbCircle
 10
3.765578100675946
 20
9.452644561579211
 30
-0.0000000145908932
 40
0.0022736463609952
210
0.0
220
-1.0
230
0.0
100
AcDbArc
 50
32.89428535954612
 51
85.39561590558034
  0
ARC
  5
150D
330
1F
100
AcDbEntity
  8
0
  6
Continuous
 62
     7
370
    15
100
AcDbCircle
 10
3.789415044252174
 20
9.458522541186218
 30
-0.0000000145908932
 40
0.0028783890591652
210
0.0
220
-1.0
230
0.0
100
AcDbArc
 50
183.560872128488
 51
268.8064129850998
  0
ARC
  5
150E
330
1F
100
AcDbEntity
  8
0
  6
Continuous
 62
     7
370
    15
100
AcDbCircle
 10
3.79290070143489
 20
9.452827121727172
 30
-0.0000000145908932
 40
0.0028317354240658
210
0.0
220
-1.0
230
0.0
100
AcDbArc
 50
58.97329056320933
 51
89.9200252435812
  0
LINE
  5
150F
330
1F
100
AcDbEntity
  8
0
  6
Continuous
 62
     7
370
    15
100
AcDbLine
 10
3.790346484285889
 20
0.0000000145908932
 30
9.455658563968948
 11
3.792904654034526
 21
0.0000000145908932
 31
9.455658563968948
210
0.0
220
-1.0
230
0.0
  0
LINE
  5
1510
330
1F
100
AcDbEntity
  8
0
  6
Continuous
 62
     7
370
    15
100
AcDbLine
 10
3.786796921565315
 20
0.0000000145908932
 30
9.455658563968948
 11
3.790346484285889
 21
0.0000000145908932
 31
9.455658563968948
210
0.0
220
-1.0
230
0.0
  0
LWPOLYLINE
  5
1511
330
1F
100
AcDbEntity
  8
0
  6
Continuous
 62
     7
370
    15
100
AcDbPolyline
 90
        9
 70
   128
 43
0.0
 38
-0.0000000145908932
 10
3.789522954283666
 20
9.452870853325173
 10
3.789545884644678
 20
9.453422389985908
 10
3.789597575028098
 20
9.453948386150463
 10
3.789676159510853
 20
9.454430549301305
 10
3.789778823029805
 20
9.454850586920902
 10
3.78990187688154
 20
9.4551943481938
 10
3.790040898936229
 20
9.455449062871912
 10
3.79019090081571
 20
9.455605757267389
 10
3.790346484285889
 20
9.455658563968948
210
0.0
220
-1.0
230
0.0
  0
ARC
  5
1512
330
1F
100
AcDbEntity
  8
0
  6
Continuous
 62
     7
370
    15
100
AcDbCircle
 10
3.790338795995058
 20
9.453024416821128
 30
-0.0000000145908932
 40
0.0026348505369714
210
0.0
220
-1.0
230
0.0
100
AcDbArc
 50
57.78789244066601
 51
89.83281509320038
  0
ELLIPSE
  5
1513
330
1F
100
AcDbEntity
  8
0
  6
Continuous
 62
     7
370
    15
100
AcDbEllipse
 10
3.78729098987279
 20
0.0000000145908932
 30
9.452717009635629
 11
-0.0005342081600714365
 21
0.0
 31
0.002937991746222222
210
0.0
220
-0.9999999999999999
230
0.0
 40
0.2720390324256298
 41
6.233761369277937
 42
7.752197818513116
  0
ARC
  5
1514
330
1F
100
AcDbEntity
  8
0
  6
Continuous
 62
     7
370
    15
100
AcDbCircle
 10
3.786856868085031
 20
9.458522532063466
 30
-0.0000000145908932
 40
0.0028783820864586
210
0.0
220
-1.0
230
0.0
100
AcDbArc
 50
183.5606988209479
 51
268.8066452556827
  0
ARC
  5
1515
330
1F
100
AcDbEntity
  8
0
  6
Continuous
 62
     7
370
    15
100
AcDbCircle
 10
3.783846138245621
 20
9.47560306924776
 30
-0.0000000145908932
 40
0.0228799049888603
210
0.0
220
-1.0
230
0.0
100
AcDbArc
 50
267.3923448424158
 51
276.5135624945764
  0
ARC
  5
1516
330
1F
100
AcDbEntity
  8
0
  6
Continuous
 62
     7
370
    15
100
AcDbCircle
 10
3.784413581621028
 20
9.46733394368002
 30
-0.0000000145908932
 40
0.0228118813962173
210
0.0
220
-1.0
230
0.0
100
AcDbArc
 50
267.3865215432685
 51
276.5350250931644
  0
LINE
  5
1517
330
1F
100
AcDbEntity
  8
0
  6
Continuous
 62
     7
370
    15
100
AcDbLine
 10
3.789522954283666
 20
0.0000000145908932
 30
9.452870853325173
 11
3.786441598040767
 21
0.0000000145908932
 31
9.452870853325173
210
0.0
220
-1.0
230
0.0
  0
LINE
  5
1518
330
1F
100
AcDbEntity
  8
0
  6
Continuous
 62
     7
370
    15
100
AcDbLine
 10
3.786441598040767
 20
0.0000000145908932
 30
9.452870853325173
 11
3.787009814759501
 21
0.0000000145908932
 31
9.444670283200614
210
0.0
220
-1.0
230
0.0
  0
ARC
  5
1519
330
1F
100
AcDbEntity
  8
0
  6
Continuous
 62
     7
370
    15
100
AcDbCircle
 10
3.793111628356507
 20
9.444975463166466
 30
-0.0000000145908932
 40
0.0061094405622909
210
0.0
220
-1.0
230
0.0
100
AcDbArc
 50
182.8632415266664
 51
263.7954124529306
  0
ARC
  5
151A
330
1F
100
AcDbEntity
  8
0
  6
Continuous
 62
     7
370
    15
100
AcDbCircle
 10
3.794389719629106
 20
9.450755422433925
 30
-0.0000000145908932
 40
0.0053066423266729
210
0.0
220
-1.0
230
0.0
100
AcDbArc
 50
119.9137887976497
 51
156.5069202212601
  0
LINE
  5
151B
330
1F
100
AcDbEntity
  8
0
  6
Continuous
 62
     7
370
    15
100
AcDbLine
 10
3.794360284352979
 20
0.0000000145908932
 30
9.455253712590324
 11
3.791743316456149
 21
0.0000000145908932
 31
9.455253712590324
210
0.0
220
-1.0
230
0.0
  0
LINE
  5
151C
330
1F
100
AcDbEntity
  8
0
  6
Continuous
 62
     7
370
    15
100
AcDbLine
 10
3.771594135356939
 20
0.0000000145908932
 30
9.476249726158816
 11
3.785575141022162
 21
0.0000000145908932
 31
9.476249726158816
210
0.0
220
-1.0
230
0.0
  0
ARC
  5
151D
330
1F
100
AcDbEntity
  8
0
  6
Continuous
 62
     7
370
    15
100
AcDbCircle
 10
3.785454818022147
 20
9.47052175767035
 30
-0.0000000145908932
 40
0.0057571953094771
210
0.0
220
-1.0
230
0.0
100
AcDbArc
 50
3.560753895286227
 51
88.8024547228128
  0
LWPOLYLINE
  5
151E
330
1F
100
AcDbEntity
  8
0
  6
Continuous
 62
     7
370
    15
100
AcDbPolyline
 90
        9
 70
   128
 43
0.0
 38
-0.0000000145908932
 10
3.792451326405869
 20
9.438915388156131
 10
3.792383268749243
 20
9.438371099474042
 10
3.792288575849663
 20
9.437851315862613
 10
3.792170575090183
 20
9.437374329839374
 10
3.792033435137093
 20
9.436957398496341
 10
3.791881993368997
 20
9.436614672648963
 10
3.791721588698736
 20
9.43635857740349
 10
3.791557878216786
 20
9.43619808644777
 10
3.79139662687045
 20
9.436139067193086
210
0.0
220
-1.0
230
0.0
  0
LINE
  5
151F
330
1F
100
AcDbEntity
  8
0
  6
Continuous
 62
     7
370
    15
100
AcDbLine
 10
3.783984042531408
 20
0.0000000145908932
 30
9.458343767486165
 11
3.786542212280044
 21
0.0000000145908932
 31
9.458343767486165
210
0.0
220
-1.0
230
0.0
  0
LINE
  5
1520
330
1F
100
AcDbEntity
  8
0
  6
Continuous
 62
     7
370
    15
100
AcDbLine
 10
3.791200899089975
 20
0.0000000145908932
 30
9.47087931912438
 11
3.777219893424753
 21
0.0000000145908932
 31
9.47087931912438
210
0.0
220
-1.0
230
0.0
  0
LINE
  5
1521
330
1F
100
AcDbEntity
  8
0
  6
Continuous
 62
     7
370
    15
100
AcDbLine
 10
3.78337340572337
 20
0.0000000145908932
 30
9.444567776074058
 11
3.782805183611796
 21
0.0000000145908932
 31
9.452768691340458
210
0.0
220
-1.0
230
0.0
  0
ELLIPSE
  5
1522
330
1F
100
AcDbEntity
  8
0
  6
Continuous
 62
     7
370
    15
100
AcDbEllipse
 10
3.784478112174351
 20
0.0000000145908932
 30
9.452460633718522
 11
-0.000535694345542126
 21
0.0
 31
0.005881279364857055
210
0.0
220
-1.0
230
0.0
 40
0.2782188846923913
 41
6.257849256581782
 42
7.776285705816985
  0
ARC
  5
1523
330
1F
100
AcDbEntity
  8
0
  6
Continuous
 62
     7
370
    15
100
AcDbCircle
 10
3.792471390735218
 20
9.445165549463045
 30
-0.0000000145908932
 40
0.0091176018941601
210
0.0
220
-1.0
230
0.0
100
AcDbArc
 50
183.7591547849287
 51
263.2303534328732
  0
LINE
  5
1524
330
1F
100
AcDbEntity
  8
0
  6
Continuous
 62
     7
370
    15
100
AcDbLine
 10
3.779267350320948
 20
0.0000000145908932
 30
9.444234714198206
 11
3.78337340572337
 21
0.0000000145908932
 31
9.444567776074058
210
0.0
220
-1.0
230
0.0
  0
LINE
  5
1525
330
1F
100
AcDbEntity
  8
0
  6
Continuous
 62
     7
370
    15
100
AcDbLine
 10
3.767786266325977
 20
0.0000000145908932
 30
9.476249726158816
 11
3.771594135356939
 21
0.0000000145908932
 31
9.476249726158816
210
0.0
220
-1.0
230
0.0
  0
ARC
  5
1526
330
1F
100
AcDbEntity
  8
0
  6
Continuous
 62
     7
370
    15
100
AcDbCircle
 10
3.771473812357148
 20
9.470521757670303
 30
-0.0000000145908932
 40
0.0057571953092562
210
0.0
220
-1.0
230
0.0
100
AcDbArc
 50
3.560753895881505
 51
88.80245472499824
  0
LWPOLYLINE
  5
1527
330
1F
100
AcDbEntity
  8
0
  6
Continuous
 62
     7
370
    15
100
AcDbPolyline
 90
        3
 70
   128
 43
0.0
 38
-0.0000000145908932
 10
3.777219893424753
 20
9.47087931912438
 10
3.778553532281197
 20
9.4535166137083
 10
3.779267350320948
 20
9.444234714198208
210
0.0
220
-1.0
230
0.0
  0
LWPOLYLINE
  5
1528
330
1F
100
AcDbEntity
  8
0
  6
Continuous
 62
     7
370
    15
100
AcDbPolyline
 90
        3
 70
   128
 43
0.0
 38
-0.0000000145908932
 10
3.777219893424753
 20
9.47087931912438
 10
3.775047813360017
 20
9.470901063060317
 10
3.771620083012633
 20
9.47087931912438
210
0.0
220
-1.0
230
0.0
  0
ARC
  5
1529
330
1F
100
AcDbEntity
  8
0
  6
Continuous
 62
     7
370
    15
100
AcDbCircle
 10
3.788446986730199
 20
9.444930331631262
 30
-0.0000000145908932
 40
0.0092059550411252
210
0.0
220
-1.0
230
0.0
100
AcDbArc
 50
184.3334958045301
 51
263.9779314730207
  0
ARC
  5
152A
330
1F
100
AcDbEntity
  8
0
  6
Continuous
 62
     7
370
    15
100
AcDbCircle
 10
3.768756506791773
 20
9.457145923948893
 30
-0.0000000145908932
 40
0.0037751331092135
210
0.0
220
-1.0
230
0.0
100
AcDbArc
 50
179.6302625107282
 51
217.4781984966444
  0
ARC
  5
152B
330
1F
100
AcDbEntity
  8
0
  6
Continuous
 62
     7
370
    15
100
AcDbCircle
 10
3.761470421942217
 20
9.457099224682691
 30
-0.0000000145908932
 40
0.0045314099422649
210
0.0
220
-1.0
230
0.0
100
AcDbArc
 50
179.1014637045374
 51
209.8893238580849
  0
LWPOLYLINE
  5
152C
330
1F
100
AcDbEntity
  8
0
  6
Continuous
 62
     7
370
    15
100
AcDbPolyline
 90
        9
 70
   128
 43
0.0
 38
-0.0000000145908932
 10
3.771620083012633
 20
9.47087931912438
 10
3.771492509959928
 20
9.471950984538386
 10
3.771237846513808
 20
9.472968462683474
 10
3.770864829077107
 20
9.47389689423377
 10
3.770386249469277
 20
9.474704180998136
 10
3.769818515409837
 20
9.475362366487508
 10
3.769181095055711
 20
9.475849706765954
 10
3.768495845592503
 20
9.47614894474146
 10
3.767786266325977
 20
9.476249726158816
210
0.0
220
-1.0
230
0.0
  0
LINE
  5
152D
330
1F
100
AcDbEntity
  8
0
  6
Continuous
 62
     7
370
    15
100
AcDbLine
 10
3.756939569211927
 20
0.0000000145908932
 30
9.457170285229283
 11
3.764981452286166
 21
0.0000000145908932
 31
9.457170285229283
210
0.0
220
-1.0
230
0.0
  0
LINE
  5
152E
330
1F
100
AcDbEntity
  8
0
  6
Continuous
 62
     7
370
    15
100
AcDbLine
 10
3.755655628084059
 20
0.0000000145908932
 30
9.450808630829625
 11
3.755606270104482
 21
0.0000000145908932
 31
9.444097347745783
210
0.0
220
-1.0
230
0.0
  0
ARC
  5
152F
330
1F
100
AcDbEntity
  8
0
  6
Continuous
 62
     7
370
    15
100
AcDbCircle
 10
3.761387783373344
 20
9.443056467514577
 30
-0.0000000145908932
 40
0.0058744640039531
210
0.0
220
-1.0
230
0.0
100
AcDbArc
 50
169.7940311749153
 51
236.1428118720934
  0
LWPOLYLINE
  5
1530
330
1F
100
AcDbEntity
  8
0
  6
Continuous
 62
     7
370
    15
100
AcDbPolyline
 90
        8
 70
   128
 43
0.0
 38
-0.0000000145908932
 10
3.757541736562775
 20
9.454890278232531
 10
3.757418175783962
 20
9.45488786223965
 10
3.757148822238267
 20
9.45484989663722
 10
3.756620342670314
 20
9.454618306462406
 10
3.756341813205225
 20
9.454384300294711
 10
3.755944894696087
 20
9.453819648244048
 10
3.75560419655702
 20
9.452672051625186
 10
3.755655628084059
 20
9.450808630829625
210
0.0
220
-1.0
230
0.0
  0
LINE
  5
1531
330
1F
100
AcDbEntity
  8
0
  6
Continuous
 62
     7
370
    15
100
AcDbLine
 10
3.766451991114265
 20
0.0000000145908932
 30
9.436830731440965
 11
3.755655628084059
 21
0.0000000145908932
 31
9.450808630829625
210
0.0
220
-1.0
230
0.0
  0
ARC
  5
1532
330
1F
100
AcDbEntity
  8
0
  6
Continuous
 62
     7
370
    15
100
AcDbCircle
 10
3.77935826550318
 20
9.437349297659578
 30
-0.0000000145908932
 40
0.0018649787233601
210
0.0
220
-1.0
230
0.0
100
AcDbArc
 50
41.27823848287404
 51
91.90507392040206
  0
LINE
  5
1533
330
1F
100
AcDbEntity
  8
0
  6
Continuous
 62
     7
370
    15
100
AcDbLine
 10
3.758114974016716
 20
0.0000000145908932
 30
9.438348320112585
 11
3.766451991114265
 21
0.0000000145908932
 31
9.436830731440965
210
0.0
220
-1.0
230
0.0
  0
ARC
  5
1534
330
1F
100
AcDbEntity
  8
0
  6
Continuous
 62
     7
370
    15
100
AcDbCircle
 10
3.755186588511932
 20
9.43844870029632
 30
-0.0000000145908932
 40
0.0029301054325596
210
0.0
220
-1.0
230
0.0
100
AcDbArc
 50
275.1655727648048
 51
358.0367646857195
  0
ARC
  5
1535
330
1F
100
AcDbEntity
  8
0
  6
Continuous
 62
     7
370
    15
100
AcDbCircle
 10
3.769876280930598
 20
9.435575099444511
 30
-0.0000000145908932
 40
0.0036472417601189
210
0.0
220
-1.0
230
0.0
100
AcDbArc
 50
93.3042677745679
 51
159.8628254319808
  0
LWPOLYLINE
  5
1536
330
1F
100
AcDbEntity
  8
0
  6
Continuous
 62
     7
370
    15
100
AcDbPolyline
 90
        9
 70
   128
 43
0.0
 38
-0.0000000145908932
 10
3.769095712896556
 20
9.43308387162311
 10
3.769174715324508
 20
9.43308456190679
 10
3.769367924648116
 20
9.433103889849844
 10
3.769514170413665
 20
9.433144271445157
 10
3.769628908504186
 20
9.433208122685604
 10
3.769717073369428
 20
9.433312700663203
 10
3.769710299960813
 20
9.433697188673252
 10
3.769083681467719
 20
9.434611814549939
 10
3.766451991114265
 20
9.436830731440965
210
0.0
220
-1.0
230
0.0
  0
LINE
  5
1537
330
1F
100
AcDbEntity
  8
0
  6
Continuous
 62
     7
370
    15
100
AcDbLine
 10
3.765760618079813
 20
0.0000000145908932
 30
9.454890278232531
 11
3.757541736562775
 21
0.0000000145908932
 31
9.454890278232531
210
0.0
220
-1.0
230
0.0
  0
ARC
  5
1538
330
1F
100
AcDbEntity
  8
0
  6
Continuous
 62
     7
370
    15
100
AcDbCircle
 10
-22.0889056315619
 20
-10.54678319652775
 30
-0.0000000145908932
 40
32.68188770098777
210
0.0
220
-1.0
230
0.0
100
AcDbArc
 50
37.70030663207647
 51
37.73505096853002
  0
LWPOLYLINE
  5
1539
330
1F
100
AcDbEntity
  8
0
  6
Continuous
 62
     7
370
    15
100
AcDbPolyline
 90
        5
 70
   128
 43
0.0
 38
-0.0000000145908932
 10
3.769666059787585
 20
9.439213245564275
 10
3.771687908777086
 20
9.435364568903545
 10
3.771621835686041
 20
9.433773465019948
 10
3.771093938544944
 20
9.433100438431444
 10
3.77098306172876
 20
9.433025887793947
210
0.0
220
-1.0
230
0.0
  0
ARC
  5
153A
330
1F
100
AcDbEntity
  8
0
  6
Continuous
 62
     7
370
    15
100
AcDbCircle
 10
3.796341152638776
 20
9.453649047070837
 30
-0.0000000145908932
 40
0.0223365283914921
210
0.0
220
-1.0
230
0.0
100
AcDbArc
 50
220.2622174535549
 51
247.6114048688761
  0
LWPOLYLINE
  5
153B
330
1F
100
AcDbEntity
  8
0
  6
Continuous
 62
     7
370
    15
100
AcDbPolyline
 90
        4
 70
   128
 43
0.0
 38
-0.0000000145908932
 10
3.779296266735752
 20
9.439213245564275
 10
3.776724625669663
 20
9.442191129362032
 10
3.767227274062209
 20
9.453191144952934
 10
3.765760618079813
 20
9.454890278232531
210
0.0
220
-1.0
230
0.0
  0
LINE
  5
153C
330
1F
100
AcDbEntity
  8
0
  6
Continuous
 62
     7
370
    15
100
AcDbLine
 10
3.79139662687045
 20
0.0000000145908932
 30
9.436139067193086
 11
3.787481176049311
 21
0.0000000145908932
 31
9.43581152758668
210
0.0
220
-1.0
230
0.0
  0
LWPOLYLINE
  5
153D
330
1F
100
AcDbEntity
  8
0
  6
Continuous
 62
     7
370
    15
100
AcDbPolyline
 90
        3
 70
   128
 43
0.0
 38
-0.0000000145908932
 10
3.787481176049311
 20
9.43581152758668
 10
3.785162011632212
 20
9.435658629751446
 10
3.78393915791365
 20
9.43563999209207
210
0.0
220
-1.0
230
0.0
  0
LINE
  5
153E
330
1F
100
AcDbEntity
  8
0
  6
Continuous
 62
     7
370
    15
100
AcDbLine
 10
3.788094153350452
 20
0.0000000145908932
 30
9.433231247188901
 11
3.78891753235312
 21
0.0000000145908932
 31
9.43308387162311
210
0.0
220
-1.0
230
0.0
  0
ARC
  5
153F
330
1F
100
AcDbEntity
  8
0
  6
Continuous
 62
     7
370
    15
100
AcDbCircle
 10
3.788338575185105
 20
9.435292937670972
 30
-0.0000000145908932
 40
0.0023226368980666
210
0.0
220
-1.0
230
0.0
100
AcDbArc
 50
257.4395948109239
 51
284.4341523870159
  0
LINE
  5
1540
330
1F
100
AcDbEntity
  8
0
  6
Continuous
 62
     7
370
    15
100
AcDbLine
 10
3.77098306172876
 20
0.0000000145908932
 30
9.433025887793947
 11
3.787833474189914
 21
0.0000000145908932
 31
9.433025887793947
210
0.0
220
-1.0
230
0.0
  0
ARC
  5
1541
330
1F
100
AcDbEntity
  8
0
  6
Continuous
 62
     7
370
    15
100
AcDbCircle
 10
3.770793426920055
 20
9.458608081843648
 30
-0.0000000145908932
 40
0.0255828968992416
210
0.0
220
-1.0
230
0.0
100
AcDbArc
 50
266.1949819351416
 51
270.4247124058525
  0
LWPOLYLINE
  5
1542
330
1F
100
AcDbEntity
  8
0
  6
Continuous
 62
     7
370
    15
100
AcDbPolyline
 90
        3
 70
   128
 43
0.0
 38
-0.0000000145908932
 10
3.769095712896556
 20
9.43308387162311
 10
3.766620778956256
 20
9.43353566229201
 10
3.755450398117296
 20
9.435571654007699
210
0.0
220
-1.0
230
0.0
  0
ARC
  5
1543
330
1F
100
AcDbEntity
  8
0
  6
Continuous
 62
     7
370
    15
100
AcDbCircle
 10
3.786074656277113
 20
9.470366512171452
 30
-0.0000000145908932
 40
0.0058831675355904
210
0.0
220
-1.0
230
0.0
100
AcDbArc
 50
5.198028532478098
 51
90.00000821460938
  0
LINE
  5
1544
330
1F
100
AcDbEntity
  8
0
  6
Continuous
 62
     7
370
    15
100
AcDbLine
 10
3.793316462178368
 20
0.0000000145908932
 30
9.455572278508884
 11
3.791917505228654
 21
0.0000000145908932
 31
9.470900372776638
210
0.0
220
-1.0
230
0.0
  0
ARC
  5
1545
330
1F
100
AcDbEntity
  8
0
  6
Continuous
 62
     7
370
    15
100
AcDbCircle
 10
3.803063520085217
 20
9.44446675496474
 30
-0.0000000145908932
 40
0.0085754450406521
210
0.0
220
-1.0
230
0.0
100
AcDbArc
 50
185.3871530456146
 51
241.6797495699358
  0
LWPOLYLINE
  5
1546
330
1F
100
AcDbEntity
  8
0
  6
Continuous
 62
     7
370
    15
100
AcDbPolyline
 90
        5
 70
   128
 43
0.0
 38
-0.0000000145908932
 10
3.78935508592111
 20
9.455658563968948
 10
3.78837745008721
 20
9.455862887938382
 10
3.78785267809762
 20
9.456193878963191
 10
3.787683386024972
 20
9.456370591585403
 10
3.787685607875569
 20
9.456365414457798
210
0.0
220
-1.0
230
0.0
  0
ARC
  5
1547
330
1F
100
AcDbEntity
  8
0
  6
Continuous
 62
     7
370
    15
100
AcDbCircle
 10
3.792904653200204
 20
9.452717009635629
 30
-0.0000000145908932
 40
0.0029415837559709
210
0.0
220
-1.0
230
0.0
100
AcDbArc
 50
58.77982241246495
 51
90.0
  0
LINE
  5
1548
330
1F
100
AcDbEntity
  8
0
  6
Continuous
 62
     7
370
    15
100
AcDbLine
 10
3.780728599979987
 20
0.0000000145908932
 30
9.438593025677328
 11
3.767502950714276
 21
0.0000000145908932
 31
9.453892128030501
210
0.0
220
-1.0
230
0.0
  0
ARC
  5
1549
330
1F
100
AcDbEntity
  8
0
  6
Continuous
 62
     7
370
    15
100
AcDbCircle
 10
3.789009362304752
 20
9.43596959736121
 30
-0.0000000145908932
 40
0.002888036964869
210
0.0
220
-1.0
230
0.0
100
AcDbArc
 50
250.8990271895502
 51
263.6865527172245
  0
ARC
  5
154A
330
1F
100
AcDbEntity
  8
0
  6
Continuous
 62
     7
370
    15
100
AcDbCircle
 10
3.793642274060554
 20
9.44828902981702
 30
-0.0000000145908932
 40
0.0160877172228245
210
0.0
220
-1.0
230
0.0
100
AcDbArc
 50
217.0601545404459
 51
249.7130135320238
  0
LINE
  5
154B
330
1F
100
AcDbEntity
  8
0
  6
Continuous
 62
     7
370
    15
100
AcDbLine
 10
3.831300346338739
 20
0.0000000145908932
 30
9.432866087121907
 11
3.835549851318518
 21
0.0000000145908932
 31
9.432866087121907
210
0.0
220
-1.0
230
0.0
  0
LINE
  5
154C
330
1F
100
AcDbEntity
  8
0
  6
Continuous
 62
     7
370
    15
100
AcDbLine
 10
3.844008253183434
 20
0.0000000145908932
 30
9.423635268604174
 11
3.83941956006014
 21
0.0000000145908932
 31
9.423635268604174
210
0.0
220
-1.0
230
0.0
  0
LINE
  5
154D
330
1F
100
AcDbEntity
  8
0
  6
Continuous
 62
     7
370
    15
100
AcDbLine
 10
3.820888527943414
 20
0.0000000145908932
 30
9.439191846770179
 11
3.820815109802582
 21
0.0000000145908932
 31
9.439213245564275
210
0.0
220
-1.0
230
0.0
  0
ARC
  5
154E
330
1F
100
AcDbEntity
  8
0
  6
Continuous
 62
     7
370
    15
100
AcDbCircle
 10
3.90365831017365
 20
9.573290702738145
 30
-0.0000000145908932
 40
0.1576063462235324
210
0.0
220
-1.0
230
0.0
100
AcDbArc
 50
238.289089365783
 51
242.8796644002708
  0
ARC
  5
154F
330
1F
100
AcDbEntity
  8
0
  6
Continuous
 62
     7
370
    15
100
AcDbCircle
 10
3.820353116058391
 20
9.434733023050535
 30
-0.0000000145908932
 40
0.0052776609857269
210
0.0
220
-1.0
230
0.0
100
AcDbArc
 50
119.7205166561754
 51
156.5799307223986
  0
LWPOLYLINE
  5
1550
330
1F
100
AcDbEntity
  8
0
  6
Continuous
 62
     7
370
    15
100
AcDbPolyline
 90
        9
 70
   128
 43
0.0
 38
-0.0000000145908932
 10
3.825147880251325
 20
9.43308387162311
 10
3.825183462217918
 20
9.43308456190679
 10
3.825231652647365
 20
9.433103889849844
 10
3.82520970378346
 20
9.433144271445157
 10
3.825119578620423
 20
9.433208122685604
 10
3.82492479998001
 20
9.433312700663203
 10
3.824053004048562
 20
9.433697188673252
 10
3.821700096623737
 20
9.434611814549939
 10
3.815510252753591
 20
9.436830731440965
210
0.0
220
-1.0
230
0.0
  0
ARC
  5
1551
330
1F
100
AcDbEntity
  8
0
  6
Continuous
 62
     7
370
    15
100
AcDbCircle
 10
3.809679881400176
 20
9.417211483177564
 30
-0.0000000145908932
 40
0.0234305026045453
210
0.0
220
-1.0
230
0.0
100
AcDbArc
 50
44.38312154585088
 51
69.88799275765334
  0
LINE
  5
1552
330
1F
100
AcDbEntity
  8
0
  6
Continuous
 62
     7
370
    15
100
AcDbLine
 10
3.826425163916664
 20
0.0000000145908932
 30
9.433025887793947
 11
3.83181174947486
 21
0.0000000145908932
 31
9.433025887793947
210
0.0
220
-1.0
230
0.0
  0
ARC
  5
1553
330
1F
100
AcDbEntity
  8
0
  6
Continuous
 62
     7
370
    15
100
AcDbCircle
 10
3.827139887855497
 20
9.461837290486914
 30
-0.0000000145908932
 40
0.0288223383966754
210
0.0
220
-1.0
230
0.0
100
AcDbArc
 50
266.0369389349116
 51
268.5790582740486
  0
LINE
  5
1554
330
1F
100
AcDbEntity
  8
0
  6
Continuous
 62
     7
370
    15
100
AcDbLine
 10
3.84430242188816
 20
0.0000000145908932
 30
9.408593296921994
 11
3.839594417544961
 21
0.0000000145908932
 31
9.408593296921994
210
0.0
220
-1.0
230
0.0
  0
LINE
  5
1555
330
1F
100
AcDbEntity
  8
0
  6
Continuous
 62
     7
370
    15
100
AcDbLine
 10
3.835549851318518
 20
0.0000000145908932
 30
9.432866087121907
 11
3.831402680894375
 21
0.0000000145908932
 31
9.43322883119602
210
0.0
220
-1.0
230
0.0
  0
ARC
  5
1556
330
1F
100
AcDbEntity
  8
0
  6
Continuous
 62
     7
370
    15
100
AcDbCircle
 10
3.834742269380565
 20
9.423635208919606
 30
-0.0000000145908932
 40
0.0092659888313087
210
0.0
220
-1.0
230
0.0
100
AcDbArc
 50
0.0
 51
85.00000000000054
  0
LINE
  5
1557
330
1F
100
AcDbEntity
  8
0
  6
Continuous
 62
     7
370
    15
100
AcDbLine
 10
3.844008253183434
 20
0.0000000145908932
 30
9.408593296921994
 11
3.844008253183434
 21
0.0000000145908932
 31
9.423635268604174
210
0.0
220
-1.0
230
0.0
  0
LINE
  5
1558
330
1F
100
AcDbEntity
  8
0
  6
Continuous
 62
     7
370
    15
100
AcDbLine
 10
3.727357761891574
 20
0.0000000145908932
 30
9.578734236676524
 11
3.691404201065157
 21
0.0000000145908932
 31
9.578734236676524
210
0.0
220
-1.0
230
0.0
  0
LINE
  5
1559
330
1F
100
AcDbEntity
  8
0
  6
Continuous
 62
     7
370
    15
100
AcDbLine
 10
3.703110490110896
 20
0.0000000145908932
 30
9.72051850465503
 11
3.761055595977828
 21
0.0000000145908932
 31
9.72051850465503
210
0.0
220
-1.0
230
0.0
  0
LINE
  5
155A
330
1F
100
AcDbEntity
  8
0
  6
Continuous
 62
     7
370
    15
100
AcDbLine
 10
3.690988639503802
 20
0.0000000145908932
 30
9.691102755893413
 11
3.775469355582323
 21
0.0000000145908932
 31
9.691102755893413
210
0.0
220
-1.0
230
0.0
  0
LINE
  5
155B
330
1F
100
AcDbEntity
  8
0
  6
Continuous
 62
     7
370
    15
100
AcDbLine
 10
3.698175064259172
 20
0.0000000145908932
 30
9.61756303884753
 11
3.720586896843769
 21
0.0000000145908932
 31
9.61756303884753
210
0.0
220
-1.0
230
0.0
  0
LINE
  5
155C
330
1F
100
AcDbEntity
  8
0
  6
Continuous
 62
     7
370
    15
100
AcDbLine
 10
3.698105704231384
 20
0.0000000145908932
 30
9.72051850465503
 11
3.698105704231384
 21
0.0000000145908932
 31
9.691102755893413
210
0.0
220
-1.0
230
0.0
  0
LINE
  5
155D
330
1F
100
AcDbEntity
  8
0
  6
Continuous
 62
     7
370
    15
100
AcDbLine
 10
3.686732366508249
 20
0.0000000145908932
 30
9.578734236676524
 11
3.681893367354568
 21
0.0000000145908932
 31
9.578734236676524
210
0.0
220
-1.0
230
0.0
  0
LINE
  5
155E
330
1F
100
AcDbEntity
  8
0
  6
Continuous
 62
     7
370
    15
100
AcDbLine
 10
3.686479790091695
 20
0.0000000145908932
 30
9.578734236676524
 11
3.686732366508249
 21
0.0000000145908932
 31
9.578734236676524
210
0.0
220
-1.0
230
0.0
  0
LINE
  5
155F
330
1F
100
AcDbEntity
  8
0
  6
Continuous
 62
     7
370
    15
100
AcDbLine
 10
3.686113729420211
 20
0.0000000145908932
 30
9.61756303884753
 11
3.686732366508249
 21
0.0000000145908932
 31
9.61756303884753
210
0.0
220
-1.0
230
0.0
  0
LINE
  5
1560
330
1F
100
AcDbEntity
  8
0
  6
Continuous
 62
     7
370
    15
100
AcDbLine
 10
3.684283420669951
 20
0.0000000145908932
 30
9.61756303884753
 11
3.684283420669951
 21
0.0000000145908932
 31
9.578734236676524
210
0.0
220
-1.0
230
0.0
  0
LINE
  5
1561
330
1F
100
AcDbEntity
  8
0
  6
Continuous
 62
     7
370
    15
100
AcDbLine
 10
3.683691944626889
 20
0.0000000145908932
 30
9.691102755893413
 11
3.690988639503802
 21
0.0000000145908932
 31
9.691102755893413
210
0.0
220
-1.0
230
0.0
  0
LINE
  5
1562
330
1F
100
AcDbEntity
  8
0
  6
Continuous
 62
     7
370
    15
100
AcDbLine
 10
3.683691944626889
 20
0.0000000145908932
 30
9.61756303884753
 11
3.686113729420211
 21
0.0000000145908932
 31
9.61756303884753
210
0.0
220
-1.0
230
0.0
  0
LINE
  5
1563
330
1F
100
AcDbEntity
  8
0
  6
Continuous
 62
     7
370
    15
100
AcDbLine
 10
3.686732366508249
 20
0.0000000145908932
 30
9.578734236676524
 11
3.691404201065157
 21
0.0000000145908932
 31
9.578734236676524
210
0.0
220
-1.0
230
0.0
  0
LINE
  5
1564
330
1F
100
AcDbEntity
  8
0
  6
Continuous
 62
     7
370
    15
100
AcDbLine
 10
3.686732366508249
 20
0.0000000145908932
 30
9.61756303884753
 11
3.698175064259172
 21
0.0000000145908932
 31
9.61756303884753
210
0.0
220
-1.0
230
0.0
  0
LINE
  5
1565
330
1F
100
AcDbEntity
  8
0
  6
Continuous
 62
     7
370
    15
100
AcDbLine
 10
3.686732366508249
 20
0.0000000145908932
 30
9.61756303884753
 11
3.686732366508249
 21
0.0000000145908932
 31
9.578734236676524
210
0.0
220
-1.0
230
0.0
  0
LINE
  5
1566
330
1F
100
AcDbEntity
  8
0
  6
Continuous
 62
     7
370
    15
100
AcDbLine
 10
3.683691944626889
 20
0.0000000145908932
 30
9.691102755893413
 11
3.683691944626889
 21
0.0000000145908932
 31
9.61756303884753
210
0.0
220
-1.0
230
0.0
  0
LINE
  5
1567
330
1F
100
AcDbEntity
  8
0
  6
Continuous
 62
     7
370
    15
100
AcDbLine
 10
3.698105704231384
 20
0.0000000145908932
 30
9.72051850465503
 11
3.703110490110896
 21
0.0000000145908932
 31
9.72051850465503
210
0.0
220
-1.0
230
0.0
  0
LINE
  5
1568
330
1F
100
AcDbEntity
  8
0
  6
Continuous
 62
     7
370
    15
100
AcDbLine
 10
3.761055595977828
 20
0.0000000145908932
 30
9.691102755893413
 11
3.761055595977828
 21
0.0000000145908932
 31
9.72051850465503
210
0.0
220
-1.0
230
0.0
  0
LINE
  5
1569
330
1F
100
AcDbEntity
  8
0
  6
Continuous
 62
     7
370
    15
100
AcDbLine
 10
3.764907866967254
 20
0.0000000145908932
 30
9.578734236676524
 11
3.736448852060942
 21
0.0000000145908932
 31
9.578734236676524
210
0.0
220
-1.0
230
0.0
  0
LINE
  5
156A
330
1F
100
AcDbEntity
  8
0
  6
Continuous
 62
     7
370
    15
100
AcDbLine
 10
3.742853657954001
 20
0.0000000145908932
 30
9.61756303884753
 11
3.764053818876374
 21
0.0000000145908932
 31
9.61756303884753
210
0.0
220
-1.0
230
0.0
  0
LINE
  5
156B
330
1F
100
AcDbEntity
  8
0
  6
Continuous
 62
     7
370
    15
100
AcDbLine
 10
3.732029595942904
 20
0.0000000145908932
 30
9.578734236676524
 11
3.736448852060942
 21
0.0000000145908932
 31
9.578734236676524
210
0.0
220
-1.0
230
0.0
  0
LINE
  5
156C
330
1F
100
AcDbEntity
  8
0
  6
Continuous
 62
     7
370
    15
100
AcDbLine
 10
3.732029595942904
 20
0.0000000145908932
 30
9.61756303884753
 11
3.742853657954001
 21
0.0000000145908932
 31
9.61756303884753
210
0.0
220
-1.0
230
0.0
  0
LINE
  5
156D
330
1F
100
AcDbEntity
  8
0
  6
Continuous
 62
     7
370
    15
100
AcDbLine
 10
3.727357761891574
 20
0.0000000145908932
 30
9.578734236676524
 11
3.732029595942904
 21
0.0000000145908932
 31
9.578734236676524
210
0.0
220
-1.0
230
0.0
  0
LINE
  5
156E
330
1F
100
AcDbEntity
  8
0
  6
Continuous
 62
     7
370
    15
100
AcDbLine
 10
3.732029595942904
 20
0.0000000145908932
 30
9.61756303884753
 11
3.732029595942904
 21
0.0000000145908932
 31
9.578734236676524
210
0.0
220
-1.0
230
0.0
  0
LINE
  5
156F
330
1F
100
AcDbEntity
  8
0
  6
Continuous
 62
     7
370
    15
100
AcDbLine
 10
3.720586896843769
 20
0.0000000145908932
 30
9.61756303884753
 11
3.732029595942904
 21
0.0000000145908932
 31
9.61756303884753
210
0.0
220
-1.0
230
0.0
  0
LINE
  5
1570
330
1F
100
AcDbEntity
  8
0
  6
Continuous
 62
     7
370
    15
100
AcDbLine
 10
3.76618242185492
 20
0.0000000145908932
 30
9.578734236676524
 11
3.764907866967254
 21
0.0000000145908932
 31
9.578734236676524
210
0.0
220
-1.0
230
0.0
  0
LINE
  5
1571
330
1F
100
AcDbEntity
  8
0
  6
Continuous
 62
     7
370
    15
100
AcDbLine
 10
3.777267932854644
 20
0.0000000145908932
 30
9.578734236676524
 11
3.774877879539261
 21
0.0000000145908932
 31
9.578734236676524
210
0.0
220
-1.0
230
0.0
  0
LINE
  5
1572
330
1F
100
AcDbEntity
  8
0
  6
Continuous
 62
     7
370
    15
100
AcDbLine
 10
3.76618242185492
 20
0.0000000145908932
 30
9.578734236676524
 11
3.774877879539261
 21
0.0000000145908932
 31
9.578734236676524
210
0.0
220
-1.0
230
0.0
  0
LINE
  5
1573
330
1F
100
AcDbEntity
  8
0
  6
Continuous
 62
     7
370
    15
100
AcDbLine
 10
3.774877879539261
 20
0.0000000145908932
 30
9.61756303884753
 11
3.774877879539261
 21
0.0000000145908932
 31
9.578734236676524
210
0.0
220
-1.0
230
0.0
  0
LINE
  5
1574
330
1F
100
AcDbEntity
  8
0
  6
Continuous
 62
     7
370
    15
100
AcDbLine
 10
3.764053818876374
 20
0.0000000145908932
 30
9.61756303884753
 11
3.774877879539261
 21
0.0000000145908932
 31
9.61756303884753
210
0.0
220
-1.0
230
0.0
  0
LINE
  5
1575
330
1F
100
AcDbEntity
  8
0
  6
Continuous
 62
     7
370
    15
100
AcDbLine
 10
3.774877879539261
 20
0.0000000145908932
 30
9.61756303884753
 11
3.775469355582323
 21
0.0000000145908932
 31
9.61756303884753
210
0.0
220
-1.0
230
0.0
  0
LINE
  5
1576
330
1F
100
AcDbEntity
  8
0
  6
Continuous
 62
     7
370
    15
100
AcDbLine
 10
3.775469355582323
 20
0.0000000145908932
 30
9.61756303884753
 11
3.775469355582323
 21
0.0000000145908932
 31
9.691102755893413
210
0.0
220
-1.0
230
0.0
  0
LINE
  5
15AB
330
1F
100
AcDbEntity
  8
0
100
AcDbLine
 10
2.531611945489444
 20
-0.0000000148414097
 30
5.099643016878495
 11
3.71044135635266
 21
-0.0000000148414097
 31
5.099643016878495
210
0.0
220
1.0
230
0.0
  0
LINE
  5
15AE
330
1F
100
AcDbEntity
  8
0
100
AcDbLine
 10
3.426636481132658
 20
-0.0000000074207049
 30
5.48490605452213
 11
3.376310812079066
 21
-0.0000000074207049
 31
5.48490605452213
210
0.0
220
-1.0
230
0.0
  0
LINE
  5
15AF
330
1F
100
AcDbEntity
  8
0
100
AcDbLine
 10
3.730624212387895
 20
-0.0000000074207049
 30
5.195566814331846
 11
3.376310812079065
 21
-0.0000000074207049
 31
5.195566814331846
210
0.0
220
-1.0
230
0.0
  0
LINE
  5
15B0
330
1F
100
AcDbEntity
  8
0
100
AcDbLine
 10
2.531611945489444
 20
-0.0000000148414097
 30
5.583149156414861
 11
3.502065712837813
 21
-0.0000000148414097
 31
5.583149156414861
210
0.0
220
-1.0
230
0.0
  0
LINE
  5
15B3
330
1F
100
AcDbEntity
  8
0
100
AcDbLine
 10
2.531611945489444
 20
-0.0000000148414097
 30
5.583149156414861
 11
2.531611945489444
 21
-0.0000000148414097
 31
5.099643016878495
210
0.0
220
1.0
230
0.0
  0
ARC
  5
15B5
330
1F
100
AcDbEntity
  8
0
100
AcDbCircle
 10
3.690298135653083
 20
5.462364222646456
 30
0.0000000074207049
 40
0.2698278146303981
210
0.0
220
-1.0
230
0.0
100
AcDbArc
 50
278.5951211476511
 51
4.792163104095265
  0
LINE
  5
15B6
330
1F
100
AcDbEntity
  8
0
100
AcDbLine
 10
3.376310812079065
 20
-0.0000000074207049
 30
5.549538630782977
 11
3.376310812079065
 21
-0.0000000074207049
 31
5.130917951453621
210
0.0
220
-1.0
230
0.0
  0
LINE
  5
15B7
330
1F
100
AcDbEntity
  8
0
100
AcDbLine
 10
3.502065712837813
 20
-0.0000000074207049
 30
5.727653514039146
 11
3.959182711937977
 21
-0.0000000074207049
 31
5.727653514039146
210
0.0
220
1.0
230
0.0
  0
ARC
  5
15B9
330
1F
100
AcDbEntity
  8
0
100
AcDbCircle
 10
3.426636481132658
 20
5.560335286227285
 30
0.0000000074207049
 40
0.075429231705154
210
0.0
220
-1.0
230
0.0
100
AcDbArc
 50
269.9999999999998
 51
0.0
  0
LINE
  5
15BA
330
1F
100
AcDbEntity
  8
0
100
AcDbLine
 10
3.502065712837813
 20
-0.0000000074207049
 30
5.560335286227285
 11
3.502065712837813
 21
-0.0000000074207049
 31
5.727653514039146
210
0.0
220
1.0
230
0.0
  0
LINE
  5
15BC
330
1F
100
AcDbEntity
  8
0
100
AcDbLine
 10
3.959182711937978
 20
-0.0000000074207049
 30
5.48490605452213
 11
3.959182711937977
 21
-0.0000000074207049
 31
5.727653514039146
210
0.0
220
1.0
230
0.0
  0
LINE
  5
15C1
330
1F
100
AcDbEntity
  8
0
100
AcDbLine
 10
3.71044135635266
 20
-0.0000000148414097
 30
5.195566814331846
 11
3.71044135635266
 21
-0.0000000148414097
 31
5.099643016878495
210
0.0
220
1.0
230
-6.123031769111886E-17
  0
LINE
  5
15C7
330
1F
100
AcDbEntity
  8
0
100
AcDbLine
 10
3.916313891699302
 20
0.0000000145908933
 30
8.183529134784653
 11
3.997679990757026
 21
0.0000000145908933
 31
8.183529134784653
210
0.0
220
-1.0
230
0.0
  0
LINE
  5
15C8
330
1F
100
AcDbEntity
  8
0
100
AcDbLine
 10
3.916313891699302
 20
0.0000000145908933
 30
8.113216634784653
 11
3.997679990757026
 21
0.0000000145908933
 31
8.113216634784653
210
0.0
220
-1.0
230
0.0
  0
LINE
  5
15C9
330
1F
100
AcDbEntity
  8
0
100
AcDbLine
 10
3.909009802546157
 20
0.0000000145908933
 30
7.923902032762595
 11
3.909009802546157
 21
0.0000000145908933
 31
7.907020349102844
210
0.0
220
-1.0
230
0.0
  0
LINE
  5
15CA
330
1F
100
AcDbEntity
  8
0
100
AcDbLine
 10
3.916313891699302
 20
0.0000000145908932
 30
7.878841634784652
 11
3.999147187999374
 21
0.0000000145908932
 31
7.878841634784652
210
0.0
220
-1.0
230
0.0
  0
LINE
  5
15CB
330
1F
100
AcDbEntity
  8
0
100
AcDbLine
 10
3.916313891699302
 20
0.0000000145908932
 30
7.808529134784652
 11
3.99710299837447
 21
0.0000000145908932
 31
7.808529134784652
210
0.0
220
-1.0
230
0.0
  0
LINE
  5
15CC
330
1F
100
AcDbEntity
  8
0
100
AcDbLine
 10
3.916313891699302
 20
0.0000000145908932
 30
7.738216634784652
 11
3.993014577268117
 21
0.0000000145908932
 31
7.738216634784652
210
0.0
220
-1.0
230
0.0
  0
TEXT
  5
15D2
330
1F
100
AcDbEntity
  8
0
100
AcDbText
 10
-1.72452327679238
 20
3.188786498551688
 30
0.0000000072954461
 40
0.0888620774192805
  1
MP-124  12" HEIGHT 90º WITH .23 GPM AT 30 PSI
 50
180.0
 71
     4
210
0.0
220
1.0
230
-6.123031769111886E-17
100
AcDbText
  0
LINE
  5
15E1
330
1F
100
AcDbEntity
  8
0
100
AcDbLine
 10
5.668796780328237
 20
0.0
 30
9.285543412647941
 11
4.500129398093054
 21
0.0
 31
9.285543412647941
210
0.0
220
-1.0
230
0.0
  0
TEXT
  5
15E2
330
1F
100
AcDbEntity
  8
0
100
AcDbText
 10
-5.749920893721526
 20
9.240073902132789
 30
0.0
 40
0.0888620774192805
  1
1
 50
180.0
 71
     4
210
0.0
220
1.0
230
-6.123031769111886E-17
100
AcDbText
  0
CIRCLE
  5
15E3
330
1F
100
AcDbEntity
  8
0
100
AcDbCircle
 10
-5.766836321310199
 20
9.285543412647941
 30
-0.0000000000000005
 40
0.0980395409819625
210
0.0
220
1.0
230
-6.123031769111886E-17
  0
TEXT
  5
15EC
330
1F
100
AcDbEntity
  8
0
100
AcDbText
 10
-5.744772641350383
 20
8.72359632734554
 30
0.0
 40
0.0888620774192805
  1
2
 50
180.0
 71
     4
210
0.0
220
1.0
230
-6.123031769111886E-17
100
AcDbText
  0
CIRCLE
  5
15ED
330
1F
100
AcDbEntity
  8
0
100
AcDbCircle
 10
-5.77171089740406
 20
8.769065837860692
 30
-0.0000000000000005
 40
0.0980395409819625
210
0.0
220
1.0
230
-6.123031769111886E-17
  0
TEXT
  5
15F8
330
1F
100
AcDbEntity
  8
0
100
AcDbText
 10
-5.779752173559191
 20
6.319611903277867
 30
0.0
 40
0.0888620774192805
  1
3
 50
180.0
 71
     4
210
0.0
220
1.0
230
-6.123031769111886E-17
100
AcDbText
  0
LINE
  5
15F9
330
1F
100
AcDbEntity
  8
0
100
AcDbLine
 10
5.708650888630907
 20
0.0
 30
6.365081413793019
 11
4.622348719516197
 21
0.0
 31
6.365081413793019
210
0.0
220
-1.0
230
0.0
  0
CIRCLE
  5
15FA
330
1F
100
AcDbEntity
  8
0
100
AcDbCircle
 10
-5.806690429612869
 20
6.365081413793019
 30
-0.0000000000000004
 40
0.0980395409819625
210
0.0
220
1.0
230
-6.123031769111886E-17
  0
TEXT
  5
1604
330
1F
100
AcDbEntity
  8
0
100
AcDbText
 10
-5.769297894998952
 20
5.835145945084452
 30
0.0
 40
0.0888620774192805
  1
5
 50
180.0
 71
     4
210
0.0
220
1.0
230
-6.123031769111886E-17
100
AcDbText
  0
CIRCLE
  5
1605
330
1F
100
AcDbEntity
  8
0
100
AcDbCircle
 10
-5.796236151052629
 20
5.880615455599605
 30
-0.0000000000000004
 40
0.0980395409819625
210
0.0
220
1.0
230
-6.123031769111886E-17
  0
LINE
  5
160A
330
1F
100
AcDbEntity
  8
0
100
AcDbLine
 10
5.673671356422098
 20
0.0
 30
8.769065837860692
 11
4.796505198248609
 21
0.0
 31
8.769065837860692
210
0.0
220
-1.0
230
0.0
  0
LINE
  5
160B
330
1F
100
AcDbEntity
  8
0
100
AcDbLine
 10
5.698196610070667
 20
0.0
 30
5.880615455599604
 11
5.166673993652537
 21
0.0
 31
5.880615455599607
210
0.0
220
-1.0
230
0.0
  0
LINE
  5
160D
330
1F
100
AcDbEntity
  8
0
100
AcDbLine
 10
4.622348719516197
 20
0.0
 30
6.365081413793019
 11
3.959182711937978
 21
0.0000000132071198
 31
5.650438147614898
210
0.0
220
-1.0
230
0.0
  0
LINE
  5
160E
330
1F
100
AcDbEntity
  8
0
100
AcDbLine
 10
5.166673993652537
 20
0.0
 30
5.880615455599607
 11
4.785752049880639
 21
0.0000000108432685
 31
5.501723319912219
210
0.0
220
-1.0
230
0.0
  0
LINE
  5
160F
330
1F
100
AcDbEntity
  8
0
100
AcDbLine
 10
4.796505198248609
 20
0.0
 30
8.769065837860692
 11
4.330884802546157
 21
0.0000000145908933
 31
8.320467515995949
210
0.0
220
-1.0
230
0.0
  0
LINE
  5
1610
330
1F
100
AcDbEntity
  8
0
100
AcDbLine
 10
4.500129398093054
 20
0.0
 30
9.285543412647941
 11
3.84430242188816
 21
0.000000013395007
 31
8.631621687042491
210
0.0
220
-1.0
230
0.0
  0
LINE
  5
1612
330
1F
100
AcDbEntity
  8
0
100
AcDbLine
 10
3.597353676583187
 20
0.0000000145908932
 30
9.717743643703022
 11
2.888662458319335
 21
0.0000000145908932
 31
9.717743643703022
210
0.0
220
-1.0
230
0.0
  0
LINE
  5
1613
330
1F
100
AcDbEntity
  8
0
100
AcDbLine
 10
3.270652050845553
 20
0.0000000145908932
 30
9.70769904154463
 11
3.270652050845553
 21
0.0000000145908932
 31
9.205469327352516
210
0.0
220
-1.0
230
0.0
  0
LINE
  5
1614
330
1F
100
AcDbEntity
  8
0
100
AcDbLine
 10
3.270652050845553
 20
0.0000000145908932
 30
8.88906461774683
 11
3.270652050845553
 21
0.0000000145908932
 31
8.3014558467283
210
0.0
220
-1.0
230
0.0
  0
MTEXT
  5
1615
330
1F
100
AcDbEntity
  8
0
100
AcDbMText
 10
2.804240402554236
 20
0.0000000145908932
 30
9.136589980399455
 40
0.15
 41
0.3501
 71
     1
 72
     5
  1
2"-4"
210
0.0
220
-1.0
230
0.0
 73
     1
 44
1.0
  0
LINE
  5
16A1
330
1F
100
AcDbEntity
  8
0
100
AcDbLine
 10
3.132748345821319
 20
0.0
 30
5.549538630782977
 11
3.376310812079065
 21
0.0
 31
5.549538630782977
210
0.0
220
-1.0
230
0.0
  0
LINE
  5
16A2
330
1F
100
AcDbEntity
  8
0
100
AcDbLine
 10
3.132748345821319
 20
0.0
 30
5.130917951453621
 11
3.376310812079065
 21
0.0
 31
5.130917951453621
210
0.0
220
-1.0
230
0.0
  0
LINE
  5
16A3
330
1F
100
AcDbEntity
  8
0
100
AcDbLine
 10
3.132748345821319
 20
0.0
 30
5.549538630782977
 11
3.132748345821319
 21
0.0
 31
5.130917951453621
210
0.0
220
-1.0
230
0.0
  0
ARC
  5
16A5
330
1F
100
AcDbEntity
  8
0
100
AcDbCircle
 10
3.132748345821319
 20
5.340228291118299
 30
0.0
 40
0.1793632436082619
210
0.0
220
-1.0
230
0.0
100
AcDbArc
 50
90.0000000000008
 51
270.0000000000015
  0
CIRCLE
  5
16A7
330
1F
100
AcDbEntity
  8
0
100
AcDbCircle
 10
-1.510913779118965
 20
1.758596670012595
 30
0.0000000072954462
 40
0.0980395409819625
210
0.0
220
1.0
230
0.0
  0
TEXT
  5
16A8
330
1F
100
AcDbEntity
  8
0
100
AcDbText
 10
-1.483975523065288
 20
1.713127159497445
 30
0.0000000072954462
 40
0.0888620774192805
  1
5
 50
179.9999999999999
 71
     4
210
0.0
220
1.0
230
0.0
100
AcDbText
  0
CIRCLE
  5
16AF
330
1F
100
AcDbEntity
  8
0
100
AcDbCircle
 10
-1.673617930234064
 20
5.962122229319249
 30
0.0
 40
0.0980395409819623
210
0.0
220
1.0
230
0.0
  0
LINE
  5
16B0
330
1F
100
AcDbEntity
  8
0
100
AcDbLine
 10
1.771657471216026
 20
0.0
 30
5.962122229319248
 11
2.303180087634157
 21
0.0
 31
5.962122229319251
210
0.0
220
-1.0
230
0.0
  0
LINE
  5
16B1
330
1F
100
AcDbEntity
  8
0
100
AcDbLine
 10
2.303180087634157
 20
0.0
 30
5.962122229319251
 11
2.684102031406054
 21
0.0000000108432685
 31
5.583230093631863
210
0.0
220
-1.0
230
0.0
  0
TEXT
  5
16B2
330
1F
100
AcDbEntity
  8
0
100
AcDbText
 10
-1.641296933306281
 20
5.916652718804096
 30
0.0
 40
0.0888620774192805
  1
4
 50
180.0
 71
     4
210
0.0
220
1.0
230
0.0
100
AcDbText
  0
TEXT
  5
16B3
330
1F
100
AcDbEntity
  8
0
100
AcDbText
 10
-1.72452327679238
 20
1.999750396292041
 30
0.0000000072954462
 40
0.0888620774192805
  1
3/4" PVC SCH 40 TEE X 1/2" MNPT
 50
180.0
 71
     4
210
0.0
220
1.0
230
0.0
100
AcDbText
  0
TEXT
  5
16B4
330
1F
100
AcDbEntity
  8
0
100
AcDbText
 10
-1.72452327679238
 20
3.49067171488894
 30
0.0000000072954463
 40
0.0888620774192805
  1
MP-803   8" HEIGHT 360º WITH .63 GPM AT 30 PSI
 50
180.0
 71
     4
210
0.0
220
1.0
230
0.0
100
AcDbText
  0
TEXT
  5
16B5
330
1F
100
AcDbEntity
  8
0
100
AcDbText
 10
-1.72452327679238
 20
3.636222618096969
 30
0.0000000072954463
 40
0.0888620774192805
  1
MP-802   8" HEIGHT 180º WITH .45 GPM AT 30 PSI
 50
180.0
 71
     4
210
0.0
220
1.0
230
0.0
100
AcDbText
  0
TEXT
  5
16B6
330
1F
100
AcDbEntity
  8
0
100
AcDbText
 10
-1.72452327679238
 20
3.781175592884885
 30
0.0000000072954463
 40
0.0888620774192805
  1
MP-801   8" HEIGHT 90º WITH .23 GPM AT 30 PSI
 50
180.0
 71
     4
210
0.0
220
1.0
230
0.0
100
AcDbText
  0
MTEXT
  5
1715
330
1F
100
AcDbEntity
  8
0
100
AcDbMText
 10
1.691695169542564
 20
12.01982172627172
 30
0.8006827313878677
 40
0.3000000000000007
 41
0.4354999999999993
 71
     1
 72
     5
  1
{\fArial|b0|i0|c0|p34;1}
210
0.0
220
-1.0
230
0.0
 73
     1
 44
1.0
  0
CIRCLE
  5
1716
330
1F
100
AcDbEntity
  8
0
100
AcDbCircle
 10
1.823124828261021
 20
0.6499983283935773
 30
-12.01982172627172
 40
0.249906188062134
210
0.0
220
-1.0
230
0.0
  0
LINE
  5
1717
330
1F
100
AcDbEntity
  8
0
100
AcDbLine
 10
2.072862976911436
 20
12.01982172627172
 30
0.6498331168632543
 11
6.496656976857127
 21
12.01982172627172
 31
0.6535514865750311
210
0.0
220
-1.0
230
0.0
  0
MTEXT
  5
1718
330
1F
100
AcDbEntity
  8
0
100
AcDbMText
 10
2.307824431453025
 20
12.01982172627172
 30
0.8551912516152704
 40
0.125
 41
6.725592167857132
 71
     1
 72
     5
  1
{\fCentury Gothic|b0|i0|c0|p34;8 &12" POPUP MICRO SPRINKLER WITH 1/2" BASE}
210
0.0
220
-1.0
230
0.0
 73
     1
 44
1.0
  0
TEXT
  5
171F
330
1F
100
AcDbEntity
  8
0
100
AcDbText
 10
7.035405581852444
 20
0.0827961559339503
 30
-3.004955431567929
 40
0.068
  1
DATE: 3-31-09
210
0.0
220
-1.0
230
0.0
100
AcDbText
  0
TEXT
  5
1720
330
1F
100
AcDbEntity
  8
0
100
AcDbText
 10
7.035405581852444
 20
0.1936099169522443
 30
-3.004955431567929
 40
0.068
  1
NOT TO SCALE
210
0.0
220
-1.0
230
0.0
100
AcDbText
  0
MTEXT
  5
1726
330
1F
100
AcDbEntity
  8
0
100
AcDbMText
 10
0.0569065796693544
 20
-9.014866294703786
 30
0.1495796096034976
 40
0.0684360496240188
 41
0.2397
 71
     1
 72
     5
  1
{\fCentury Gothic|b0|i0|c0|p34;F-1}
210
0.0
220
-1.0
230
0.0
 73
     1
 44
1.0
  0
ENDSEC
  0
SECTION
  2
OBJECTS
  0
DICTIONARY
  5
C
330
0
100
AcDbDictionary
281
     1
  3
ACAD_COLOR
350
6C
  3
ACAD_GROUP
350
D
  3
ACAD_LAYOUT
350
1A
  3
ACAD_MATERIAL
350
6B
  3
ACAD_MLEADERSTYLE
350
1697
  3
ACAD_MLINESTYLE
350
17
  3
ACAD_PLOTSETTINGS
350
19
  3
ACAD_PLOTSTYLENAME
350
E
  3
ACAD_SCALELIST
350
99
  3
ACAD_TABLESTYLE
350
92
  3
ACAD_WIPEOUT_VARS
350
1750
  3
ACDBHEADERROUNDTRIPXREC
350
1768
  3
AcDbVariableDictionary
350
59
  3
ASE_INDEX_DICTIONARY
350
1577
  3
DWGPROPS
350
176B
  0
DICTIONARY
  5
1767
330
1F
100
AcDbDictionary
280
     1
281
     1
  0
DICTIONARY
  5
6C
102
{ACAD_REACTORS
330
C
102
}
330
C
100
AcDbDictionary
281
     1
  0
DICTIONARY
  5
D
102
{ACAD_REACTORS
330
C
102
}
330
C
100
AcDbDictionary
281
     1
  0
DICTIONARY
  5
1A
102
{ACAD_REACTORS
330
C
102
}
330
C
100
AcDbDictionary
281
     1
  3
Layout1
350
74
  3
Model
350
22
  0
DICTIONARY
  5
6B
102
{ACAD_REACTORS
330
C
102
}
330
C
100
AcDbDictionary
281
     1
  0
DICTIONARY
  5
1697
102
{ACAD_REACTORS
330
C
102
}
330
C
100
AcDbDictionary
281
     1
  0
DICTIONARY
  5
17
102
{ACAD_REACTORS
330
C
102
}
330
C
100
AcDbDictionary
281
     1
  3
Standard
350
18
  0
DICTIONARY
  5
19
102
{ACAD_REACTORS
330
C
102
}
330
C
100
AcDbDictionary
281
     1
  0
ACDBDICTIONARYWDFLT
  5
E
102
{ACAD_REACTORS
330
C
102
}
330
C
100
AcDbDictionary
281
     1
  3
Normal
350
F
100
AcDbDictionaryWithDefault
340
F
  0
DICTIONARY
  5
99
102
{ACAD_REACTORS
330
C
102
}
330
C
100
AcDbDictionary
281
     1
  3
A0
350
1626
  3
A1
350
1627
  3
A2
350
1628
  3
A3
350
1629
  3
A4
350
162A
  3
A5
350
162B
  3
A6
350
162C
  3
A7
350
162D
  3
A8
350
162E
  3
A9
350
162F
  3
B0
350
1630
  3
B1
350
1631
  3
B2
350
1632
  3
B3
350
1633
  3
B4
350
1634
  3
B5
350
1635
  3
B6
350
1636
  3
B7
350
1637
  3
B8
350
1638
  3
B9
350
1639
  3
C0
350
163A
  3
C1
350
163B
  3
C2
350
163C
  3
C3
350
163D
  3
C4
350
163E
  3
C5
350
163F
  3
C6
350
1640
  3
C7
350
1641
  3
C8
350
1642
  3
C9
350
1643
  3
D0
350
1644
  3
D1
350
1645
  3
D2
350
1646
  0
DICTIONARY
  5
92
102
{ACAD_REACTORS
330
C
102
}
330
C
100
AcDbDictionary
281
     1
  0
WIPEOUTVARIABLES
  5
1750
102
{ACAD_REACTORS
330
C
102
}
330
C
100
AcDbWipeoutVariables
 70
     1
  0
DICTIONARY
  5
1768
102
{ACAD_REACTORS
330
C
102
}
330
C
100
AcDbDictionary
281
     1
  3
COLORDICT
350
1769
  3
MATERIALDICT
350
176A
  0
DICTIONARY
  5
59
102
{ACAD_REACTORS
330
C
102
}
330
C
100
AcDbDictionary
281
     1
  3
CTABLESTYLE
350
98
  3
DIMASSOC
350
1647
  3
HIDETEXT
350
16E6
  3
SORTENTS
350
238
  0
DICTIONARY
  5
1577
102
{ACAD_REACTORS
330
C
102
}
330
C
100
AcDbDictionary
281
     1
  3
ASEBLOCKHIERARCHYINDEXRECORD
350
1578
  0
XRECORD
  5
176B
102
{ACAD_REACTORS
330
C
102
}
330
C
100
AcDbXrecord
280
     1
  1
DWGPROPS COOKIE
  2

  3

  4

  6

  7

  8
craigb
  9

300
=
301
=
302
=
303
=
304
=
305
=
306
=
307
=
308
=
309
=
 40
0.0
 41
2453353.717125822
 42
2454922.94300875
  1

 90
        0
  0
LAYOUT
  5
74
102
{ACAD_REACTORS
330
1A
102
}
330
1A
100
AcDbPlotSettings
  1

  2
\\ADSCCNDC1\hq601xrx1
  4

  6

 40
0.0
 41
0.0
 42
0.0
 43
0.0
 44
0.0
 45
0.0
 46
0.0
 47
0.0
 48
0.0
 49
0.0
140
0.0
141
0.0
142
1.0
143
1.0
 70
   688
 72
     0
 73
     0
 74
     5
  7

 75
    16
147
1.0
148
0.0
149
0.0
100
AcDbLayout
  1
Layout1
 70
     1
 71
     1
 10
0.0
 20
0.0
 11
12.0
 21
9.0
 12
0.0
 22
0.0
 32
0.0
 14
1.000000000000000E+20
 24
1.000000000000000E+20
 34
1.000000000000000E+20
 15
-1.000000000000000E+20
 25
-1.000000000000000E+20
 35
-1.000000000000000E+20
146
0.0
 13
0.0
 23
0.0
 33
0.0
 16
1.0
 26
0.0
 36
0.0
 17
0.0
 27
1.0
 37
0.0
 76
     0
330
73
  0
LAYOUT
  5
22
102
{ACAD_REACTORS
330
1A
102
}
330
1A
100
AcDbPlotSettings
  1

  2
none_device
  4
Sun_Hi-Res_(1280.00_x_1600.00_Pixels)
  6

 40
7.143749713897705
 41
6.720414161682129
 42
7.14373779296875
 43
5.027069091796875
 44
1280.0
 45
1600.0
 46
0.0
 47
0.0
 48
-2.2156
 49
-9.9763
140
6.0984
141
0.8841000000000001
142
0.0
143
0.0
 70
 11936
 72
     2
 73
     0
 74
     4
  7

 75
     0
147
147.3242237854959
148
0.0000005507457482
149
0.0
100
AcDbLayout
  1
Model
 70
     1
 71
     0
 10
0.0
 20
0.0
 11
12.0
 21
9.0
 12
-8.053943867091364
 22
0.0
 32
0.0000000000000006
 14
-0.0000000216829061
 24
-9.014866294703786
 34
0.0
 15
7.939999978317097
 25
12.01982172627172
 35
10.44
146
0.0
 13
0.0
 23
0.0
 33
0.0
 16
1.0
 26
0.0
 36
0.0
 17
0.0
 27
1.0
 37
0.0
 76
     0
330
1F
331
97
  0
MLINESTYLE
  5
18
102
{ACAD_REACTORS
330
17
102
}
330
17
100
AcDbMlineStyle
  2
Standard
 70
     0
  3

 62
   256
 51
90.0
 52
90.0
 71
     2
 49
0.5
 62
   256
  6
BYLAYER
 49
-0.5
 62
   256
  6
BYLAYER
  0
ACDBPLACEHOLDER
  5
F
102
{ACAD_REACTORS
330
E
102
}
330
E
  0
SCALE
  5
1626
102
{ACAD_REACTORS
330
99
102
}
330
99
100
AcDbScale
 70
     0
300
1:1
140
1.0
141
1.0
290
     1
  0
SCALE
  5
1627
102
{ACAD_REACTORS
330
99
102
}
330
99
100
AcDbScale
 70
     0
300
1:2
140
1.0
141
2.0
290
     1
  0
SCALE
  5
1628
102
{ACAD_REACTORS
330
99
102
}
330
99
100
AcDbScale
 70
     0
300
1:4
140
1.0
141
4.0
290
     1
  0
SCALE
  5
1629
102
{ACAD_REACTORS
330
99
102
}
330
99
100
AcDbScale
 70
     0
300
1:5
140
1.0
141
5.0
290
     1
  0
SCALE
  5
162A
102
{ACAD_REACTORS
330
99
102
}
330
99
100
AcDbScale
 70
     0
300
1:8
140
1.0
141
8.0
290
     1
  0
SCALE
  5
162B
102
{ACAD_REACTORS
330
99
102
}
330
99
100
AcDbScale
 70
     0
300
1:10
140
1.0
141
10.0
290
     1
  0
SCALE
  5
162C
102
{ACAD_REACTORS
330
99
102
}
330
99
100
AcDbScale
 70
     0
300
1:16
140
1.0
141
16.0
290
     1
  0
SCALE
  5
162D
102
{ACAD_REACTORS
330
99
102
}
330
99
100
AcDbScale
 70
     0
300
1:20
140
1.0
141
20.0
290
     1
  0
SCALE
  5
162E
102
{ACAD_REACTORS
330
99
102
}
330
99
100
AcDbScale
 70
     0
300
1:30
140
1.0
141
30.0
290
     1
  0
SCALE
  5
162F
102
{ACAD_REACTORS
330
99
102
}
330
99
100
AcDbScale
 70
     0
300
1:40
140
1.0
141
40.0
290
     1
  0
SCALE
  5
1630
102
{ACAD_REACTORS
330
99
102
}
330
99
100
AcDbScale
 70
     0
300
1:50
140
1.0
141
50.0
290
     1
  0
SCALE
  5
1631
102
{ACAD_REACTORS
330
99
102
}
330
99
100
AcDbScale
 70
     0
300
1:100
140
1.0
141
100.0
290
     1
  0
SCALE
  5
1632
102
{ACAD_REACTORS
330
99
102
}
330
99
100
AcDbScale
 70
     0
300
2:1
140
2.0
141
1.0
290
     1
  0
SCALE
  5
1633
102
{ACAD_REACTORS
330
99
102
}
330
99
100
AcDbScale
 70
     0
300
4:1
140
4.0
141
1.0
290
     1
  0
SCALE
  5
1634
102
{ACAD_REACTORS
330
99
102
}
330
99
100
AcDbScale
 70
     0
300
8:1
140
8.0
141
1.0
290
     1
  0
SCALE
  5
1635
102
{ACAD_REACTORS
330
99
102
}
330
99
100
AcDbScale
 70
     0
300
10:1
140
10.0
141
1.0
290
     1
  0
SCALE
  5
1636
102
{ACAD_REACTORS
330
99
102
}
330
99
100
AcDbScale
 70
     0
300
100:1
140
100.0
141
1.0
290
     1
  0
SCALE
  5
1637
102
{ACAD_REACTORS
330
99
102
}
330
99
100
AcDbScale
 70
     0
300
1/128" = 1'-0"
140
0.0078125
141
12.0
290
     1
  0
SCALE
  5
1638
102
{ACAD_REACTORS
330
99
102
}
330
99
100
AcDbScale
 70
     0
300
1/64" = 1'-0"
140
0.015625
141
12.0
290
     1
  0
SCALE
  5
1639
102
{ACAD_REACTORS
330
99
102
}
330
99
100
AcDbScale
 70
     0
300
1/32" = 1'-0"
140
0.03125
141
12.0
290
     1
  0
SCALE
  5
163A
102
{ACAD_REACTORS
330
99
102
}
330
99
100
AcDbScale
 70
     0
300
1/16" = 1'-0"
140
0.0625
141
12.0
290
     1
  0
SCALE
  5
163B
102
{ACAD_REACTORS
330
99
102
}
330
99
100
AcDbScale
 70
     0
300
3/32" = 1'-0"
140
0.09375
141
12.0
290
     1
  0
SCALE
  5
163C
102
{ACAD_REACTORS
330
99
102
}
330
99
100
AcDbScale
 70
     0
300
1/8" = 1'-0"
140
0.125
141
12.0
290
     1
  0
SCALE
  5
163D
102
{ACAD_REACTORS
330
99
102
}
330
99
100
AcDbScale
 70
     0
300
3/16" = 1'-0"
140
0.1875
141
12.0
290
     1
  0
SCALE
  5
163E
102
{ACAD_REACTORS
330
99
102
}
330
99
100
AcDbScale
 70
     0
300
1/4" = 1'-0"
140
0.25
141
12.0
290
     1
  0
SCALE
  5
163F
102
{ACAD_REACTORS
330
99
102
}
330
99
100
AcDbScale
 70
     0
300
3/8" = 1'-0"
140
0.375
141
12.0
290
     1
  0
SCALE
  5
1640
102
{ACAD_REACTORS
330
99
102
}
330
99
100
AcDbScale
 70
     0
300
1/2" = 1'-0"
140
0.5
141
12.0
290
     1
  0
SCALE
  5
1641
102
{ACAD_REACTORS
330
99
102
}
330
99
100
AcDbScale
 70
     0
300
3/4" = 1'-0"
140
0.75
141
12.0
290
     1
  0
SCALE
  5
1642
102
{ACAD_REACTORS
330
99
102
}
330
99
100
AcDbScale
 70
     0
300
1" = 1'-0"
140
1.0
141
12.0
290
     1
  0
SCALE
  5
1643
102
{ACAD_REACTORS
330
99
102
}
330
99
100
AcDbScale
 70
     0
300
1-1/2" = 1'-0"
140
1.5
141
12.0
290
     1
  0
SCALE
  5
1644
102
{ACAD_REACTORS
330
99
102
}
330
99
100
AcDbScale
 70
     0
300
3" = 1'-0"
140
3.0
141
12.0
290
     1
  0
SCALE
  5
1645
102
{ACAD_REACTORS
330
99
102
}
330
99
100
AcDbScale
 70
     0
300
6" = 1'-0"
140
6.0
141
12.0
290
     1
  0
SCALE
  5
1646
102
{ACAD_REACTORS
330
99
102
}
330
99
100
AcDbScale
 70
     0
300
1'-0" = 1'-0"
140
12.0
141
12.0
290
     1
  0
XRECORD
  5
1769
102
{ACAD_REACTORS
330
1768
102
}
330
1768
100
AcDbXrecord
280
     1
340
6C
  0
XRECORD
  5
176A
102
{ACAD_REACTORS
330
1768
102
}
330
1768
100
AcDbXrecord
280
     1
340
6B
  0
DICTIONARYVAR
  5
98
102
{ACAD_REACTORS
330
59
102
}
330
59
100
DictionaryVariables
280
     0
  1

  0
DICTIONARYVAR
  5
1647
102
{ACAD_REACTORS
330
59
102
}
330
59
100
DictionaryVariables
280
     0
  1
2
  0
DICTIONARYVAR
  5
16E6
102
{ACAD_REACTORS
330
59
102
}
330
59
100
DictionaryVariables
280
     0
  1
1
  0
DICTIONARYVAR
  5
238
102
{ACAD_REACTORS
330
59
102
}
330
59
100
DictionaryVariables
280
     0
  1
127
  0
XRECORD
  5
1578
102
{ACAD_REACTORS
330
1577
102
}
330
1577
100
AcDbXrecord
280
     1
330
29
330
2D
  0
ENDSEC
  0
EOF
