  0
SECTION
  2
HEADER
  9
$ACADVER
  1
AC1015
  9
$ACADMAINTVER
 70
     6
  9
$DWGCODEPAGE
  3
ANSI_1252
  9
$INSBASE
 10
0.0
 20
0.0
 30
0.0
  9
$EXTMIN
 10
-0.0000000216829044
 20
0.000000007295446
 30
-0.0000000000000002
  9
$EXTMAX
 10
7.939999978317097
 20
5.220000007295446
 30
0.0
  9
$LIMMIN
 10
0.0
 20
0.0
  9
$LIMMAX
 10
12.0
 20
9.0
  9
$ORTHOMODE
 70
     1
  9
$REGENMODE
 70
     1
  9
$FILLMODE
 70
     1
  9
$QTEXTMODE
 70
     0
  9
$MIRRTEXT
 70
     1
  9
$LTSCALE
 40
1.0
  9
$ATTMODE
 70
     1
  9
$TEXTSIZE
 40
0.2062263569695946
  9
$TRACEWID
 40
0.05
  9
$TEXTSTYLE
  7
Standard
  9
$CLAYER
  8
0
  9
$CELTYPE
  6
ByLayer
  9
$CECOLOR
 62
   256
  9
$CELTSCALE
 40
1.0
  9
$DISPSILH
 70
     0
  9
$DIMSCALE
 40
1.0
  9
$DIMASZ
 40
0.09
  9
$DIMEXO
 40
0.0625
  9
$DIMDLI
 40
0.38
  9
$DIMRND
 40
0.0
  9
$DIMDLE
 40
0.0
  9
$DIMEXE
 40
0.18
  9
$DIMTP
 40
0.0
  9
$DIMTM
 40
0.0
  9
$DIMTXT
 40
0.18
  9
$DIMCEN
 40
0.09
  9
$DIMTSZ
 40
0.0
  9
$DIMTOL
 70
     0
  9
$DIMLIM
 70
     0
  9
$DIMTIH
 70
     1
  9
$DIMTOH
 70
     1
  9
$DIMSE1
 70
     0
  9
$DIMSE2
 70
     0
  9
$DIMTAD
 70
     0
  9
$DIMZIN
 70
     0
  9
$DIMBLK
  1

  9
$DIMASO
 70
     1
  9
$DIMSHO
 70
     1
  9
$DIMPOST
  1

  9
$DIMAPOST
  1

  9
$DIMALT
 70
     0
  9
$DIMALTD
 70
     2
  9
$DIMALTF
 40
25.4
  9
$DIMLFAC
 40
1.0
  9
$DIMTOFL
 70
     0
  9
$DIMTVP
 40
0.0
  9
$DIMTIX
 70
     0
  9
$DIMSOXD
 70
     0
  9
$DIMSAH
 70
     0
  9
$DIMBLK1
  1

  9
$DIMBLK2
  1

  9
$DIMSTYLE
  2
Standard
  9
$DIMCLRD
 70
     0
  9
$DIMCLRE
 70
     0
  9
$DIMCLRT
 70
     0
  9
$DIMTFAC
 40
0.25
  9
$DIMGAP
 40
0.09
  9
$DIMJUST
 70
     0
  9
$DIMSD1
 70
     0
  9
$DIMSD2
 70
     0
  9
$DIMTOLJ
 70
     1
  9
$DIMTZIN
 70
     0
  9
$DIMALTZ
 70
     0
  9
$DIMALTTZ
 70
     0
  9
$DIMUPT
 70
     0
  9
$DIMDEC
 70
     2
  9
$DIMTDEC
 70
     2
  9
$DIMALTU
 70
     2
  9
$DIMALTTD
 70
     2
  9
$DIMTXSTY
  7
Standard
  9
$DIMAUNIT
 70
     0
  9
$DIMADEC
 70
     0
  9
$DIMALTRND
 40
0.0
  9
$DIMAZIN
 70
     0
  9
$DIMDSEP
 70
    46
  9
$DIMATFIT
 70
     3
  9
$DIMFRAC
 70
     0
  9
$DIMLDRBLK
  1

  9
$DIMLUNIT
 70
     2
  9
$DIMLWD
 70
    -2
  9
$DIMLWE
 70
    -2
  9
$DIMTMOVE
 70
     0
  9
$LUNITS
 70
     2
  9
$LUPREC
 70
     4
  9
$SKETCHINC
 40
0.1
  9
$FILLETRAD
 40
0.05
  9
$AUNITS
 70
     0
  9
$AUPREC
 70
     0
  9
$MENU
  1
.
  9
$ELEVATION
 40
0.0
  9
$PELEVATION
 40
0.0
  9
$THICKNESS
 40
0.0
  9
$LIMCHECK
 70
     0
  9
$CHAMFERA
 40
0.5
  9
$CHAMFERB
 40
0.5
  9
$CHAMFERC
 40
1.0
  9
$CHAMFERD
 40
0.0
  9
$SKPOLY
 70
     0
  9
$TDCREATE
 40
2453353.425459155
  9
$TDUCREATE
 40
2453353.717125822
  9
$TDUPDATE
 40
2455755.695873102
  9
$TDUUPDATE
 40
2455755.987539769
  9
$TDINDWG
 40
0.2435382986
  9
$TDUSRTIMER
 40
0.2435267593
  9
$USRTIMER
 70
     1
  9
$ANGBASE
 50
0.0
  9
$ANGDIR
 70
     0
  9
$PDMODE
 70
     0
  9
$PDSIZE
 40
0.0
  9
$PLINEWID
 40
0.0
  9
$SPLFRAME
 70
     0
  9
$SPLINETYPE
 70
     6
  9
$SPLINESEGS
 70
     8
  9
$HANDSEED
  5
121F
  9
$SURFTAB1
 70
     6
  9
$SURFTAB2
 70
     6
  9
$SURFTYPE
 70
     6
  9
$SURFU
 70
     6
  9
$SURFV
 70
     6
  9
$UCSBASE
  2

  9
$UCSNAME
  2

  9
$UCSORG
 10
0.0
 20
0.0
 30
0.0
  9
$UCSXDIR
 10
1.0
 20
0.0
 30
0.0
  9
$UCSYDIR
 10
0.0
 20
1.0
 30
0.0
  9
$UCSORTHOREF
  2

  9
$UCSORTHOVIEW
 70
     0
  9
$UCSORGTOP
 10
0.0
 20
0.0
 30
0.0
  9
$UCSORGBOTTOM
 10
0.0
 20
0.0
 30
0.0
  9
$UCSORGLEFT
 10
0.0
 20
0.0
 30
0.0
  9
$UCSORGRIGHT
 10
0.0
 20
0.0
 30
0.0
  9
$UCSORGFRONT
 10
0.0
 20
0.0
 30
0.0
  9
$UCSORGBACK
 10
0.0
 20
0.0
 30
0.0
  9
$PUCSBASE
  2

  9
$PUCSNAME
  2

  9
$PUCSORG
 10
0.0
 20
0.0
 30
0.0
  9
$PUCSXDIR
 10
1.0
 20
0.0
 30
0.0
  9
$PUCSYDIR
 10
0.0
 20
1.0
 30
0.0
  9
$PUCSORTHOREF
  2

  9
$PUCSORTHOVIEW
 70
     0
  9
$PUCSORGTOP
 10
0.0
 20
0.0
 30
0.0
  9
$PUCSORGBOTTOM
 10
0.0
 20
0.0
 30
0.0
  9
$PUCSORGLEFT
 10
0.0
 20
0.0
 30
0.0
  9
$PUCSORGRIGHT
 10
0.0
 20
0.0
 30
0.0
  9
$PUCSORGFRONT
 10
0.0
 20
0.0
 30
0.0
  9
$PUCSORGBACK
 10
0.0
 20
0.0
 30
0.0
  9
$USERI1
 70
     0
  9
$USERI2
 70
     0
  9
$USERI3
 70
     0
  9
$USERI4
 70
     0
  9
$USERI5
 70
     0
  9
$USERR1
 40
0.0
  9
$USERR2
 40
0.0
  9
$USERR3
 40
0.0
  9
$USERR4
 40
0.0
  9
$USERR5
 40
0.0
  9
$WORLDVIEW
 70
     1
  9
$SHADEDGE
 70
     3
  9
$SHADEDIF
 70
    70
  9
$TILEMODE
 70
     1
  9
$MAXACTVP
 70
    48
  9
$PINSBASE
 10
0.0
 20
0.0
 30
0.0
  9
$PLIMCHECK
 70
     0
  9
$PEXTMIN
 10
1.000000000000000E+20
 20
1.000000000000000E+20
 30
1.000000000000000E+20
  9
$PEXTMAX
 10
-1.000000000000000E+20
 20
-1.000000000000000E+20
 30
-1.000000000000000E+20
  9
$PLIMMIN
 10
0.0
 20
0.0
  9
$PLIMMAX
 10
12.0
 20
9.0
  9
$UNITMODE
 70
     0
  9
$VISRETAIN
 70
     1
  9
$PLINEGEN
 70
     0
  9
$PSLTSCALE
 70
     1
  9
$TREEDEPTH
 70
  3020
  9
$CMLSTYLE
  2
Standard
  9
$CMLJUST
 70
     0
  9
$CMLSCALE
 40
1.0
  9
$PROXYGRAPHICS
 70
     1
  9
$MEASUREMENT
 70
     0
  9
$CELWEIGHT
370
    -1
  9
$ENDCAPS
280
     0
  9
$JOINSTYLE
280
     0
  9
$LWDISPLAY
290
     0
  9
$INSUNITS
 70
     0
  9
$HYPERLINKBASE
  1

  9
$STYLESHEET
  1

  9
$XEDIT
290
     0
  9
$CEPSNTYPE
380
     0
  9
$PSTYLEMODE
290
     1
  9
$FINGERPRINTGUID
  2
{09EC6D84-F6D6-11D3-86B9-A2855DFC3C3B}
  9
$VERSIONGUID
  2
{9746672B-F367-4645-92ED-726669E13C08}
  9
$EXTNAMES
290
     1
  9
$PSVPSCALE
 40
0.0
  9
$OLESTARTUP
290
     0
  0
ENDSEC
  0
SECTION
  2
CLASSES
  0
CLASS
  1
ACDBDICTIONARYWDFLT
  2
AcDbDictionaryWithDefault
  3
ObjectDBX Classes
 90
        0
280
     0
281
     0
  0
CLASS
  1
ACDBPLACEHOLDER
  2
AcDbPlaceHolder
  3
ObjectDBX Classes
 90
        0
280
     0
281
     0
  0
CLASS
  1
LAYOUT
  2
AcDbLayout
  3
ObjectDBX Classes
 90
        0
280
     0
281
     0
  0
CLASS
  1
DICTIONARYVAR
  2
AcDbDictionaryVar
  3
ObjectDBX Classes
 90
        0
280
     0
281
     0
  0
CLASS
  1
TABLESTYLE
  2
AcDbTableStyle
  3
ObjectDBX Classes
 90
     4095
280
     0
281
     0
  0
CLASS
  1
SCALE
  2
AcDbScale
  3
ObjectDBX Classes
 90
     1153
280
     0
281
     0
  0
ENDSEC
  0
SECTION
  2
TABLES
  0
TABLE
  2
VPORT
  5
8
330
0
100
AcDbSymbolTable
 70
     2
  0
VPORT
  5
97
330
8
100
AcDbSymbolTableRecord
100
AcDbViewportTableRecord
  2
*Active
 70
     0
 10
0.0
 20
0.0
 11
1.0
 21
1.0
 12
4.114316398706352
 22
2.476784850013056
 13
0.0
 23
0.0
 14
0.5
 24
0.5
 15
0.5
 25
0.5
 16
0.0
 26
0.0
 36
1.0
 17
0.0
 27
0.0
 37
0.0
 40
7.485423123486685
 41
1.589677419354839
 42
50.0
 43
0.0
 44
0.0
 50
0.0
 51
0.0
 71
    16
 72
   100
 73
     1
 74
     1
 75
     0
 76
     0
 77
     0
 78
     0
281
     0
 65
     0
110
0.0
120
0.0
130
0.0
111
1.0
121
0.0
131
0.0
112
0.0
122
1.0
132
0.0
 79
     0
146
0.0
  0
ENDTAB
  0
TABLE
  2
LTYPE
  5
5
330
0
100
AcDbSymbolTable
 70
     1
  0
LTYPE
  5
14
330
5
100
AcDbSymbolTableRecord
100
AcDbLinetypeTableRecord
  2
ByBlock
 70
     0
  3

 72
    65
 73
     0
 40
0.0
  0
LTYPE
  5
15
330
5
100
AcDbSymbolTableRecord
100
AcDbLinetypeTableRecord
  2
ByLayer
 70
     0
  3

 72
    65
 73
     0
 40
0.0
  0
LTYPE
  5
16
330
5
100
AcDbSymbolTableRecord
100
AcDbLinetypeTableRecord
  2
Continuous
 70
     0
  3
Solid line
 72
    65
 73
     0
 40
0.0
  0
ENDTAB
  0
TABLE
  2
LAYER
  5
2
330
0
100
AcDbSymbolTable
 70
     4
  0
LAYER
  5
10
330
2
100
AcDbSymbolTableRecord
100
AcDbLayerTableRecord
  2
0
 70
     0
 62
     7
  6
Continuous
370
    -3
390
F
  0
LAYER
  5
31
330
2
100
AcDbSymbolTableRecord
100
AcDbLayerTableRecord
  2
AME_FRZ
 70
     0
 62
     7
  6
Continuous
370
    -3
390
F
  0
LAYER
  5
2E1
330
2
100
AcDbSymbolTableRecord
100
AcDbLayerTableRecord
  2
DEFPOINTS
 70
     0
 62
     7
  6
Continuous
290
     0
370
    -3
390
F
  0
LAYER
  5
F5D
330
2
100
AcDbSymbolTableRecord
100
AcDbLayerTableRecord
  2
LOGO
 70
     0
 62
     3
  6
Continuous
370
    -3
390
F
  0
ENDTAB
  0
TABLE
  2
STYLE
  5
3
330
0
100
AcDbSymbolTable
 70
     1
  0
STYLE
  5
11
330
3
100
AcDbSymbolTableRecord
100
AcDbTextStyleTableRecord
  2
Standard
 70
     0
 40
0.0
 41
1.0
 50
0.0
 71
     0
 42
0.2
  3
romans.shx
  4

  0
ENDTAB
  0
TABLE
  2
VIEW
  5
6
330
0
100
AcDbSymbolTable
 70
     0
  0
ENDTAB
  0
TABLE
  2
UCS
  5
7
330
0
100
AcDbSymbolTable
 70
     0
  0
ENDTAB
  0
TABLE
  2
APPID
  5
9
330
0
100
AcDbSymbolTable
 70
     2
  0
APPID
  5
12
330
9
100
AcDbSymbolTableRecord
100
AcDbRegAppTableRecord
  2
ACAD
 70
     0
  0
APPID
  5
11F6
330
9
100
AcDbSymbolTableRecord
100
AcDbRegAppTableRecord
  2
DCO15
 70
     0
  0
ENDTAB
  0
TABLE
  2
DIMSTYLE
  5
A
330
0
100
AcDbSymbolTable
 70
     2
100
AcDbDimStyleTable
  0
DIMSTYLE
105
27
330
A
100
AcDbSymbolTableRecord
100
AcDbDimStyleTableRecord
  2
Standard
 70
     0
340
11
  0
DIMSTYLE
105
32
330
A
100
AcDbSymbolTableRecord
100
AcDbDimStyleTableRecord
  2
TOP12
 70
     0
271
     2
272
     2
273
     5
277
     5
279
     2
340
11
  0
ENDTAB
  0
TABLE
  2
BLOCK_RECORD
  5
1
330
0
100
AcDbSymbolTable
 70
    17
  0
BLOCK_RECORD
  5
1F
102
{ACAD_XDICTIONARY
360
1219
102
}
330
1
100
AcDbSymbolTableRecord
100
AcDbBlockTableRecord
  2
*Model_Space
340
22
  0
BLOCK_RECORD
  5
73
330
1
100
AcDbSymbolTableRecord
100
AcDbBlockTableRecord
  2
*Paper_Space
340
74
  0
BLOCK_RECORD
  5
10F2
330
1
100
AcDbSymbolTableRecord
100
AcDbBlockTableRecord
  2
A$C149605FD
340
0
102
{BLKREFS
331
29
102
}
  0
BLOCK_RECORD
  5
28
330
1
100
AcDbSymbolTableRecord
100
AcDbBlockTableRecord
  2
A$C55D13F06
340
0
102
{BLKREFS
331
2D
102
}
  0
BLOCK_RECORD
  5
2C
330
1
100
AcDbSymbolTableRecord
100
AcDbBlockTableRecord
  2
A$C312B0BB1
340
0
  0
BLOCK_RECORD
  5
33
330
1
100
AcDbSymbolTableRecord
100
AcDbBlockTableRecord
  2
A$C79A550F1
340
0
  0
BLOCK_RECORD
  5
33D
330
1
100
AcDbSymbolTableRecord
100
AcDbBlockTableRecord
  2
A$C73102F95
340
0
  0
BLOCK_RECORD
  5
4C6
330
1
100
AcDbSymbolTableRecord
100
AcDbBlockTableRecord
  2
A$C2E7D3BBB
340
0
  0
BLOCK_RECORD
  5
7CF
330
1
100
AcDbSymbolTableRecord
100
AcDbBlockTableRecord
  2
A$C41EE0730
340
0
  0
BLOCK_RECORD
  5
84A
330
1
100
AcDbSymbolTableRecord
100
AcDbBlockTableRecord
  2
A$C2AD733AA
340
0
  0
BLOCK_RECORD
  5
86C
330
1
100
AcDbSymbolTableRecord
100
AcDbBlockTableRecord
  2
A$C6D8B54C5
340
0
  0
BLOCK_RECORD
  5
8E0
330
1
100
AcDbSymbolTableRecord
100
AcDbBlockTableRecord
  2
A$C6AB2678E
340
0
  0
BLOCK_RECORD
  5
C26
330
1
100
AcDbSymbolTableRecord
100
AcDbBlockTableRecord
  2
A$C3DBB32A3
340
0
  0
BLOCK_RECORD
  5
E74
330
1
100
AcDbSymbolTableRecord
100
AcDbBlockTableRecord
  2
A$C0B095E2C
340
0
  0
BLOCK_RECORD
  5
E97
330
1
100
AcDbSymbolTableRecord
100
AcDbBlockTableRecord
  2
A$C28C21EF0
340
0
  0
BLOCK_RECORD
  5
EBF
330
1
100
AcDbSymbolTableRecord
100
AcDbBlockTableRecord
  2
A$C14C45B9F
340
0
  0
BLOCK_RECORD
  5
ED7
330
1
100
AcDbSymbolTableRecord
100
AcDbBlockTableRecord
  2
A$C39B8445F
340
0
102
{BLKREFS
331
F2A
102
}
  0
BLOCK_RECORD
  5
EF1
330
1
100
AcDbSymbolTableRecord
100
AcDbBlockTableRecord
  2
A$C3EC824E0
340
0
102
{BLKREFS
331
F29
102
}
  0
BLOCK_RECORD
  5
F5E
330
1
100
AcDbSymbolTableRecord
100
AcDbBlockTableRecord
  2
A$C3FF5331E
340
0
  0
ENDTAB
  0
ENDSEC
  0
SECTION
  2
BLOCKS
  0
BLOCK
  5
20
330
1F
100
AcDbEntity
  8
0
100
AcDbBlockBegin
  2
*Model_Space
 70
     0
 10
0.0
 20
0.0
 30
0.0
  3
*Model_Space
  1

  0
ENDBLK
  5
21
330
1F
100
AcDbEntity
  8
0
100
AcDbBlockEnd
  0
BLOCK
  5
75
330
73
100
AcDbEntity
 67
     1
  8
0
100
AcDbBlockBegin
  2
*Paper_Space
 70
     0
 10
0.0
 20
0.0
 30
0.0
  3
*Paper_Space
  1

  0
ENDBLK
  5
76
330
73
100
AcDbEntity
 67
     1
  8
0
100
AcDbBlockEnd
  0
BLOCK
  5
11F7
330
10F2
100
AcDbEntity
  8
0
100
AcDbBlockBegin
  2
A$C149605FD
 70
     0
 10
0.0
 20
0.0
 30
0.0
  3
A$C149605FD
  1

  0
LINE
  5
1115
330
10F2
100
AcDbEntity
  8
0
100
AcDbLine
 10
0.0000000188713258
 20
5.219999994384193
 30
0.0
 11
7.940000018871325
 21
5.219999994384193
 31
0.0
  0
LINE
  5
1116
330
10F2
100
AcDbEntity
  8
0
100
AcDbLine
 10
7.940000018871326
 20
10.43999999438419
 30
0.0
 11
7.940000018871326
 21
-0.0000000056158065
 31
0.0
  0
LINE
  5
23
330
10F2
100
AcDbEntity
  8
0
100
AcDbLine
 10
0.0000000188713258
 20
-0.0000000056158065
 30
0.0
 11
0.0000000188713258
 21
10.43999999438419
 31
0.0
  0
LINE
  5
24
330
10F2
100
AcDbEntity
  8
0
100
AcDbLine
 10
7.940000018871326
 20
10.43999999438419
 30
0.0
 11
0.0000000188713258
 21
10.43999999438419
 31
0.0
  0
LINE
  5
25
330
10F2
100
AcDbEntity
  8
0
100
AcDbLine
 10
0.0000000188713258
 20
-0.0000000056158065
 30
0.0
 11
7.940000018871325
 21
-0.0000000056158065
 31
0.0
  0
ENDBLK
  5
11F8
330
10F2
100
AcDbEntity
  8
0
100
AcDbBlockEnd
  0
BLOCK
  5
11F9
330
28
100
AcDbEntity
  8
0
100
AcDbBlockBegin
  2
A$C55D13F06
 70
     0
 10
0.0
 20
0.0
 30
0.0
  3
A$C55D13F06
  1

  0
INSERT
  5
29
330
28
100
AcDbEntity
  8
0
100
AcDbBlockReference
  2
A$C149605FD
 10
-0.0000000093157864
 20
0.0000000051581264
 30
0.0
  0
ENDBLK
  5
11FA
330
28
100
AcDbEntity
  8
0
100
AcDbBlockEnd
  0
BLOCK
  5
11FB
330
2C
100
AcDbEntity
  8
0
100
AcDbBlockBegin
  2
A$C312B0BB1
 70
     0
 10
0.0
 20
0.0
 30
0.0
  3
A$C312B0BB1
  1

  0
INSERT
  5
2D
330
2C
100
AcDbEntity
  8
0
100
AcDbBlockReference
  2
A$C55D13F06
 10
-0.0000000312384429
 20
0.0000000077531261
 30
0.0
  0
ENDBLK
  5
11FC
330
2C
100
AcDbEntity
  8
0
100
AcDbBlockEnd
  0
BLOCK
  5
11FD
330
33
100
AcDbEntity
  8
0
100
AcDbBlockBegin
  2
A$C79A550F1
 70
     0
 10
0.0
 20
0.0
 30
0.0
  3
A$C79A550F1
  1

  0
LINE
  5
34
330
33
100
AcDbEntity
  8
0
100
AcDbLine
 10
0.4824754784046519
 20
0.2381640220933088
 30
0.0
 11
7.241308249071572
 21
0.2381640220933088
 31
0.0
210
0.0
220
0.0
230
-1.0
  0
TEXT
  5
35
330
33
100
AcDbEntity
  8
0
100
AcDbText
 10
-0.5579504531301271
 20
0.268582778805901
 30
0.0
 40
0.1216750375201472
  1
T.O.P. 12 ZONE DRIP HEAD USING 1/8" DISTRIBUTION TUBING
 50
180.0
 71
     4
210
0.0
220
0.0
230
-1.0
100
AcDbText
  0
ARC
  5
36
330
33
100
AcDbEntity
  8
0
100
AcDbCircle
 10
4.347981301325894
 20
3.874005865162648
 30
0.0
 40
0.3409260286106134
100
AcDbArc
 50
191.0952904786444
 51
251.9448871942272
  0
ARC
  5
37
330
33
100
AcDbEntity
  8
0
100
AcDbCircle
 10
4.459824473646902
 20
3.634747035939279
 30
0.0
 40
0.6045639457230795
100
AcDbArc
 50
199.2410066624099
 51
242.4470978318544
  0
ARC
  5
38
330
33
100
AcDbEntity
  8
0
100
AcDbCircle
 10
3.776578337218226
 20
2.949715054405623
 30
0.0
 40
0.4986478401442313
100
AcDbArc
 50
29.05759093983166
 51
76.96682355949227
  0
ARC
  5
39
330
33
100
AcDbEntity
  8
0
100
AcDbCircle
 10
3.995312327593396
 20
3.315663820644934
 30
0.0
 40
0.2531026391074491
100
AcDbArc
 50
12.60198035028445
 51
70.90434066296919
  0
ARC
  5
3A
330
33
100
AcDbEntity
  8
0
100
AcDbCircle
 10
4.309444834527347
 20
3.532384607298672
 30
0.0
 40
0.2324181532054964
100
AcDbArc
 50
174.4558509849269
 51
245.3372799051009
  0
ARC
  5
3B
330
33
100
AcDbEntity
  8
0
100
AcDbCircle
 10
4.056720372412808
 20
3.539615285930136
 30
0.0
 40
0.2722465720965986
100
AcDbArc
 50
47.02145205026711
 51
99.15002363501945
  0
CIRCLE
  5
3C
330
33
100
AcDbEntity
  8
0
100
AcDbCircle
 10
-0.2447157117628205
 20
0.2447157163344587
 30
0.0
 40
0.24471571935028
210
0.0
220
0.0
230
-1.0
  0
TEXT
  5
3D
330
33
100
AcDbEntity
  8
0
100
AcDbText
 10
-0.1508731444503244
 20
0.1079297655265608
 30
0.0
 40
0.2792500509676575
  1
A
 50
180.0
 71
     4
210
0.0
220
0.0
230
-1.0
100
AcDbText
  0
LINE
  5
3E
330
33
100
AcDbEntity
  8
0
100
AcDbLine
 10
0.7344591086796214
 20
1.401908879121319
 30
0.0
 11
1.715654480864255
 21
1.401908879121317
 31
0.0
  0
LINE
  5
3F
330
33
100
AcDbEntity
  8
0
100
AcDbLine
 10
1.715654480864255
 20
1.160037761522744
 30
0.0
 11
0.7344591086796215
 21
1.160037761522745
 31
0.0
  0
LINE
  5
40
330
33
100
AcDbEntity
  8
0
100
AcDbLine
 10
1.516661946275839
 20
2.267584899731489
 30
0.0
 11
1.215225015126292
 21
2.26758489973149
 31
0.0
  0
LINE
  5
41
330
33
100
AcDbEntity
  8
0
100
AcDbLine
 10
1.416398944650831
 20
2.324604010753395
 30
0.0
 11
1.516661946275839
 21
2.324604010753395
 31
0.0
  0
LINE
  5
42
330
33
100
AcDbEntity
  8
0
100
AcDbLine
 10
1.432333881280845
 20
2.324604010753395
 30
0.0
 11
1.215225015126292
 21
2.324604010753399
 31
0.0
  0
ARC
  5
43
330
33
100
AcDbEntity
  8
0
100
AcDbCircle
 10
0.7124459526266179
 20
1.341535849828126
 30
0.0
 40
0.0642610434513059
100
AcDbArc
 50
290.0328185300485
 51
69.96718146995138
  0
ARC
  5
44
330
33
100
AcDbEntity
  8
0
100
AcDbCircle
 10
0.756318934215031
 20
1.220695041135294
 30
0.0
 40
0.0641195985183373
100
AcDbArc
 50
109.9330988445268
 51
250.0669011554735
  0
ARC
  5
45
330
33
100
AcDbEntity
  8
0
100
AcDbCircle
 10
0.7564722647326249
 20
1.341535849828126
 30
0.0
 40
0.0642610434513059
100
AcDbArc
 50
110.0328185300486
 51
249.9671814699515
  0
LINE
  5
46
330
33
100
AcDbEntity
  8
0
100
AcDbLine
 10
1.178541949859244
 20
2.356767776863677
 30
0.0
 11
1.178541949859244
 21
2.234623452468488
 31
0.0
  0
LINE
  5
47
330
33
100
AcDbEntity
  8
0
100
AcDbLine
 10
1.215225015126292
 20
2.234623452468488
 30
0.0
 11
1.215225015126292
 21
2.356767776863677
 31
0.0
  0
LINE
  5
48
330
33
100
AcDbEntity
  8
0
100
AcDbLine
 10
1.17835496380053
 20
2.324251576860192
 30
0.0
 11
1.158606632314857
 21
2.324251576860192
 31
0.0
  0
LINE
  5
49
330
33
100
AcDbEntity
  8
0
100
AcDbLine
 10
1.158606632314857
 20
2.267439944418179
 30
0.0
 11
1.178541949859243
 21
2.267439944418181
 31
0.0
  0
LINE
  5
4A
330
33
100
AcDbEntity
  8
0
100
AcDbLine
 10
1.158606632314857
 20
2.324251576860192
 30
0.0
 11
1.158606632314857
 21
2.267439944418179
 31
0.0
  0
LINE
  5
4B
330
33
100
AcDbEntity
  8
0
100
AcDbLine
 10
1.158606632314857
 20
2.324251576860192
 30
0.0
 11
1.13880189792246
 21
2.295845760639185
 31
0.0
  0
LINE
  5
4C
330
33
100
AcDbEntity
  8
0
100
AcDbLine
 10
1.158606632314857
 20
2.267439944418179
 30
0.0
 11
1.13880189792246
 21
2.295845760639185
 31
0.0
  0
LINE
  5
4D
330
33
100
AcDbEntity
  8
0
100
AcDbLine
 10
1.178541949859244
 20
2.234623452468488
 30
0.0
 11
1.215225015126292
 21
2.234623452468488
 31
0.0
  0
LINE
  5
4E
330
33
100
AcDbEntity
  8
0
100
AcDbLine
 10
1.21522501512629
 20
2.356767776863677
 30
0.0
 11
1.178541949859244
 21
2.356767776863677
 31
0.0
  0
LINE
  5
4F
330
33
100
AcDbEntity
  8
0
100
AcDbLine
 10
1.978833285119119
 20
3.630354694784671
 30
0.0
 11
1.978833285119119
 21
3.532547846036609
 31
0.0
  0
LINE
  5
50
330
33
100
AcDbEntity
  8
0
100
AcDbLine
 10
2.236227825420289
 20
3.532547846036609
 30
0.0
 11
2.236227825420287
 21
3.630354694784671
 31
0.0
  0
LINE
  5
51
330
33
100
AcDbEntity
  8
0
100
AcDbLine
 10
2.377572349562493
 20
3.630354694784671
 30
0.0
 11
2.377572349562494
 21
2.656829761029734
 31
0.0
  0
LINE
  5
52
330
33
100
AcDbEntity
  8
0
100
AcDbLine
 10
1.884933597869036
 20
3.630354694784671
 30
0.0
 11
1.884933597869036
 21
2.656829761029733
 31
0.0
  0
LINE
  5
53
330
33
100
AcDbEntity
  8
0
100
AcDbLine
 10
2.320609623142795
 20
3.630354694784671
 30
0.0
 11
2.320609623142795
 21
2.656829761029733
 31
0.0
  0
LINE
  5
54
330
33
100
AcDbEntity
  8
0
100
AcDbLine
 10
1.827970871449338
 20
3.630354694784671
 30
0.0
 11
1.827970871449336
 21
2.656829761029734
 31
0.0
  0
ARC
  5
55
330
33
100
AcDbEntity
  8
0
100
AcDbCircle
 10
2.683189949987603
 20
2.6312383933824
 30
0.0
 40
0.3066871953435002
100
AcDbArc
 50
175.2134150151804
 51
4.786584984819757
  0
LINE
  5
56
330
33
100
AcDbEntity
  8
0
100
AcDbLine
 10
2.497068651613835
 20
1.401908879121316
 30
0.0
 11
3.478264023798458
 21
1.401908879121315
 31
0.0
  0
LINE
  5
57
330
33
100
AcDbEntity
  8
0
100
AcDbLine
 10
3.477189225185283
 20
1.160037761522744
 30
0.0
 11
2.497068651613835
 21
1.160037761522744
 31
0.0
  0
ARC
  5
58
330
33
100
AcDbEntity
  8
0
100
AcDbCircle
 10
2.683189949987603
 20
2.6312383933824
 30
0.0
 40
0.3636499217631997
100
AcDbArc
 50
175.2134150151804
 51
4.786584984819757
  0
LINE
  5
1117
330
33
100
AcDbEntity
  8
0
100
AcDbLine
 10
2.226655905782239
 20
3.532547846036609
 30
0.0
 11
2.226655905782238
 21
1.732445957201705
 31
0.0
  0
LINE
  5
1118
330
33
100
AcDbEntity
  8
0
100
AcDbLine
 10
1.984784788183666
 20
1.728975204414854
 30
0.0
 11
1.984784788183666
 21
3.532547846036609
 31
0.0
  0
LINE
  5
5B
330
33
100
AcDbEntity
  8
0
100
AcDbLine
 10
1.984784788183666
 20
1.716511020571691
 30
0.0
 11
2.226655905782238
 21
1.716511020571691
 31
0.0
  0
LINE
  5
5C
330
33
100
AcDbEntity
  8
0
100
AcDbLine
 10
1.984784788183666
 20
1.684641147311664
 30
0.0
 11
2.226655905782238
 21
1.684641147311664
 31
0.0
  0
LINE
  5
5D
330
33
100
AcDbEntity
  8
0
100
AcDbLine
 10
1.984784788183666
 20
1.700576083941677
 30
0.0
 11
2.226655905782238
 21
1.700576083941677
 31
0.0
  0
LINE
  5
1119
330
33
100
AcDbEntity
  8
0
100
AcDbLine
 10
1.984784788183666
 20
1.66870621068165
 30
0.0
 11
2.226655905782238
 21
1.66870621068165
 31
0.0
  0
LINE
  5
5F
330
33
100
AcDbEntity
  8
0
100
AcDbLine
 10
2.234253566406746
 20
1.657459217245211
 30
0.0
 11
1.977370865856446
 21
1.657459217245211
 31
0.0
  0
LINE
  5
60
330
33
100
AcDbEntity
  8
0
100
AcDbLine
 10
1.954856311324414
 20
1.658036768754934
 30
0.0
 11
2.257866821153676
 21
1.658036768754934
 31
0.0
210
0.0
220
0.0
230
-1.0
  0
LINE
  5
61
330
33
100
AcDbEntity
  8
0
100
AcDbLine
 10
1.984784788183666
 20
1.732445957201705
 30
0.0
 11
2.226655905782238
 21
1.732445957201705
 31
0.0
  0
LINE
  5
62
330
33
100
AcDbEntity
  8
0
100
AcDbLine
 10
1.715654480864255
 20
1.12895281984652
 30
0.0
 11
2.497068651613835
 21
1.12895281984652
 31
0.0
210
0.0
220
0.0
230
-1.0
  0
ARC
  5
63
330
33
100
AcDbEntity
  8
0
100
AcDbCircle
 10
2.106361566239046
 20
1.564666296006975
 30
0.0
 40
0.2014048647372879
100
AcDbArc
 50
221.2150136800274
 51
318.7849863199726
  0
LINE
  5
64
330
33
100
AcDbEntity
  8
0
100
AcDbLine
 10
1.715654480864255
 20
1.431963329675781
 30
0.0
 11
1.954856311324414
 21
1.431963329675781
 31
0.0
  0
LINE
  5
65
330
33
100
AcDbEntity
  8
0
100
AcDbLine
 10
1.715654480864255
 20
1.431963329675781
 30
0.0
 11
1.715654480864255
 21
1.12895281984652
 31
0.0
210
0.0
220
0.0
230
-1.0
  0
LINE
  5
66
330
33
100
AcDbEntity
  8
0
100
AcDbLine
 10
1.954856311324414
 20
1.431963329675781
 30
0.0
 11
1.954856311324414
 21
1.658036768754934
 31
0.0
210
0.0
220
0.0
230
-1.0
  0
LINE
  5
67
330
33
100
AcDbEntity
  8
0
100
AcDbLine
 10
1.984784788183666
 20
1.657459217245211
 30
0.0
 11
1.984784788183666
 21
1.732445957201705
 31
0.0
  0
LINE
  5
68
330
33
100
AcDbEntity
  8
0
100
AcDbLine
 10
2.257866821153676
 20
1.431963329675781
 30
0.0
 11
2.497068651613835
 21
1.431963329675781
 31
0.0
  0
LINE
  5
69
330
33
100
AcDbEntity
  8
0
100
AcDbLine
 10
2.257866821153676
 20
1.431963329675781
 30
0.0
 11
2.257866821153676
 21
1.658036768754934
 31
0.0
210
0.0
220
0.0
230
-1.0
  0
LINE
  5
6A
330
33
100
AcDbEntity
  8
0
100
AcDbLine
 10
2.226655905782238
 20
1.732445957201705
 30
0.0
 11
2.226655905782238
 21
1.657459217245211
 31
0.0
  0
LINE
  5
111A
330
33
100
AcDbEntity
  8
0
100
AcDbLine
 10
2.497068651613835
 20
1.431963329675781
 30
0.0
 11
2.497068651613835
 21
1.12895281984652
 31
0.0
210
0.0
220
0.0
230
-1.0
  0
LINE
  5
111B
330
33
100
AcDbEntity
  8
0
100
AcDbLine
 10
1.984784788183666
 20
3.494391243961294
 30
0.0
 11
2.226655905782239
 21
3.494391243961294
 31
0.0
  0
LINE
  5
6D
330
33
100
AcDbEntity
  8
0
100
AcDbLine
 10
1.978833285119119
 20
3.532547846036609
 30
0.0
 11
2.236227825420289
 21
3.532547846036609
 31
0.0
  0
LINE
  5
6E
330
33
100
AcDbEntity
  8
0
100
AcDbLine
 10
1.984784788183666
 20
3.521614405399461
 30
0.0
 11
2.226655905782239
 21
3.521614405399461
 31
0.0
  0
LINE
  5
6F
330
33
100
AcDbEntity
  8
0
100
AcDbLine
 10
1.984784788183666
 20
3.510680964762315
 30
0.0
 11
2.226655905782239
 21
3.510680964762315
 31
0.0
  0
LINE
  5
70
330
33
100
AcDbEntity
  8
0
100
AcDbLine
 10
1.984784788183666
 20
3.50217717487932
 30
0.0
 11
2.226655905782239
 21
3.50217717487932
 31
0.0
  0
ARC
  5
71
330
33
100
AcDbEntity
  8
0
100
AcDbCircle
 10
1.522353271024228
 20
2.6312383933824
 30
0.0
 40
0.3636499217631997
100
AcDbArc
 50
269.1032523811816
 51
4.786584984819616
  0
ARC
  5
72
330
33
100
AcDbEntity
  8
0
100
AcDbCircle
 10
1.522353271024228
 20
2.6312383933824
 30
0.0
 40
0.3066871953435002
100
AcDbArc
 50
268.9366768091984
 51
4.786584984819616
  0
LINE
  5
111C
330
33
100
AcDbEntity
  8
0
100
AcDbLine
 10
1.984784788183666
 20
2.576825468938324
 30
0.0
 11
1.984784788183666
 21
2.109685640129952
 31
0.0
  0
ARC
  5
111D
330
33
100
AcDbEntity
  8
0
100
AcDbCircle
 10
3.456404198263058
 20
1.220695041135294
 30
0.0
 40
0.0641195985183373
100
AcDbArc
 50
288.9147084934261
 51
70.06690115547318
  0
ARC
  5
111E
330
33
100
AcDbEntity
  8
0
100
AcDbCircle
 10
3.456250867745465
 20
1.341535849828126
 30
0.0
 40
0.0642610434513059
100
AcDbArc
 50
290.0328185300485
 51
69.96718146995138
  0
ARC
  5
111F
330
33
100
AcDbEntity
  8
0
100
AcDbCircle
 10
3.500277179851472
 20
1.341535849828126
 30
0.0
 40
0.0642610434513059
100
AcDbArc
 50
110.0328185300486
 51
249.9671814699515
  0
LINE
  5
77
330
33
100
AcDbEntity
  8
0
100
AcDbLine
 10
3.404553773729475
 20
3.391468527738985
 30
0.0
 11
3.444940466017465
 21
3.391468527738985
 31
0.0
  0
LINE
  5
78
330
33
100
AcDbEntity
  8
0
100
AcDbLine
 10
3.374277930670631
 20
3.334449416717076
 30
0.0
 11
3.444940466017467
 21
3.334449416717078
 31
0.0
  0
LINE
  5
79
330
33
100
AcDbEntity
  8
0
100
AcDbLine
 10
3.045571614991807
 20
3.239195229030868
 30
0.0
 11
3.045571614991808
 21
2.652076533323673
 31
0.0
  0
LINE
  5
7A
330
33
100
AcDbEntity
  8
0
100
AcDbLine
 10
2.988608888572108
 20
3.241304383799696
 30
0.0
 11
2.988608888572108
 21
2.652076533323672
 31
0.0
  0
LINE
  5
7B
330
33
100
AcDbEntity
  8
0
100
AcDbLine
 10
3.331314114519182
 20
3.391468527738986
 30
0.0
 11
3.331314114519182
 21
2.398638785953445
 31
0.0
  0
LINE
  5
7C
330
33
100
AcDbEntity
  8
0
100
AcDbLine
 10
3.374277930670631
 20
3.391468527738985
 30
0.0
 11
3.374277930670631
 21
2.441918531093439
 31
0.0
  0
LINE
  5
7D
330
33
100
AcDbEntity
  8
0
100
AcDbLine
 10
3.331314114519182
 20
2.398638785953445
 30
0.0
 11
3.331314114519182
 21
2.252792921853761
 31
0.0
  0
LINE
  5
7E
330
33
100
AcDbEntity
  8
0
100
AcDbLine
 10
3.331314114519182
 20
2.252792921853761
 30
0.0
 11
3.374277930670631
 21
2.441918531093439
 31
0.0
  0
ARC
  5
7F
330
33
100
AcDbEntity
  8
0
100
AcDbCircle
 10
3.149257804449871
 20
3.230563829015317
 30
0.0
 40
0.1610075578653892
100
AcDbArc
 50
92.04813731606849
 51
183.8249495699765
  0
ARC
  5
80
330
33
100
AcDbEntity
  8
0
100
AcDbCircle
 10
3.149257804449871
 20
3.230563829015317
 30
0.0
 40
0.1040448314456897
100
AcDbArc
 50
93.17039936126888
 51
183.8249495699765
  0
LINE
  5
81
330
33
100
AcDbEntity
  8
0
100
AcDbLine
 10
3.227831599862912
 20
3.391468527738985
 30
0.0
 11
3.331314114519182
 21
3.391468527738986
 31
0.0
  0
LINE
  5
82
330
33
100
AcDbEntity
  8
0
100
AcDbLine
 10
3.143503534867918
 20
3.334449416717078
 30
0.0
 11
3.331314114519182
 21
3.334449416717078
 31
0.0
  0
LINE
  5
83
330
33
100
AcDbEntity
  8
0
100
AcDbLine
 10
3.243766536492926
 20
3.391468527738985
 30
0.0
 11
3.143503534867918
 21
3.391468527738985
 31
0.0
  0
LINE
  5
84
330
33
100
AcDbEntity
  8
0
100
AcDbLine
 10
3.374277930670631
 20
3.444605992117365
 30
0.0
 11
3.374277930670631
 21
3.391468527738985
 31
0.0
  0
LINE
  5
85
330
33
100
AcDbEntity
  8
0
100
AcDbLine
 10
3.331314114519182
 20
3.444605992117367
 30
0.0
 11
3.331314114519182
 21
3.391468527738986
 31
0.0
  0
LINE
  5
86
330
33
100
AcDbEntity
  8
0
100
AcDbLine
 10
3.374277930670631
 20
3.391468527738986
 30
0.0
 11
3.404553773729475
 21
3.391468527738985
 31
0.0
  0
LINE
  5
87
330
33
100
AcDbEntity
  8
0
100
AcDbLine
 10
3.374277930670631
 20
3.444605992117365
 30
0.0
 11
3.331314114519182
 21
3.444605992117367
 31
0.0
  0
POINT
  5
88
330
33
100
AcDbEntity
  8
0
100
AcDbPoint
 10
3.347249051149195
 20
3.444605992117367
 30
0.0
  0
LINE
  5
89
330
33
100
AcDbEntity
  8
0
100
AcDbLine
 10
3.444940466017465
 20
3.301487969454078
 30
0.0
 11
3.444940466017465
 21
3.423632293849266
 31
0.0
  0
LINE
  5
8A
330
33
100
AcDbEntity
  8
0
100
AcDbLine
 10
3.481623531284513
 20
3.423632293849266
 30
0.0
 11
3.481623531284513
 21
3.301487969454078
 31
0.0
  0
LINE
  5
8B
330
33
100
AcDbEntity
  8
0
100
AcDbLine
 10
3.5015588488289
 20
3.334304461403768
 30
0.0
 11
3.521363583221297
 21
3.362710277624775
 31
0.0
  0
LINE
  5
8C
330
33
100
AcDbEntity
  8
0
100
AcDbLine
 10
3.5015588488289
 20
3.391116093845781
 30
0.0
 11
3.521363583221297
 21
3.362710277624775
 31
0.0
  0
LINE
  5
8D
330
33
100
AcDbEntity
  8
0
100
AcDbLine
 10
3.5015588488289
 20
3.391116093845781
 30
0.0
 11
3.5015588488289
 21
3.334304461403768
 31
0.0
  0
LINE
  5
8E
330
33
100
AcDbEntity
  8
0
100
AcDbLine
 10
3.481623531284513
 20
3.301487969454078
 30
0.0
 11
3.444940466017465
 21
3.301487969454078
 31
0.0
  0
LINE
  5
8F
330
33
100
AcDbEntity
  8
0
100
AcDbLine
 10
3.5015588488289
 20
3.334304461403768
 30
0.0
 11
3.481623531284514
 21
3.33430446140377
 31
0.0
  0
LINE
  5
90
330
33
100
AcDbEntity
  8
0
100
AcDbLine
 10
3.481810517343227
 20
3.391116093845781
 30
0.0
 11
3.5015588488289
 21
3.391116093845781
 31
0.0
  0
LINE
  5
91
330
33
100
AcDbEntity
  8
0
100
AcDbLine
 10
3.444940466017467
 20
3.423632293849266
 30
0.0
 11
3.481623531284513
 21
3.423632293849266
 31
0.0
  0
LINE
  5
1120
330
33
100
AcDbEntity
  8
0
100
AcDbLine
 10
2.422087736572895
 20
3.795744189789325
 30
0.0
 11
1.692925972474596
 21
3.795744189789325
 31
0.0
  0
LINE
  5
1121
330
33
100
AcDbEntity
  8
0
100
AcDbLine
 10
1.692925972474595
 20
4.000045232980082
 30
0.0
 11
2.512853122212025
 21
4.000045232980083
 31
0.0
  0
ARC
  5
94
330
33
100
AcDbEntity
  8
0
100
AcDbCircle
 10
2.103545356940228
 20
3.345672365584479
 30
0.0
 40
0.7725361664559662
100
AcDbArc
 50
58.00647418979874
 51
122.1082969094359
  0
LINE
  5
95
330
33
100
AcDbEntity
  8
0
100
AcDbLine
 10
1.771317067408229
 20
3.630354694784671
 30
0.0
 11
2.422087736572895
 21
3.630354694784671
 31
0.0
  0
LINE
  5
96
330
33
100
AcDbEntity
  8
0
100
AcDbLine
 10
1.859198900475805
 20
3.630354694784671
 30
0.0
 11
2.326195349359775
 21
3.630354694784671
 31
0.0
  0
LINE
  5
1122
330
33
100
AcDbEntity
  8
0
100
AcDbLine
 10
2.069815753661925
 20
3.998011084233191
 30
0.0
 11
2.095336172060538
 21
3.998011084233191
 31
0.0
  0
LINE
  5
1123
330
33
100
AcDbEntity
  8
0
100
AcDbLine
 10
1.692925972474596
 20
3.795744189789325
 30
0.0
 11
1.692925972474595
 21
4.000866445053063
 31
0.0
  0
LINE
  5
1124
330
33
100
AcDbEntity
  8
0
100
AcDbLine
 10
1.822357904205456
 20
3.630354694784671
 30
0.0
 11
1.84326396384579
 21
3.630354694784671
 31
0.0
  0
LINE
  5
1125
330
33
100
AcDbEntity
  8
0
100
AcDbLine
 10
1.771317067408229
 20
3.795744189789325
 30
0.0
 11
1.771317067408229
 21
3.630354694784671
 31
0.0
  0
LINE
  5
1126
330
33
100
AcDbEntity
  8
0
100
AcDbLine
 10
1.809597695006149
 20
3.795744189789325
 30
0.0
 11
1.809597695006149
 21
3.630354694784671
 31
0.0
  0
LINE
  5
1127
330
33
100
AcDbEntity
  8
0
100
AcDbLine
 10
1.89210550921376
 20
3.795744189789325
 30
0.0
 11
1.89210550921376
 21
3.630354694784671
 31
0.0
  0
LINE
  5
1128
330
33
100
AcDbEntity
  8
0
100
AcDbLine
 10
2.00601470766539
 20
3.795744189789325
 30
0.0
 11
2.006014707665388
 21
3.998011084233191
 31
0.0
  0
LINE
  5
1129
330
33
100
AcDbEntity
  8
0
100
AcDbLine
 10
2.069815753661925
 20
3.795744189789325
 30
0.0
 11
2.069815753661925
 21
3.998011084233191
 31
0.0
  0
LINE
  5
112A
330
33
100
AcDbEntity
  8
0
100
AcDbLine
 10
2.031535126064003
 20
3.998011084233191
 30
0.0
 11
2.031535126064003
 21
3.795744189789325
 31
0.0
  0
LINE
  5
112B
330
33
100
AcDbEntity
  8
0
100
AcDbLine
 10
1.930386136811681
 20
3.795744189789325
 30
0.0
 11
1.930386136811681
 21
3.630354694784671
 31
0.0
  0
LINE
  5
112C
330
33
100
AcDbEntity
  8
0
100
AcDbLine
 10
2.027175785735917
 20
3.795744189789325
 30
0.0
 11
2.027175785735917
 21
3.630354694784671
 31
0.0
  0
LINE
  5
112D
330
33
100
AcDbEntity
  8
0
100
AcDbLine
 10
2.065456413333838
 20
3.795744189789325
 30
0.0
 11
2.065456413333838
 21
3.630354694784671
 31
0.0
  0
LINE
  5
112E
330
33
100
AcDbEntity
  8
0
100
AcDbLine
 10
2.006014707665388
 20
3.998011084233191
 30
0.0
 11
2.031535126064003
 21
3.998011084233191
 31
0.0
  0
LINE
  5
112F
330
33
100
AcDbEntity
  8
0
100
AcDbLine
 10
2.422087736572895
 20
3.795744189789325
 30
0.0
 11
2.512853122212025
 21
3.795744189789325
 31
0.0
  0
LINE
  5
1130
330
33
100
AcDbEntity
  8
0
100
AcDbLine
 10
2.095336172060538
 20
3.998011084233191
 30
0.0
 11
2.095336172060538
 21
3.795744189789325
 31
0.0
  0
LINE
  5
1131
330
33
100
AcDbEntity
  8
0
100
AcDbLine
 10
2.159075918580593
 20
3.998011084233191
 30
0.0
 11
2.159075918580593
 21
3.795744189789325
 31
0.0
  0
LINE
  5
1132
330
33
100
AcDbEntity
  8
0
100
AcDbLine
 10
2.133555500181978
 20
3.795744189789325
 30
0.0
 11
2.133555500181978
 21
3.998011084233191
 31
0.0
  0
LINE
  5
1133
330
33
100
AcDbEntity
  8
0
100
AcDbLine
 10
2.222815665100645
 20
3.998011084233191
 30
0.0
 11
2.222815665100645
 21
3.795744189789325
 31
0.0
  0
LINE
  5
1134
330
33
100
AcDbEntity
  8
0
100
AcDbLine
 10
2.197295246702032
 20
3.795744189789325
 30
0.0
 11
2.197295246702032
 21
3.998011084233191
 31
0.0
  0
LINE
  5
1135
330
33
100
AcDbEntity
  8
0
100
AcDbLine
 10
2.155105115659471
 20
3.795744189789325
 30
0.0
 11
2.155105115659471
 21
3.630354694784671
 31
0.0
  0
LINE
  5
1136
330
33
100
AcDbEntity
  8
0
100
AcDbLine
 10
2.193385743257393
 20
3.795744189789325
 30
0.0
 11
2.193385743257393
 21
3.630354694784671
 31
0.0
  0
LINE
  5
1137
330
33
100
AcDbEntity
  8
0
100
AcDbLine
 10
2.133555500181978
 20
3.998011084233191
 30
0.0
 11
2.159075918580593
 21
3.998011084233191
 31
0.0
  0
LINE
  5
1138
330
33
100
AcDbEntity
  8
0
100
AcDbLine
 10
2.197295246702032
 20
3.998011084233191
 30
0.0
 11
2.222815665100645
 21
3.998011084233191
 31
0.0
  0
LINE
  5
1139
330
33
100
AcDbEntity
  8
0
100
AcDbLine
 10
2.314781250627847
 20
3.795744189789325
 30
0.0
 11
2.314781250627847
 21
3.630354694784671
 31
0.0
  0
LINE
  5
113A
330
33
100
AcDbEntity
  8
0
100
AcDbLine
 10
2.276500623029925
 20
3.795744189789325
 30
0.0
 11
2.276500623029925
 21
3.630354694784671
 31
0.0
  0
LINE
  5
113B
330
33
100
AcDbEntity
  8
0
100
AcDbLine
 10
2.383807108974973
 20
3.795744189789325
 30
0.0
 11
2.383807108974975
 21
3.630354694784671
 31
0.0
  0
LINE
  5
113C
330
33
100
AcDbEntity
  8
0
100
AcDbLine
 10
2.342130285989788
 20
3.630354694784671
 30
0.0
 11
2.390187223927855
 21
3.630354694784671
 31
0.0
  0
LINE
  5
113D
330
33
100
AcDbEntity
  8
0
100
AcDbLine
 10
2.422087736572895
 20
3.795744189789325
 30
0.0
 11
2.422087736572895
 21
3.630354694784671
 31
0.0
  0
LINE
  5
113E
330
33
100
AcDbEntity
  8
0
100
AcDbLine
 10
2.512853122212025
 20
3.795744189789325
 30
0.0
 11
2.512853122212025
 21
4.000866445053063
 31
0.0
  0
TEXT
  5
113F
330
33
100
AcDbEntity
  8
0
100
AcDbText
 10
5.555360591030507
 20
4.71816045282257
 30
0.0
 40
0.0684360496240188
  1
BUG PLUG, DIG MODEL 10-016
100
AcDbText
  0
TEXT
  5
1140
330
33
100
AcDbEntity
  8
0
100
AcDbText
 10
5.555360591030507
 20
4.446613700084704
 30
0.0
 40
0.0684360496240188
  1
DISTRIBUTION TUBING, DIG MODEL 
100
AcDbText
  0
TEXT
  5
1141
330
33
100
AcDbEntity
  8
0
100
AcDbText
 10
5.555360591030507
 20
4.546659815044823
 30
0.0
 40
0.0684360496240188
  1
"V" STAKE FOR 1/2" AND 1/4"
100
AcDbText
  0
TEXT
  5
1142
330
33
100
AcDbEntity
  8
0
100
AcDbText
 10
5.555360591030507
 20
3.989561479023131
 30
0.0
 40
0.0684360496240188
  1
12-006, 100' 12-019, 3000'
100
AcDbText
  0
TEXT
  5
1143
330
33
100
AcDbEntity
  8
0
100
AcDbText
 10
5.555360591030507
 20
4.082461437705462
 30
0.0
 40
0.0684360496240188
  1
118 ID X 187 OD, DIG MODEL
100
AcDbText
  0
TEXT
  5
1144
330
33
100
AcDbEntity
  8
0
100
AcDbText
 10
5.555360591030507
 20
4.175361396387792
 30
0.0
 40
0.0684360496240188
  1
1/8" VINYL DISTRIBUTION TUBING
100
AcDbText
  0
TEXT
  5
1145
330
33
100
AcDbEntity
  8
0
100
AcDbText
 10
5.555360591030507
 20
3.621032227189733
 30
0.0
 40
0.0684360496240188
  1
TOP-020, 2.2 GPH AND TOP-030, 3.3
100
AcDbText
  0
TEXT
  5
BB
330
33
100
AcDbEntity
  8
0
100
AcDbText
 10
5.555360591030507
 20
3.813978300832186
 30
0.0
 40
0.0684360496240188
  1
T.O.P. 12 ZONE DRIP HEAD, DIG MODEL,
100
AcDbText
  0
TEXT
  5
BC
330
33
100
AcDbEntity
  8
0
100
AcDbText
 10
5.555360591030507
 20
3.721078342149852
 30
0.0
 40
0.0684360496240188
  1
TOP-005, 5 GPH, TOP-010, 1 GPH
100
AcDbText
  0
TEXT
  5
BD
330
33
100
AcDbEntity
  8
0
100
AcDbText
 10
5.555360591030507
 20
3.316478746689661
 30
0.0
 40
0.0684360496240188
  1
1/2" SCH 80 PVC NIPPLE
100
AcDbText
  0
ARC
  5
BE
330
33
100
AcDbEntity
  8
0
100
AcDbCircle
 10
4.556980876736853
 20
3.54781766284348
 30
0.0
 40
0.299742743432309
100
AcDbArc
 50
99.78513279458583
 51
179.6081838697481
  0
ARC
  5
BF
330
33
100
AcDbEntity
  8
0
100
AcDbCircle
 10
4.230149150703078
 20
3.794975391772846
 30
0.0
 40
0.2466011043095558
100
AcDbArc
 50
276.3082723688813
 51
320.8726341196924
  0
ARC
  5
C0
330
33
100
AcDbEntity
  8
0
100
AcDbCircle
 10
3.859820617716514
 20
3.644330379728359
 30
0.0
 40
0.3939887487734416
100
AcDbArc
 50
346.1275934498765
 51
13.87240655012028
  0
TEXT
  5
C1
330
33
100
AcDbEntity
  8
0
100
AcDbText
 10
-5.35421140557828
 20
3.316125233410004
 30
0.0
 40
0.0888620774192805
  1
5
 50
180.0
 71
     4
210
0.0
220
0.0
230
-1.0
100
AcDbText
  0
CIRCLE
  5
C2
330
33
100
AcDbEntity
  8
0
100
AcDbCircle
 10
-5.378996620370761
 20
3.360934071118585
 30
0.0
 40
0.0980395409819625
210
0.0
220
0.0
230
-1.0
  0
CIRCLE
  5
C3
330
33
100
AcDbEntity
  8
0
100
AcDbCircle
 10
-5.378996620370761
 20
3.360934071118585
 30
0.0
 40
0.0980395409819625
210
0.0
220
0.0
230
-1.0
  0
CIRCLE
  5
C4
330
33
100
AcDbEntity
  8
0
100
AcDbCircle
 10
-5.378996620370761
 20
3.360934071118585
 30
0.0
 40
0.0980395409819625
210
0.0
220
0.0
230
-1.0
  0
CIRCLE
  5
C5
330
33
100
AcDbEntity
  8
0
100
AcDbCircle
 10
-5.378996620370761
 20
3.360934071118585
 30
0.0
 40
0.0980395409819625
210
0.0
220
0.0
230
-1.0
  0
CIRCLE
  5
C6
330
33
100
AcDbEntity
  8
0
100
AcDbCircle
 10
-5.378996620370761
 20
3.360934071118585
 30
0.0
 40
0.0980395409819625
210
0.0
220
0.0
230
-1.0
  0
CIRCLE
  5
C7
330
33
100
AcDbEntity
  8
0
100
AcDbCircle
 10
-5.378996620370761
 20
3.360934071118585
 30
0.0
 40
0.0980395409819625
210
0.0
220
0.0
230
-1.0
  0
CIRCLE
  5
C8
330
33
100
AcDbEntity
  8
0
100
AcDbCircle
 10
-5.378996620370761
 20
3.360934071118585
 30
0.0
 40
0.0980395409819625
210
0.0
220
0.0
230
-1.0
  0
CIRCLE
  5
C9
330
33
100
AcDbEntity
  8
0
100
AcDbCircle
 10
-5.378996620370761
 20
3.360934071118585
 30
0.0
 40
0.0980395409819625
210
0.0
220
0.0
230
-1.0
  0
CIRCLE
  5
CA
330
33
100
AcDbEntity
  8
0
100
AcDbCircle
 10
-5.378996620370761
 20
3.360934071118585
 30
0.0
 40
0.0980395409819625
210
0.0
220
0.0
230
-1.0
  0
CIRCLE
  5
CB
330
33
100
AcDbEntity
  8
0
100
AcDbCircle
 10
-5.378996620370761
 20
3.360934071118585
 30
0.0
 40
0.0980395409819625
210
0.0
220
0.0
230
-1.0
  0
CIRCLE
  5
CC
330
33
100
AcDbEntity
  8
0
100
AcDbCircle
 10
-5.378996620370761
 20
3.360934071118585
 30
0.0
 40
0.0980395409819625
210
0.0
220
0.0
230
-1.0
  0
CIRCLE
  5
CD
330
33
100
AcDbEntity
  8
0
100
AcDbCircle
 10
-5.378996620370761
 20
2.877726805222377
 30
0.0
 40
0.0980395409819625
210
0.0
220
0.0
230
-1.0
  0
CIRCLE
  5
CE
330
33
100
AcDbEntity
  8
0
100
AcDbCircle
 10
-5.378996620370761
 20
2.877726805222377
 30
0.0
 40
0.0980395409819625
210
0.0
220
0.0
230
-1.0
  0
CIRCLE
  5
CF
330
33
100
AcDbEntity
  8
0
100
AcDbCircle
 10
-5.378996620370761
 20
2.877726805222377
 30
0.0
 40
0.0980395409819625
210
0.0
220
0.0
230
-1.0
  0
CIRCLE
  5
D0
330
33
100
AcDbEntity
  8
0
100
AcDbCircle
 10
-5.378996620370761
 20
2.877726805222377
 30
0.0
 40
0.0980395409819625
210
0.0
220
0.0
230
-1.0
  0
CIRCLE
  5
D1
330
33
100
AcDbEntity
  8
0
100
AcDbCircle
 10
-5.378996620370761
 20
2.877726805222377
 30
0.0
 40
0.0980395409819625
210
0.0
220
0.0
230
-1.0
  0
CIRCLE
  5
D2
330
33
100
AcDbEntity
  8
0
100
AcDbCircle
 10
-5.378996620370761
 20
2.877726805222377
 30
0.0
 40
0.0980395409819625
210
0.0
220
0.0
230
-1.0
  0
CIRCLE
  5
D3
330
33
100
AcDbEntity
  8
0
100
AcDbCircle
 10
-5.378996620370761
 20
2.877726805222377
 30
0.0
 40
0.0980395409819625
210
0.0
220
0.0
230
-1.0
  0
CIRCLE
  5
D4
330
33
100
AcDbEntity
  8
0
100
AcDbCircle
 10
-5.378996620370761
 20
2.877726805222377
 30
0.0
 40
0.0980395409819625
210
0.0
220
0.0
230
-1.0
  0
CIRCLE
  5
D5
330
33
100
AcDbEntity
  8
0
100
AcDbCircle
 10
-5.378996620370761
 20
2.877726805222377
 30
0.0
 40
0.0980395409819625
210
0.0
220
0.0
230
-1.0
  0
CIRCLE
  5
D6
330
33
100
AcDbEntity
  8
0
100
AcDbCircle
 10
-5.378996620370761
 20
2.877726805222377
 30
0.0
 40
0.0980395409819625
210
0.0
220
0.0
230
-1.0
  0
CIRCLE
  5
D7
330
33
100
AcDbEntity
  8
0
100
AcDbCircle
 10
-5.378996620370761
 20
2.877726805222377
 30
0.0
 40
0.0980395409819625
210
0.0
220
0.0
230
-1.0
  0
TEXT
  5
D8
330
33
100
AcDbEntity
  8
0
100
AcDbText
 10
-5.35421140557828
 20
3.068740930203704
 30
0.0
 40
0.0888620774192805
  1
6
 50
180.0
 71
     4
210
0.0
220
0.0
230
-1.0
100
AcDbText
  0
CIRCLE
  5
D9
330
33
100
AcDbEntity
  8
0
100
AcDbCircle
 10
-5.378996620370761
 20
3.113549767912286
 30
0.0
 40
0.0980395409819625
210
0.0
220
0.0
230
-1.0
  0
CIRCLE
  5
DA
330
33
100
AcDbEntity
  8
0
100
AcDbCircle
 10
-5.378996620370761
 20
3.113549767912286
 30
0.0
 40
0.0980395409819625
210
0.0
220
0.0
230
-1.0
  0
CIRCLE
  5
DB
330
33
100
AcDbEntity
  8
0
100
AcDbCircle
 10
-5.378996620370761
 20
3.113549767912286
 30
0.0
 40
0.0980395409819625
210
0.0
220
0.0
230
-1.0
  0
CIRCLE
  5
DC
330
33
100
AcDbEntity
  8
0
100
AcDbCircle
 10
-5.378996620370761
 20
3.113549767912286
 30
0.0
 40
0.0980395409819625
210
0.0
220
0.0
230
-1.0
  0
CIRCLE
  5
DD
330
33
100
AcDbEntity
  8
0
100
AcDbCircle
 10
-5.378996620370761
 20
3.113549767912286
 30
0.0
 40
0.0980395409819625
210
0.0
220
0.0
230
-1.0
  0
CIRCLE
  5
DE
330
33
100
AcDbEntity
  8
0
100
AcDbCircle
 10
-5.378996620370761
 20
3.113549767912286
 30
0.0
 40
0.0980395409819625
210
0.0
220
0.0
230
-1.0
  0
CIRCLE
  5
DF
330
33
100
AcDbEntity
  8
0
100
AcDbCircle
 10
-5.378996620370761
 20
3.113549767912286
 30
0.0
 40
0.0980395409819625
210
0.0
220
0.0
230
-1.0
  0
CIRCLE
  5
E0
330
33
100
AcDbEntity
  8
0
100
AcDbCircle
 10
-5.378996620370761
 20
3.113549767912286
 30
0.0
 40
0.0980395409819625
210
0.0
220
0.0
230
-1.0
  0
CIRCLE
  5
E1
330
33
100
AcDbEntity
  8
0
100
AcDbCircle
 10
-5.378996620370761
 20
3.113549767912286
 30
0.0
 40
0.0980395409819625
210
0.0
220
0.0
230
-1.0
  0
CIRCLE
  5
E2
330
33
100
AcDbEntity
  8
0
100
AcDbCircle
 10
-5.378996620370761
 20
3.113549767912286
 30
0.0
 40
0.0980395409819625
210
0.0
220
0.0
230
-1.0
  0
CIRCLE
  5
E3
330
33
100
AcDbEntity
  8
0
100
AcDbCircle
 10
-5.378996620370761
 20
3.113549767912286
 30
0.0
 40
0.0980395409819625
210
0.0
220
0.0
230
-1.0
  0
TEXT
  5
E4
330
33
100
AcDbEntity
  8
0
100
AcDbText
 10
-5.35421140557828
 20
2.832917967513795
 30
0.0
 40
0.0888620774192805
  1
7
 50
180.0
 71
     4
210
0.0
220
0.0
230
-1.0
100
AcDbText
  0
ARC
  5
E5
330
33
100
AcDbEntity
  8
0
100
AcDbCircle
 10
3.520898173649063
 20
2.940797123201259
 30
0.0
 40
0.6885725146518209
100
AcDbArc
 50
337.0804406826592
 51
11.51444845244014
  0
ARC
  5
E6
330
33
100
AcDbEntity
  8
0
100
AcDbCircle
 10
5.933244807041973
 20
2.790655124477421
 30
0.0
 40
1.694057971155556
100
AcDbArc
 50
170.3240297796004
 51
184.059933668194
  0
ARC
  5
E7
330
33
100
AcDbEntity
  8
0
100
AcDbCircle
 10
4.580666263599754
 20
2.958765873396702
 30
0.0
 40
0.3820139622499275
100
AcDbArc
 50
81.00601015116453
 51
147.846053035324
  0
ARC
  5
E8
330
33
100
AcDbEntity
  8
0
100
AcDbCircle
 10
4.17325130397069
 20
3.99695950701101
 30
0.0
 40
0.9044123971012575
100
AcDbArc
 50
277.3461187532446
 51
290.0117396001257
  0
LINE
  5
E9
330
33
100
AcDbEntity
  8
0
100
AcDbLine
 10
4.212462350209615
 20
3.191902576171357
 30
0.0
 11
4.212462350209615
 21
3.32116766745952
 31
0.0
  0
LINE
  5
EA
330
33
100
AcDbEntity
  8
0
100
AcDbLine
 10
4.257245141986409
 20
3.162072158219022
 30
0.0
 11
4.257245141986409
 21
3.296308975198189
 31
0.0
  0
ARC
  5
EB
330
33
100
AcDbEntity
  8
0
100
AcDbCircle
 10
4.166366830447283
 20
3.072288721648629
 30
0.0
 40
0.0298466024765474
100
AcDbArc
 50
11.51444845243995
 51
62.44709783185456
  0
ARC
  5
EC
330
33
100
AcDbEntity
  8
0
100
AcDbCircle
 10
4.292708431682559
 20
3.070369051129369
 30
0.0
 40
0.0298466024765474
100
AcDbArc
 50
97.34611875324653
 51
170.3240297795998
  0
ARC
  5
ED
330
33
100
AcDbEntity
  8
0
100
AcDbCircle
 10
4.377062917369809
 20
3.306299095155667
 30
0.0
 40
0.1494244216256248
100
AcDbArc
 50
81.86043615682463
 51
154.3907604692247
  0
LINE
  5
EE
330
33
100
AcDbEntity
  8
0
100
AcDbLine
 10
4.242317527092667
 20
3.549867432083518
 30
0.0
 11
4.257245141986409
 21
3.549867432083518
 31
0.0
  0
LINE
  5
EF
330
33
100
AcDbEntity
  8
0
100
AcDbLine
 10
4.242317527092667
 20
3.370884988175838
 30
0.0
 11
4.242317527092667
 21
3.549867432083518
 31
0.0
  0
ARC
  5
F0
330
33
100
AcDbEntity
  8
0
100
AcDbCircle
 10
3.99255072445124
 20
3.729081234728831
 30
0.0
 40
0.5073016492123207
100
AcDbArc
 50
301.4510064698043
 51
324.638741481539
  0
LINE
  5
F1
330
33
100
AcDbEntity
  8
0
100
AcDbLine
 10
4.257245141986409
 20
3.549867432083518
 30
0.0
 11
4.257245141986409
 21
3.395581559729214
 31
0.0
  0
ARC
  5
F2
330
33
100
AcDbEntity
  8
0
100
AcDbCircle
 10
4.396528818078253
 20
3.442399861451918
 30
0.0
 40
0.011938640990619
100
AcDbArc
 50
324.63874148154
 51
81.86043615682343
  0
ARC
  5
F3
330
33
100
AcDbEntity
  8
0
100
AcDbCircle
 10
4.821361390247869
 20
3.045545943441583
 30
0.0
 40
0.3422915413993274
100
AcDbArc
 50
121.9186506451687
 51
159.6106949285215
  0
ARC
  5
F4
330
33
100
AcDbEntity
  8
0
100
AcDbCircle
 10
4.472538803277376
 20
3.175197788575367
 30
0.0
 40
0.0298466024765474
100
AcDbArc
 50
290.0117396001253
 51
339.6106949285215
  0
TEXT
  5
F5
330
33
100
AcDbEntity
  8
0
100
AcDbText
 10
5.555360591030507
 20
2.833271480793453
 30
0.0
 40
0.0684360496240188
  1
PVC LATERAL PIPE
100
AcDbText
  0
TEXT
  5
F6
330
33
100
AcDbEntity
  8
0
100
AcDbText
 10
5.555360591030507
 20
3.069094443483362
 30
0.0
 40
0.0684360496240188
  1
PVC SCH 80 TEE
100
AcDbText
  0
TEXT
  5
F7
330
33
100
AcDbEntity
  8
0
100
AcDbText
 10
5.555360591030507
 20
3.520986136539246
 30
0.0
 40
0.0684360496240188
  1
GPH
100
AcDbText
  0
CIRCLE
  5
F8
330
33
100
AcDbEntity
  8
0
100
AcDbCircle
 10
-5.378996620370761
 20
4.52439777231795
 30
0.0
 40
0.0980395409819625
210
0.0
220
0.0
230
-1.0
  0
CIRCLE
  5
F9
330
33
100
AcDbEntity
  8
0
100
AcDbCircle
 10
-5.378996620370761
 20
4.52439777231795
 30
0.0
 40
0.0980395409819625
210
0.0
220
0.0
230
-1.0
  0
CIRCLE
  5
FA
330
33
100
AcDbEntity
  8
0
100
AcDbCircle
 10
-5.378996620370761
 20
4.52439777231795
 30
0.0
 40
0.0980395409819625
210
0.0
220
0.0
230
-1.0
  0
CIRCLE
  5
FB
330
33
100
AcDbEntity
  8
0
100
AcDbCircle
 10
-5.378996620370761
 20
4.52439777231795
 30
0.0
 40
0.0980395409819625
210
0.0
220
0.0
230
-1.0
  0
CIRCLE
  5
FC
330
33
100
AcDbEntity
  8
0
100
AcDbCircle
 10
-5.378996620370761
 20
4.52439777231795
 30
0.0
 40
0.0980395409819625
210
0.0
220
0.0
230
-1.0
  0
CIRCLE
  5
FD
330
33
100
AcDbEntity
  8
0
100
AcDbCircle
 10
-5.378996620370761
 20
4.52439777231795
 30
0.0
 40
0.0980395409819625
210
0.0
220
0.0
230
-1.0
  0
CIRCLE
  5
FE
330
33
100
AcDbEntity
  8
0
100
AcDbCircle
 10
-5.378996620370761
 20
4.52439777231795
 30
0.0
 40
0.0980395409819625
210
0.0
220
0.0
230
-1.0
  0
CIRCLE
  5
FF
330
33
100
AcDbEntity
  8
0
100
AcDbCircle
 10
-5.378996620370761
 20
4.52439777231795
 30
0.0
 40
0.0980395409819625
210
0.0
220
0.0
230
-1.0
  0
CIRCLE
  5
100
330
33
100
AcDbEntity
  8
0
100
AcDbCircle
 10
-5.378996620370761
 20
4.52439777231795
 30
0.0
 40
0.0980395409819625
210
0.0
220
0.0
230
-1.0
  0
CIRCLE
  5
101
330
33
100
AcDbEntity
  8
0
100
AcDbCircle
 10
-5.378996620370761
 20
4.52439777231795
 30
0.0
 40
0.0980395409819625
210
0.0
220
0.0
230
-1.0
  0
CIRCLE
  5
102
330
33
100
AcDbEntity
  8
0
100
AcDbCircle
 10
-5.378996620370761
 20
4.52439777231795
 30
0.0
 40
0.0980395409819625
210
0.0
220
0.0
230
-1.0
  0
CIRCLE
  5
103
330
33
100
AcDbEntity
  8
0
100
AcDbCircle
 10
-5.378996620370761
 20
4.753067611698729
 30
0.0
 40
0.0980395409819625
210
0.0
220
0.0
230
-1.0
  0
CIRCLE
  5
104
330
33
100
AcDbEntity
  8
0
100
AcDbCircle
 10
-5.378996620370761
 20
4.753067611698729
 30
0.0
 40
0.0980395409819625
210
0.0
220
0.0
230
-1.0
  0
CIRCLE
  5
105
330
33
100
AcDbEntity
  8
0
100
AcDbCircle
 10
-5.378996620370761
 20
4.753067611698729
 30
0.0
 40
0.0980395409819625
210
0.0
220
0.0
230
-1.0
  0
CIRCLE
  5
106
330
33
100
AcDbEntity
  8
0
100
AcDbCircle
 10
-5.378996620370761
 20
4.753067611698729
 30
0.0
 40
0.0980395409819625
210
0.0
220
0.0
230
-1.0
  0
CIRCLE
  5
107
330
33
100
AcDbEntity
  8
0
100
AcDbCircle
 10
-5.378996620370761
 20
4.753067611698729
 30
0.0
 40
0.0980395409819625
210
0.0
220
0.0
230
-1.0
  0
CIRCLE
  5
108
330
33
100
AcDbEntity
  8
0
100
AcDbCircle
 10
-5.378996620370761
 20
4.753067611698729
 30
0.0
 40
0.0980395409819625
210
0.0
220
0.0
230
-1.0
  0
CIRCLE
  5
109
330
33
100
AcDbEntity
  8
0
100
AcDbCircle
 10
-5.378996620370761
 20
4.753067611698729
 30
0.0
 40
0.0980395409819625
210
0.0
220
0.0
230
-1.0
  0
CIRCLE
  5
10A
330
33
100
AcDbEntity
  8
0
100
AcDbCircle
 10
-5.378996620370761
 20
4.753067611698729
 30
0.0
 40
0.0980395409819625
210
0.0
220
0.0
230
-1.0
  0
CIRCLE
  5
10B
330
33
100
AcDbEntity
  8
0
100
AcDbCircle
 10
-5.378996620370761
 20
4.753067611698729
 30
0.0
 40
0.0980395409819625
210
0.0
220
0.0
230
-1.0
  0
CIRCLE
  5
10C
330
33
100
AcDbEntity
  8
0
100
AcDbCircle
 10
-5.378996620370761
 20
4.753067611698729
 30
0.0
 40
0.0980395409819625
210
0.0
220
0.0
230
-1.0
  0
CIRCLE
  5
10D
330
33
100
AcDbEntity
  8
0
100
AcDbCircle
 10
-5.378996620370761
 20
4.753067611698729
 30
0.0
 40
0.0980395409819625
210
0.0
220
0.0
230
-1.0
  0
CIRCLE
  5
10E
330
33
100
AcDbEntity
  8
0
100
AcDbCircle
 10
-5.378996620370761
 20
4.126916762134382
 30
0.0
 40
0.0980395409819625
210
0.0
220
0.0
230
-1.0
  0
CIRCLE
  5
10F
330
33
100
AcDbEntity
  8
0
100
AcDbCircle
 10
-5.378996620370761
 20
4.126916762134382
 30
0.0
 40
0.0980395409819625
210
0.0
220
0.0
230
-1.0
  0
CIRCLE
  5
110
330
33
100
AcDbEntity
  8
0
100
AcDbCircle
 10
-5.378996620370761
 20
4.126916762134382
 30
0.0
 40
0.0980395409819625
210
0.0
220
0.0
230
-1.0
  0
CIRCLE
  5
111
330
33
100
AcDbEntity
  8
0
100
AcDbCircle
 10
-5.378996620370761
 20
4.126916762134382
 30
0.0
 40
0.0980395409819625
210
0.0
220
0.0
230
-1.0
  0
CIRCLE
  5
112
330
33
100
AcDbEntity
  8
0
100
AcDbCircle
 10
-5.378996620370761
 20
4.126916762134382
 30
0.0
 40
0.0980395409819625
210
0.0
220
0.0
230
-1.0
  0
CIRCLE
  5
113
330
33
100
AcDbEntity
  8
0
100
AcDbCircle
 10
-5.378996620370761
 20
4.126916762134382
 30
0.0
 40
0.0980395409819625
210
0.0
220
0.0
230
-1.0
  0
CIRCLE
  5
114
330
33
100
AcDbEntity
  8
0
100
AcDbCircle
 10
-5.378996620370761
 20
4.126916762134382
 30
0.0
 40
0.0980395409819625
210
0.0
220
0.0
230
-1.0
  0
CIRCLE
  5
115
330
33
100
AcDbEntity
  8
0
100
AcDbCircle
 10
-5.378996620370761
 20
4.126916762134382
 30
0.0
 40
0.0980395409819625
210
0.0
220
0.0
230
-1.0
  0
CIRCLE
  5
116
330
33
100
AcDbEntity
  8
0
100
AcDbCircle
 10
-5.378996620370761
 20
4.126916762134382
 30
0.0
 40
0.0980395409819625
210
0.0
220
0.0
230
-1.0
  0
CIRCLE
  5
117
330
33
100
AcDbEntity
  8
0
100
AcDbCircle
 10
-5.378996620370761
 20
4.126916762134382
 30
0.0
 40
0.0980395409819625
210
0.0
220
0.0
230
-1.0
  0
CIRCLE
  5
118
330
33
100
AcDbEntity
  8
0
100
AcDbCircle
 10
-5.378996620370761
 20
4.126916762134382
 30
0.0
 40
0.0980395409819625
210
0.0
220
0.0
230
-1.0
  0
TEXT
  5
119
330
33
100
AcDbEntity
  8
0
100
AcDbText
 10
-5.35421140557828
 20
4.479588934609369
 30
0.0
 40
0.0888620774192805
  1
2
 50
180.0
 71
     4
210
0.0
220
0.0
230
-1.0
100
AcDbText
  0
TEXT
  5
11A
330
33
100
AcDbEntity
  8
0
100
AcDbText
 10
-5.35421140557828
 20
4.082107924425801
 30
0.0
 40
0.0888620774192805
  1
3
 50
180.0
 71
     4
210
0.0
220
0.0
230
-1.0
100
AcDbText
  0
CIRCLE
  5
11B
330
33
100
AcDbEntity
  8
0
100
AcDbCircle
 10
-5.378996620370761
 20
3.794118267380291
 30
0.0
 40
0.0980395409819625
210
0.0
220
0.0
230
-1.0
  0
CIRCLE
  5
11C
330
33
100
AcDbEntity
  8
0
100
AcDbCircle
 10
-5.378996620370761
 20
3.794118267380291
 30
0.0
 40
0.0980395409819625
210
0.0
220
0.0
230
-1.0
  0
CIRCLE
  5
11D
330
33
100
AcDbEntity
  8
0
100
AcDbCircle
 10
-5.378996620370761
 20
3.794118267380291
 30
0.0
 40
0.0980395409819625
210
0.0
220
0.0
230
-1.0
  0
CIRCLE
  5
11E
330
33
100
AcDbEntity
  8
0
100
AcDbCircle
 10
-5.378996620370761
 20
3.794118267380291
 30
0.0
 40
0.0980395409819625
210
0.0
220
0.0
230
-1.0
  0
CIRCLE
  5
11F
330
33
100
AcDbEntity
  8
0
100
AcDbCircle
 10
-5.378996620370761
 20
3.794118267380291
 30
0.0
 40
0.0980395409819625
210
0.0
220
0.0
230
-1.0
  0
CIRCLE
  5
120
330
33
100
AcDbEntity
  8
0
100
AcDbCircle
 10
-5.378996620370761
 20
3.794118267380291
 30
0.0
 40
0.0980395409819625
210
0.0
220
0.0
230
-1.0
  0
CIRCLE
  5
121
330
33
100
AcDbEntity
  8
0
100
AcDbCircle
 10
-5.378996620370761
 20
3.794118267380291
 30
0.0
 40
0.0980395409819625
210
0.0
220
0.0
230
-1.0
  0
CIRCLE
  5
122
330
33
100
AcDbEntity
  8
0
100
AcDbCircle
 10
-5.378996620370761
 20
3.794118267380291
 30
0.0
 40
0.0980395409819625
210
0.0
220
0.0
230
-1.0
  0
CIRCLE
  5
123
330
33
100
AcDbEntity
  8
0
100
AcDbCircle
 10
-5.378996620370761
 20
3.794118267380291
 30
0.0
 40
0.0980395409819625
210
0.0
220
0.0
230
-1.0
  0
CIRCLE
  5
124
330
33
100
AcDbEntity
  8
0
100
AcDbCircle
 10
-5.378996620370761
 20
3.794118267380291
 30
0.0
 40
0.0980395409819625
210
0.0
220
0.0
230
-1.0
  0
CIRCLE
  5
125
330
33
100
AcDbEntity
  8
0
100
AcDbCircle
 10
-5.378996620370761
 20
3.794118267380291
 30
0.0
 40
0.0980395409819625
210
0.0
220
0.0
230
-1.0
  0
TEXT
  5
126
330
33
100
AcDbEntity
  8
0
100
AcDbText
 10
-5.35421140557828
 20
3.74930942967171
 30
0.0
 40
0.0888620774192805
  1
4
 50
180.0
 71
     4
210
0.0
220
0.0
230
-1.0
100
AcDbText
  0
ARC
  5
127
330
33
100
AcDbEntity
  8
0
100
AcDbCircle
 10
4.276363531390118
 20
4.02953645312493
 30
0.0
 40
0.2572245086918994
100
AcDbArc
 50
275.7261754045106
 51
14.00499625111254
  0
ARC
  5
128
330
33
100
AcDbEntity
  8
0
100
AcDbCircle
 10
4.741570494701207
 20
3.688263144439654
 30
0.0
 40
0.4575223879415167
100
AcDbArc
 50
118.1184666773611
 51
164.2832232115838
  0
ARC
  5
129
330
33
100
AcDbEntity
  8
0
100
AcDbCircle
 10
3.822028092668611
 20
3.757104290935892
 30
0.0
 40
0.482282787373453
100
AcDbArc
 50
353.7343055553095
 51
49.09591154482351
  0
ARC
  5
12A
330
33
100
AcDbEntity
  8
0
100
AcDbCircle
 10
4.907894031717536
 20
4.047040862569006
 30
0.0
 40
0.7736723656053133
100
AcDbArc
 50
174.4685428755256
 51
200.0511708073916
  0
POINT
  5
12B
330
33
100
AcDbEntity
  8
0
100
AcDbPoint
 10
4.295915966956247
 20
3.83485124866886
 30
0.0
  0
POINT
  5
12C
330
33
100
AcDbEntity
  8
0
100
AcDbPoint
 10
4.14889578399006
 20
4.126706842758905
 30
0.0
  0
ARC
  5
12D
330
33
100
AcDbEntity
  8
0
100
AcDbCircle
 10
4.056281017716057
 20
3.91036749107715
 30
0.0
 40
0.4547452697282272
100
AcDbArc
 50
323.4190824324316
 51
351.5061018695616
  0
POINT
  5
12E
330
33
100
AcDbEntity
  8
0
100
AcDbPoint
 10
4.423594796062735
 20
4.019787027582227
 30
0.0
  0
TEXT
  5
12F
330
33
100
AcDbEntity
  8
0
100
AcDbText
 10
-5.370142819598417
 20
4.708258773990147
 30
0.0
 40
0.0888620774192805
  1
1
 50
180.0
 71
     4
210
0.0
220
0.0
230
-1.0
100
AcDbText
  0
TEXT
  5
130
330
33
100
AcDbEntity
  8
0
100
AcDbText
 10
5.555360591030507
 20
4.339421453156429
 30
0.0
 40
0.0684360496240188
  1
16-016
100
AcDbText
  0
ENDBLK
  5
11FE
330
33
100
AcDbEntity
  8
0
100
AcDbBlockEnd
  0
BLOCK
  5
11FF
330
33D
100
AcDbEntity
  8
0
100
AcDbBlockBegin
  2
A$C73102F95
 70
     0
 10
0.0
 20
0.0
 30
0.0
  3
A$C73102F95
  1

  0
TEXT
  5
33E
330
33D
100
AcDbEntity
  8
0
100
AcDbText
 10
-0.3087257888727351
 20
0.0920977512059817
 30
0.0
 40
0.0888620774192805
  1
10
 50
180.0
 71
     4
210
0.0
220
0.0
230
-1.0
100
AcDbText
  0
CIRCLE
  5
33F
330
33D
100
AcDbEntity
  8
0
100
AcDbCircle
 10
-0.39684117339021
 20
0.1375672617211334
 30
0.0
 40
0.0980395409819625
210
0.0
220
0.0
230
-1.0
  0
LINE
  5
340
330
33D
100
AcDbEntity
  8
0
100
AcDbLine
 10
0.0000000090227408
 20
-0.0000000037256633
 30
0.0
 11
0.3005747860635299
 21
0.119005627444392
 31
0.0
210
0.0
220
0.0
230
-1.0
  0
SOLID
  5
341
330
33D
100
AcDbEntity
  8
0
100
AcDbTrace
 10
-0.0997213807469057
 20
0.0618471438657409
 30
0.0
 11
-0.0000000090227417
 21
-0.0000000037256633
 31
0.0
 12
-0.1143895706833513
 22
0.0261619883016113
 32
0.0
 13
-0.1143895706833513
 23
0.0261619883016113
 33
0.0
210
0.0
220
0.0
230
-1.0
  0
ENDBLK
  5
1200
330
33D
100
AcDbEntity
  8
0
100
AcDbBlockEnd
  0
BLOCK
  5
1201
330
4C6
100
AcDbEntity
  8
0
100
AcDbBlockBegin
  2
A$C2E7D3BBB
 70
     0
 10
0.0
 20
0.0
 30
0.0
  3
A$C2E7D3BBB
  1

  0
LINE
  5
4C7
330
4C6
100
AcDbEntity
  8
0
100
AcDbLine
 10
1.389203700159665
 20
1.406198802593307
 30
0.0
 11
1.525369903644106
 21
1.406198802593306
 31
0.0
  0
LINE
  5
4C8
330
4C6
100
AcDbEntity
  8
0
100
AcDbLine
 10
1.726842320542346
 20
1.448380403227189
 30
0.0
 11
1.368112899842724
 21
1.448380403227189
 31
0.0
  0
LINE
  5
4C9
330
4C6
100
AcDbEntity
  8
0
100
AcDbLine
 10
1.368112899842724
 20
1.30645932527691
 30
0.0
 11
1.726842320542346
 21
1.306459325276909
 31
0.0
  0
HATCH
  5
4CA
330
4C6
100
AcDbEntity
  8
0
100
AcDbHatch
 10
0.0
 20
0.0
 30
0.0
210
0.0
220
0.0
230
1.0
  2
AR-CONC
 70
     0
 71
     1
 91
        2
 92
        7
 72
     1
 73
     1
 93
      206
 10
0.9763356630689453
 20
0.4157402203071792
 42
0.0
 10
0.9763356630689453
 20
0.4196256473648967
 42
0.0
 10
0.929658257913311
 20
0.4196256473648958
 42
0.0
 10
0.9296582579133101
 20
0.4235110689045545
 42
0.0
 10
0.8635319347851098
 20
0.4235110689045545
 42
0.0
 10
0.8635319347851098
 20
0.4273964904442122
 42
0.0
 10
0.7935158321053288
 20
0.4273964904442122
 42
0.0
 10
0.7935158321053271
 20
0.4312819119838709
 42
0.0
 10
0.711532690178907
 20
0.4312819119838709
 42
-0.0405295014900261
 10
0.7047055078021485
 20
0.4312819119838709
 42
0.0
 10
0.2878439749258757
 20
0.4312819119838718
 42
0.0
 10
0.2878439749258757
 20
0.4273964904442122
 42
0.0
 10
0.1322526311453247
 20
0.4273964904442131
 42
0.0
 10
0.1322526311453229
 20
0.4312819119838709
 42
0.0
 10
0.1166934927243304
 20
0.4312819119838718
 42
0.0
 10
0.1166934927243313
 20
0.4273964904442114
 42
0.0
 10
0.1011343644106821
 20
0.4273964904442122
 42
0.0
 10
0.1011343644106812
 20
0.4235110689045563
 42
0.0
 10
0.0933547952001863
 20
0.4235110689045563
 42
0.0
 10
0.0933547952001863
 20
0.4157402203071792
 42
0.0
 10
0.0855752259896896
 20
0.4157402203071792
 42
0.0
 10
0.0855752259896887
 20
0.4118547987675205
 42
0.0
 10
0.0777956668865327
 20
0.4118547987675214
 42
0.0
 10
0.0777956668865336
 20
0.4040839556882068
 42
0.0
 10
0.0700160976760378
 20
0.4040839556882077
 42
0.0
 10
0.0700160976760396
 20
0.3963131070908306
 42
0.0
 10
0.0622365284655428
 20
0.3963131070908279
 42
0.0
 10
0.0622365284655446
 20
0.3924276855511728
 42
0.0
 10
0.054456959255047
 20
0.3924276855511719
 42
0.0
 10
0.054456959255047
 20
0.3691151507951673
 42
0.0
 10
0.0466773900445512
 20
0.3691151507951673
 42
0.0
 10
0.0466773900445512
 20
0.3458026160391601
 42
0.0
 10
0.0427876104929732
 20
0.3458026160391601
 42
0.0
 10
0.0427876104929723
 20
0.338031767441783
 42
0.0
 10
0.038897830941397
 20
0.338031767441783
 42
0.0
 10
0.038897830941397
 20
0.3224900812831528
 42
0.0
 10
0.0350080412824765
 20
0.3224900812831528
 42
0.0
 10
0.0350080412824783
 20
0.3108338111461197
 42
0.0
 10
0.0311182617309012
 20
0.3108338111461197
 42
0.0
 10
0.0311182617309012
 20
0.2991775410090849
 42
0.0
 10
0.0233386925204062
 20
0.2991775410090849
 42
0.0
 10
0.0233386925204062
 20
0.2875212763901125
 42
0.0
 10
0.0194489129688264
 20
0.2875212763901125
 42
0.0
 10
0.0194489129688273
 20
0.2719795847134217
 42
0.0
 10
0.0116693437583324
 20
0.2719795847134217
 42
0.0
 10
0.0116693437583333
 20
0.2564378930367317
 42
0.0
 10
0.0077795540994119
 20
0.2564378930367308
 42
0.0
 10
0.0077795540994119
 20
0.2486670499574153
 42
0.0
 10
0.0038897745478348
 20
0.2486670499574162
 42
0.0
 10
0.0038897745478348
 20
0.2408962068781006
 42
0.0
 10
-0.0000000050037414
 20
0.2408962068781006
 42
0.0
 10
-0.0000000050037414
 20
0.1204481005222888
 42
0.0
 10
0.0038897745478348
 20
0.1204481005222888
 42
0.0
 10
0.0038897745478348
 20
0.1049064143636587
 42
0.0
 10
0.0077795540994119
 20
0.1049064143636578
 42
0.0
 10
0.0077795540994128
 20
0.0971355657662825
 42
0.0
 10
0.0155591233099077
 20
0.0971355657662825
 42
0.0
 10
0.0155591233099077
 20
0.0854793011473092
 42
0.0
 10
0.0233386925204053
 20
0.0854793011473101
 42
0.0
 10
0.0233386925204044
 20
0.0777084525499321
 42
0.0
 10
0.0311182617309003
 20
0.077708452549933
 42
0.0
 10
0.0311182617309003
 20
0.0738230310102761
 42
0.0
 10
0.0388978309413952
 20
0.073823031010277
 42
0.0
 10
0.0388978309413943
 20
0.0699376094706174
 42
0.0
 10
0.0933547952001845
 20
0.0699376094706174
 42
0.0
 10
0.0933547952001845
 20
0.0738230310102761
 42
0.0
 10
0.1050241439622557
 20
0.0738230310102761
 42
0.0
 10
0.1050241439622566
 20
0.077708452549933
 42
0.0
 10
0.2333870005597438
 20
0.077708452549933
 42
0.0
 10
0.2333870005597438
 20
0.073823031010277
 42
0.0
 10
0.2411665697702388
 20
0.073823031010277
 42
0.0
 10
0.2411665697702396
 20
0.0699376094706174
 42
0.0
 10
0.2567257081912304
 20
0.0699376094706174
 42
0.0
 10
0.2567257081912304
 20
0.0660521879309606
 42
0.0
 10
0.272284836504884
 20
0.0660521879309606
 42
0.0
 10
0.272284836504884
 20
0.0621667663913028
 42
0.0
 10
0.2839541852669569
 20
0.0621667663913028
 42
0.0
 10
0.2839541852669569
 20
0.0582813393335861
 42
0.0
 10
0.3034031032395248
 20
0.0582813393335853
 42
0.0
 10
0.3034031032395257
 20
0.0543959177939266
 42
0.0
 10
0.3189622416605165
 20
0.0543959177939275
 42
0.0
 10
0.3189622416605165
 20
0.050510496254268
 42
0.0
 10
0.3384111596330861
 20
0.0505104962542688
 42
0.0
 10
0.3384111596330852
 20
0.0466250747146111
 42
0.0
 10
0.353970298054076
 20
0.0466250747146111
 42
0.0
 10
0.353970298054076
 20
0.0427396531749533
 42
0.0
 10
0.3734192059193058
 20
0.0427396531749533
 42
0.0
 10
0.3734192059193058
 20
0.0388542261172349
 42
0.0
 10
0.3850885647887186
 20
0.0388542261172349
 42
0.0
 10
0.3850885647887177
 20
0.034968804577578
 42
0.0
 10
0.4940025034136362
 20
0.034968804577578
 42
0.0
 10
0.4940025034136371
 20
0.0388542261172349
 42
0.0
 10
0.5290105496998585
 20
0.0388542261172349
 42
0.0
 10
0.5290105496998585
 20
0.0427396531749533
 42
0.0
 10
0.5601288164345011
 20
0.0427396531749533
 42
0.0
 10
0.560128816434502
 20
0.046625074714612
 42
0.0
 10
0.5717981753039139
 20
0.046625074714612
 42
0.0
 10
0.571798175303913
 20
0.0505104962542688
 42
0.0
 10
0.719609949873969
 20
0.050510496254268
 42
0.0
 10
0.7196099498739708
 20
0.0466250747146111
 42
0.0
 10
0.7662873449222634
 20
0.0466250747146111
 42
0.0
 10
0.7662873449222616
 20
0.0427396531749533
 42
0.0
 10
0.9218786887028152
 20
0.0427396531749533
 42
0.0
 10
0.9218786887028161
 20
0.0388542261172349
 42
0.0
 10
0.9646663041995298
 20
0.0388542261172349
 42
0.0
 10
0.9646663041995307
 20
0.034968804577578
 42
0.0
 10
1.023013058117236
 20
0.0349688045775771
 42
0.0
 10
1.023013058117236
 20
0.0310833830379202
 42
0.0
 10
1.4742279510379
 20
0.0310833830379202
 42
0.0
 10
1.4742279510379
 20
0.0271979614982616
 42
0.0
 10
1.524795135745112
 20
0.0271979614982616
 42
0.0
 10
1.524795135745113
 20
0.0233125399586065
 42
0.0
 10
1.629819294818454
 20
0.0233125399586056
 42
0.0
 10
1.629819294818454
 20
0.0194271129008863
 42
0.0
 10
1.637598864028947
 20
0.0194271129008863
 42
0.0
 10
1.637598864028947
 20
0.0155416913612285
 42
0.0
 10
1.6531579923426
 20
0.0155416913612285
 42
0.0
 10
1.6531579923426
 20
0.0077708482819139
 42
0.0
 10
1.676496689866748
 20
0.0077708482819139
 42
0.0
 10
1.676496689866748
 20
0.003885426742257
 42
0.0
 10
1.692055828287739
 20
0.0038854267422561
 42
0.0
 10
1.69205582828774
 20
-0.0000000003154641
 42
0.0
 10
1.820418684885227
 20
-0.0000000003154623
 42
0.0
 10
1.820418684885226
 20
0.003885426742257
 42
0.0
 10
1.882655218354512
 20
0.003885426742257
 42
0.0
 10
1.882655218354513
 20
0.0077708482819139
 42
0.0
 10
1.917663274748072
 20
0.0077708482819139
 42
0.0
 10
1.917663274748072
 20
0.0116562698215708
 42
0.0
 10
1.941001972272218
 20
0.0116562698215708
 42
0.0
 10
1.941001972272218
 20
0.0155416913612285
 42
0.0
 10
1.948781541482713
 20
0.0155416913612285
 42
0.0
 10
1.948781541482713
 20
0.0194271129008863
 42
0.0
 10
2.419445352375947
 20
0.0194271129008863
 42
0.0
 10
2.419445352375947
 20
0.0233125399586056
 42
0.0
 10
2.462232967872662
 20
0.0233125399586056
 42
0.0
 10
2.462232967872662
 20
0.0271979614982625
 42
0.0
 10
2.477792106293652
 20
0.0271979614982625
 42
0.0
 10
2.477792106293652
 20
0.0310833830379202
 42
0.0
 10
2.489461455055729
 20
0.0310833830379202
 42
0.0
 10
2.489461455055729
 20
0.0349688045775789
 42
0.0
 10
2.516689942238791
 20
0.0349688045775789
 42
0.0
 10
2.516689942238791
 20
0.0427396531749533
 42
0.0
 10
2.532249070552444
 20
0.0427396531749533
 42
0.0
 10
2.532249070552444
 20
0.0466250747146111
 42
0.0
 10
2.543918419314515
 20
0.0466250747146111
 42
0.0
 10
2.543918419314515
 20
0.0505104962542688
 42
0.0
 10
2.559477557735509
 20
0.0505104962542688
 42
0.0
 10
2.559477557735509
 20
0.0582813393335861
 42
0.0
 10
2.57114690649758
 20
0.0582813393335853
 42
0.0
 10
2.571146906497582
 20
0.0621667663913037
 42
0.0
 10
2.578926475708077
 20
0.0621667663913037
 42
0.0
 10
2.578926475708077
 20
0.0699376094706174
 42
0.0
 10
2.590595824470149
 20
0.0699376094706174
 42
0.0
 10
2.590595824470149
 20
0.0777084525499312
 42
0.0
 10
2.602265173232224
 20
0.0777084525499321
 42
0.0
 10
2.602265173232224
 20
0.0854793011473083
 42
0.0
 10
2.613934521994299
 20
0.0854793011473083
 42
0.0
 10
2.613934521994297
 20
0.089364722686966
 42
0.0
 10
2.621714091204792
 20
0.089364722686966
 42
0.0
 10
2.621714091204792
 20
0.0971355657662816
 42
0.0
 10
2.629493660415289
 20
0.0971355657662816
 42
0.0
 10
2.629493660415287
 20
0.1049064143636578
 42
0.0
 10
2.641163009177362
 20
0.1049064143636578
 42
0.0
 10
2.641163009177363
 20
0.1126772574429733
 42
0.0
 10
2.64894257838786
 20
0.1126772574429733
 42
0.0
 10
2.648942578387855
 20
0.1204481005222879
 42
0.0
 10
2.656722147598352
 20
0.1204481005222879
 42
0.0
 10
2.65672214759835
 20
0.1243335275800064
 42
0.0
 10
2.66061192714993
 20
0.1243335275800073
 42
0.0
 10
2.66061192714993
 20
0.1359897921989814
 42
0.0
 10
2.66450171680885
 20
0.1359897921989797
 42
0.0
 10
2.66450171680885
 20
0.1515314838756714
 42
0.0
 10
2.676171065570921
 20
0.1515314838756714
 42
0.0
 10
2.676171065570919
 20
0.159302326954986
 42
0.0
 10
2.680060845122501
 20
0.159302326954986
 42
0.0
 10
2.680060845122501
 20
0.17095859709202
 42
0.0
 10
2.687840414332994
 20
0.17095859709202
 42
0.0
 10
2.687840414332994
 20
0.1865002887687108
 42
0.0
 10
2.695619983543489
 20
0.1865002887687108
 42
0.0
 10
2.695619983543489
 20
0.3186046542254353
 42
0.0
 10
2.691730193884572
 20
0.3186046542254344
 42
0.0
 10
2.691730193884572
 20
0.388542264011515
 42
0.0
 10
2.687840414332996
 20
0.388542264011515
 42
0.0
 10
2.687840414332994
 20
0.400198534148549
 42
0.0
 10
2.676171065570919
 20
0.400198534148549
 42
0.0
 10
2.676171065570921
 20
0.4157402203071792
 42
0.0
 10
2.66450171680885
 20
0.4157402203071774
 42
0.0
 10
2.66450171680885
 20
0.4273964904442122
 42
0.0
 10
2.248294870174405
 20
0.4273964904442131
 42
0.0
 10
2.248294870174407
 20
0.4235110689045554
 42
0.0
 10
2.069364828869707
 20
0.4235110689045554
 42
0.0
 10
2.069364828869707
 20
0.4196256473648958
 42
0.0
 10
2.038246562135063
 20
0.4196256473648967
 42
0.0
 10
2.038246562135063
 20
0.4157402203071783
 42
0.0
 10
2.011018074952001
 20
0.4157402203071792
 42
0.0
 10
2.011018074952
 20
0.4118547987675214
 42
0.0
 10
1.999348726189927
 20
0.4118547987675196
 42
0.0
 10
1.999348726189928
 20
0.4064725151375015
 42
0.0
 10
2.328839895443602
 20
0.4064725151375006
 42
0.0
 10
2.328839895443602
 20
0.2103733732637867
 42
0.0
 10
1.920685854217046
 20
0.2103733732637867
 42
0.0
 10
1.920685854217045
 20
0.4079693772278628
 42
0.0
 10
1.839867602857796
 20
0.4079693772278645
 42
0.0
 10
1.839867602857796
 20
0.4118547987675205
 42
0.0
 10
1.74262301299495
 20
0.4118547987675196
 42
0.0
 10
1.74262301299495
 20
0.4157402203071783
 42
0.0
 97
        6
330
513
330
4D5
330
4F9
330
4FB
330
4F8
330
4FA
 92
       22
 72
     0
 73
     1
 93
        4
 10
0.8155399454684016
 20
0.2103733732637858
 10
0.4073859042418446
 20
0.2103733732637876
 10
0.4073859042418455
 20
0.4064725151375015
 10
0.8155399454684025
 20
0.4064725151375015
 97
        4
330
4CE
330
4D1
330
4CD
330
4D2
 75
     0
 76
     1
 52
-0.0000000000000127
 41
0.2990360829699634
 77
     0
 78
    13
 53
49.99999999999998
 43
-5.151383610894985
 44
-0.6706960633734288
 45
2.1448667547525
 46
-0.1876515264319772
 79
     2
 49
0.2242770622274725
 49
-2.467047684502198
 53
355.0
 43
-5.151383610894985
 44
-0.6706960633734288
 45
-0.4149165531049008
 46
2.249325893024706
 79
     2
 49
0.179421649781978
 49
-1.973638147601759
 53
100.4513999999999
 43
-4.972644720297643
 44
-0.68633367687461
 45
1.729951794691365
 46
2.061673001025129
 79
     2
 49
0.1906061674536118
 49
-2.096667907777669
 53
46.18419999999998
 43
-5.151383610894985
 44
-0.0726238974335018
 45
3.19143582765769
 46
-0.4949615770199893
 79
     2
 49
0.3364155933412088
 49
-3.700571526753297
 53
96.63559999999997
 43
-4.885430652325999
 44
-0.1138708623983238
 45
2.794978743653924
 46
2.912963924651084
 79
     2
 49
0.2859092601515001
 49
-3.145001359285879
 53
351.1842
 43
-5.151383610894985
 44
-0.0726238974335018
 45
2.794976469738466
 46
2.912966107688899
 79
     2
 49
0.2691324746729668
 49
-2.960457221402636
 53
20.99999999999995
 43
-4.852347527925021
 44
-0.2221419389184831
 45
1.784967467626525
 46
-1.203975759942749
 79
     2
 49
0.2242770622274725
 49
-2.467047684502198
 53
326.0
 43
-4.852347527925021
 44
-0.2221419389184831
 45
0.7276006378436632
 46
2.168460290363034
 79
     2
 49
0.179421649781978
 49
-1.973638147601758
 53
71.45139999999996
 43
-4.703600302780028
 44
-0.3224733472743982
 45
2.512568836737351
 46
0.9644825637450076
 79
     2
 49
0.1906061674536123
 49
-2.096667907777673
 53
37.49999999999999
 43
-5.151383610894985
 44
-0.6706960633734288
 45
0.0363623550356412
 46
0.9954727409449095
 79
     6
 49
0.0
 49
-1.94971526096416
 49
0.0
 49
-2.003541755898753
 49
0.0
 49
-1.981114049676006
 53
7.499999999999979
 43
-5.151383610894985
 44
-0.6706960633734288
 45
0.7866728402542033
 46
1.179433333987788
 79
     6
 49
0.0
 49
-1.14231783694526
 49
0.0
 49
-1.904859848518667
 49
0.0
 49
-0.7550661094991573
 53
327.5
 43
-5.818234075918003
 44
-0.6706960633734289
 45
1.596321703144806
 46
-0.0674472049533895
 79
     6
 49
0.0
 49
-0.7475902074249084
 49
0.0
 49
-2.332481447165714
 49
0.0
 49
-3.095023458739121
 53
317.4999999999999
 43
-6.117270158887967
 44
-0.6706960633734287
 45
1.743937077224049
 46
0.2993500180243361
 79
     6
 49
0.0
 49
-0.9718672696523811
 49
0.0
 49
-1.54900690978441
 49
0.0
 49
-2.19791520982923
 47
0.0
 98
        7
 10
0.0
 20
0.0
 10
0.0
 20
0.0
 10
0.0
 20
0.0
 10
0.0
 20
0.0
 10
0.0
 20
0.0
 10
1.601836990757834
 20
0.250204126209562
 10
1.601836990757834
 20
0.250204126209562
  0
LINE
  5
4CB
330
4C6
100
AcDbEntity
  8
0
 62
     7
100
AcDbLine
 10
0.9464492727769347
 20
1.410509071943279
 30
0.0
 11
0.8565391005807097
 21
0.978958685931369
 31
0.0
210
0.0
220
0.0
230
-1.0
  0
LINE
  5
4CC
330
4C6
100
AcDbEntity
  8
0
 62
     7
100
AcDbLine
 10
0.9256966670446527
 20
1.414270881790877
 30
0.0
 11
0.8352797239038097
 21
0.9802908370144312
 31
0.0
210
0.0
220
0.0
230
-1.0
  0
LINE
  5
4CD
102
{ACAD_REACTORS
330
4CA
330
512
102
}
330
4C6
100
AcDbEntity
  8
0
 62
     7
100
AcDbLine
 10
0.8155399454684016
 20
0.4064725151375015
 30
0.0
 11
0.4073859042418455
 21
0.4064725151375015
 31
0.0
210
0.0
220
0.0
230
-1.0
  0
LINE
  5
4CE
102
{ACAD_REACTORS
330
4CA
330
512
102
}
330
4C6
100
AcDbEntity
  8
0
 62
     7
100
AcDbLine
 10
0.8155399454684016
 20
0.2103733732637867
 30
0.0
 11
0.4073859042418455
 21
0.2103733732637867
 31
0.0
210
0.0
220
0.0
230
-1.0
  0
LINE
  5
4CF
330
4C6
100
AcDbEntity
  8
0
 62
     7
100
AcDbLine
 10
0.8155399454684016
 20
0.4064725151375015
 30
0.0
 11
0.4073859042418455
 21
0.2103733732637867
 31
0.0
210
0.0
220
0.0
230
-1.0
  0
LINE
  5
4D0
330
4C6
100
AcDbEntity
  8
0
 62
     7
100
AcDbLine
 10
0.4073859042418455
 20
0.4064725151375015
 30
0.0
 11
0.8155399454684016
 21
0.2103733732637867
 31
0.0
210
0.0
220
0.0
230
-1.0
  0
LINE
  5
4D1
102
{ACAD_REACTORS
330
4CA
330
512
102
}
330
4C6
100
AcDbEntity
  8
0
 62
     7
100
AcDbLine
 10
0.4073859042418455
 20
0.4064725151375015
 30
0.0
 11
0.4073859042418455
 21
0.2103733732637867
 31
0.0
210
0.0
220
0.0
230
-1.0
  0
LINE
  5
4D2
102
{ACAD_REACTORS
330
4CA
330
512
102
}
330
4C6
100
AcDbEntity
  8
0
 62
     7
100
AcDbLine
 10
0.8155399454684016
 20
0.4064725151375015
 30
0.0
 11
0.8155399454684016
 21
0.2103733732637867
 31
0.0
210
0.0
220
0.0
230
-1.0
  0
LINE
  5
4D3
330
4C6
100
AcDbEntity
  8
0
 62
     7
100
AcDbLine
 10
0.8352797239038097
 20
0.9802908370144312
 30
0.0
 11
0.7906971562406779
 21
0.7663050060562275
 31
0.0
210
0.0
220
0.0
230
-1.0
  0
LINE
  5
4D4
330
4C6
100
AcDbEntity
  8
0
 62
     7
100
AcDbLine
 10
0.8565391005807097
 20
0.978958685931369
 30
0.0
 11
0.8122343575067248
 21
0.7663050060562266
 31
0.0
210
0.0
220
0.0
230
-1.0
  0
ARC
  5
4D5
102
{ACAD_REACTORS
330
4CA
330
512
102
}
330
4C6
100
AcDbEntity
  8
0
 62
     7
100
AcDbCircle
 10
-0.7081190989905277
 20
0.4733251614685958
 30
0.0
 40
0.042181600633881
210
0.0
220
0.0
230
-1.0
100
AcDbArc
 50
190.4069068187765
 51
353.2490412413074
  0
ARC
  5
4D6
330
4C6
100
AcDbEntity
  8
0
 62
     7
100
AcDbCircle
 10
-0.7081190989905277
 20
0.4733251614685958
 30
0.0
 40
0.0210908003169405
210
0.0
220
0.0
230
-1.0
100
AcDbArc
 50
190.4069068187765
 51
0.1325067917467897
  0
LINE
  5
4D7
330
4C6
100
AcDbEntity
  8
0
 62
     7
100
AcDbLine
 10
0.6662299649062753
 20
0.468366544957135
 30
0.0
 11
0.6870283550755083
 21
0.473373937692914
 31
0.0
210
0.0
220
0.0
230
-1.0
  0
LINE
  5
4D8
330
4C6
100
AcDbEntity
  8
0
 62
     7
100
AcDbLine
 10
0.7615491232745022
 20
0.626401308669541
 30
0.0
 11
0.7288629493714307
 21
0.4695153675917805
 31
0.0
210
0.0
220
0.0
230
-1.0
  0
LINE
  5
4D9
330
4C6
100
AcDbEntity
  8
0
 62
     7
100
AcDbLine
 10
0.7830865084243257
 20
0.6264013086695401
 30
0.0
 11
0.7496067997523452
 21
0.4657055737150326
 31
0.0
210
0.0
220
0.0
230
-1.0
  0
ARC
  5
4DA
330
4C6
100
AcDbEntity
  8
0
 62
     7
100
AcDbCircle
 10
-0.9672018785092176
 20
1.406747262095683
 30
0.0
 40
0.0210908003169405
210
0.0
220
0.0
230
-1.0
100
AcDbArc
 50
10.27440002702978
 51
179.9999999999999
  0
ARC
  5
4DB
330
4C6
100
AcDbEntity
  8
0
 62
     7
100
AcDbCircle
 10
-0.9672018785092176
 20
1.406747262095683
 30
0.0
 40
0.042181600633881
210
0.0
220
0.0
230
-1.0
100
AcDbArc
 50
10.27440002702978
 51
180.0
  0
LINE
  5
4DC
330
4C6
100
AcDbEntity
  8
0
100
AcDbLine
 10
1.009383479143102
 20
1.448380403227189
 30
0.0
 11
1.368112899842724
 21
1.448380403227189
 31
0.0
  0
ARC
  5
4DD
330
4C6
100
AcDbEntity
  8
0
 62
     7
100
AcDbCircle
 10
-1.1897650957244
 20
1.327562026663841
 30
0.0
 40
0.0210908003169405
210
0.0
220
0.0
230
-1.0
100
AcDbArc
 50
180.0
 51
0.0000000000000254
  0
LINE
  5
4DE
330
4C6
100
AcDbEntity
  8
0
100
AcDbLine
 10
1.368112899842724
 20
1.30645932527691
 30
0.0
 11
1.009383479143102
 21
1.306459325276909
 31
0.0
  0
LINE
  5
4DF
330
4C6
100
AcDbEntity
  8
0
 62
     7
100
AcDbLine
 10
1.009383479143102
 20
1.407102782223982
 30
0.0
 11
1.009383479143102
 21
1.30645932527691
 31
0.0
210
0.0
220
0.0
230
-1.0
  0
LINE
  5
4E0
330
4C6
100
AcDbEntity
  8
0
 62
     7
100
AcDbLine
 10
1.009383479143102
 20
1.406747262095683
 30
0.0
 11
1.009383479143102
 21
1.30645932527691
 31
0.0
210
0.0
220
0.0
230
-1.0
  0
LINE
  5
4E1
330
4C6
100
AcDbEntity
  8
0
 62
     7
100
AcDbLine
 10
0.9882926788261592
 20
1.406747262095683
 30
0.0
 11
0.9882926788261592
 21
1.30645932527691
 31
0.0
210
0.0
220
0.0
230
-1.0
  0
LINE
  5
4E2
330
4C6
100
AcDbEntity
  8
0
 62
     7
100
AcDbLine
 10
1.168674295407461
 20
1.406198802593307
 30
0.0
 11
1.168674295407461
 21
1.327562026663841
 31
0.0
210
0.0
220
0.0
230
-1.0
  0
LINE
  5
4E3
330
4C6
100
AcDbEntity
  8
0
 62
     7
100
AcDbLine
 10
1.009383479143102
 20
1.448380403227189
 30
0.0
 11
1.009383479143102
 21
1.30645932527691
 31
0.0
210
0.0
220
0.0
230
-1.0
  0
LINE
  5
4E4
330
4C6
100
AcDbEntity
  8
0
 62
     7
100
AcDbLine
 10
1.009383479143102
 20
1.285368524959967
 30
0.0
 11
1.009383479143102
 21
1.285368524959967
 31
0.0
210
0.0
220
0.0
230
-1.0
  0
ARC
  5
4E5
330
4C6
100
AcDbEntity
  8
0
 62
     7
100
AcDbCircle
 10
-1.009383479143102
 20
1.285368524959969
 30
0.0
 40
0.0210908003169405
210
0.0
220
0.0
230
-1.0
100
AcDbArc
 50
90.0
 51
180.0
  0
ARC
  5
4E6
330
4C6
100
AcDbEntity
  8
0
 62
     7
100
AcDbCircle
 10
-1.009383479143102
 20
1.30645932527691
 30
0.0
 40
0.0210908003169405
210
0.0
220
0.0
230
-1.0
100
AcDbArc
 50
270.0
 51
0.0000000000000254
  0
LINE
  5
4E7
330
4C6
100
AcDbEntity
  8
0
 62
     7
100
AcDbLine
 10
1.009383479143102
 20
1.264277724643026
 30
0.0
 11
1.030474279460041
 21
1.264277724643026
 31
0.0
210
0.0
220
0.0
230
-1.0
  0
LINE
  5
4E8
330
4C6
100
AcDbEntity
  8
0
 62
     7
100
AcDbLine
 10
1.030474279460041
 20
1.285368524959967
 30
0.0
 11
1.030474279460041
 21
1.264277724643026
 31
0.0
210
0.0
220
0.0
230
-1.0
  0
LINE
  5
4E9
330
4C6
100
AcDbEntity
  8
0
 62
     7
100
AcDbLine
 10
1.009383479143102
 20
1.285368524959967
 30
0.0
 11
1.009383479143102
 21
1.264277724643026
 31
0.0
210
0.0
220
0.0
230
-1.0
  0
LINE
  5
4EA
330
4C6
100
AcDbEntity
  8
0
100
AcDbLine
 10
1.168674295407461
 20
1.406198802593306
 30
0.0
 11
1.009383479143102
 21
1.406198802593306
 31
0.0
  0
LINE
  5
4EB
330
4C6
100
AcDbEntity
  8
0
 62
     7
100
AcDbLine
 10
1.009383479143102
 20
1.342926401642485
 30
0.0
 11
1.009383479143102
 21
1.342926401642485
 31
0.0
210
0.0
220
0.0
230
-1.0
  0
LINE
  5
4EC
330
4C6
100
AcDbEntity
  8
0
 62
     7
100
AcDbLine
 10
1.389203700159665
 20
1.406198802593307
 30
0.0
 11
1.389203700159665
 21
1.327550125593849
 31
0.0
210
0.0
220
0.0
230
-1.0
  0
LINE
  5
4ED
330
4C6
100
AcDbEntity
  8
0
 62
     7
100
AcDbLine
 10
1.210855896041341
 20
1.406198802593307
 30
0.0
 11
1.210855896041341
 21
1.327562026663841
 31
0.0
210
0.0
220
0.0
230
-1.0
  0
LINE
  5
4EE
330
4C6
100
AcDbEntity
  8
0
 62
     7
100
AcDbLine
 10
1.347022099525783
 20
1.406198802593307
 30
0.0
 11
1.347022099525783
 21
1.327550125593849
 31
0.0
210
0.0
220
0.0
230
-1.0
  0
LINE
  5
4EF
330
4C6
100
AcDbEntity
  8
0
 62
     7
100
AcDbLine
 10
1.226689937798903
 20
1.30645932527691
 30
0.0
 11
1.226689937798903
 21
1.30645932527691
 31
0.0
210
0.0
220
0.0
230
-1.0
  0
ARC
  5
4F0
330
4C6
100
AcDbEntity
  8
0
 62
     7
100
AcDbCircle
 10
-1.368112899842725
 20
1.327550125593848
 30
0.0
 40
0.0210908003169405
210
0.0
220
0.0
230
-1.0
100
AcDbArc
 50
180.0
 51
269.9999999999986
  0
ARC
  5
4F1
330
4C6
100
AcDbEntity
  8
0
 62
     7
100
AcDbCircle
 10
-1.368112899842723
 20
1.327550125593848
 30
0.0
 40
0.0210908003169405
210
0.0
220
0.0
230
-1.0
100
AcDbArc
 50
270.0000000000014
 51
0.0000000000000254
  0
LINE
  5
4F2
330
4C6
100
AcDbEntity
  8
0
100
AcDbLine
 10
1.347022099525783
 20
1.406198802593307
 30
0.0
 11
1.210855896041342
 21
1.406198802593306
 31
0.0
  0
LINE
  5
4F3
330
4C6
100
AcDbEntity
  8
0
 62
     7
100
AcDbLine
 10
1.789776526908513
 20
1.410509071943279
 30
0.0
 11
1.879686699104738
 21
0.9676813368804869
 31
0.0
210
0.0
220
0.0
230
-1.0
  0
LINE
  5
4F4
330
4C6
100
AcDbEntity
  8
0
 62
     7
100
AcDbLine
 10
1.810529132640795
 20
1.414270881790877
 30
0.0
 11
1.900946075781638
 21
0.969013487963549
 31
0.0
210
0.0
220
0.0
230
-1.0
  0
ARC
  5
4F5
330
4C6
100
AcDbEntity
  8
0
 62
     7
100
AcDbCircle
 10
-2.02810670069492
 20
0.4620478124177136
 30
0.0
 40
0.042181600633881
210
0.0
220
0.0
230
-1.0
100
AcDbArc
 50
186.7509587586927
 51
349.5930931812235
  0
LINE
  5
4F6
330
4C6
100
AcDbEntity
  8
0
 62
     7
100
AcDbLine
 10
2.328839895443602
 20
0.4064725151375015
 30
0.0
 11
1.920685854217046
 21
0.2103733732637867
 31
0.0
210
0.0
220
0.0
230
-1.0
  0
LINE
  5
4F7
330
4C6
100
AcDbEntity
  8
0
 62
     7
100
AcDbLine
 10
1.920685854217046
 20
0.4064725151375015
 30
0.0
 11
2.328839895443602
 21
0.2103733732637867
 31
0.0
210
0.0
220
0.0
230
-1.0
  0
LINE
  5
4F8
102
{ACAD_REACTORS
330
4CA
330
512
102
}
330
4C6
100
AcDbEntity
  8
0
 62
     7
100
AcDbLine
 10
1.920685854217046
 20
0.2103733732637867
 30
0.0
 11
2.328839895443602
 21
0.2103733732637867
 31
0.0
210
0.0
220
0.0
230
-1.0
  0
LINE
  5
4F9
102
{ACAD_REACTORS
330
4CA
330
512
102
}
330
4C6
100
AcDbEntity
  8
0
 62
     7
100
AcDbLine
 10
1.920685854217046
 20
0.4064725151375015
 30
0.0
 11
2.328839895443602
 21
0.4064725151375015
 31
0.0
210
0.0
220
0.0
230
-1.0
  0
LINE
  5
4FA
102
{ACAD_REACTORS
330
4CA
330
512
102
}
330
4C6
100
AcDbEntity
  8
0
 62
     7
100
AcDbLine
 10
1.920685854217046
 20
0.4064725151375015
 30
0.0
 11
1.920685854217046
 21
0.2103733732637867
 31
0.0
210
0.0
220
0.0
230
-1.0
  0
LINE
  5
4FB
102
{ACAD_REACTORS
330
4CA
330
512
102
}
330
4C6
100
AcDbEntity
  8
0
 62
     7
100
AcDbLine
 10
2.328839895443602
 20
0.4064725151375015
 30
0.0
 11
2.328839895443602
 21
0.2103733732637867
 31
0.0
210
0.0
220
0.0
230
-1.0
  0
LINE
  5
4FC
330
4C6
100
AcDbEntity
  8
0
 62
     7
100
AcDbLine
 10
1.900946075781638
 20
0.969013487963549
 30
0.0
 11
2.007362850314017
 21
0.4582380185409054
 31
0.0
210
0.0
220
0.0
230
-1.0
  0
LINE
  5
4FD
330
4C6
100
AcDbEntity
  8
0
 62
     7
100
AcDbLine
 10
1.879686699104738
 20
0.9676813368804869
 30
0.0
 11
1.98661899993311
 21
0.454428224664122
 31
0.0
210
0.0
220
0.0
230
-1.0
  0
LINE
  5
4FE
330
4C6
100
AcDbEntity
  8
0
 62
     7
100
AcDbLine
 10
2.069995834779172
 20
0.4570891959062529
 30
0.0
 11
2.049197444609939
 21
0.4620965886420318
 31
0.0
210
0.0
220
0.0
230
-1.0
  0
ARC
  5
4FF
330
4C6
100
AcDbEntity
  8
0
 62
     7
100
AcDbCircle
 10
-2.02810670069492
 20
0.4620478124177136
 30
0.0
 40
0.0210908003169405
210
0.0
220
0.0
230
-1.0
100
AcDbArc
 50
179.8674932082532
 51
349.5930931812235
  0
ARC
  5
500
330
4C6
100
AcDbEntity
  8
0
 62
     7
100
AcDbCircle
 10
-1.726842320542346
 20
1.30645932527691
 30
0.0
 40
0.0210908003169405
210
0.0
220
0.0
230
-1.0
100
AcDbArc
 50
180.0
 51
270.0
  0
ARC
  5
501
330
4C6
100
AcDbEntity
  8
0
 62
     7
100
AcDbCircle
 10
-1.76902392117623
 20
1.406747262095683
 30
0.0
 40
0.042181600633881
210
0.0
220
0.0
230
-1.0
100
AcDbArc
 50
0.000000000000007
 51
169.7255999729702
  0
LINE
  5
502
330
4C6
100
AcDbEntity
  8
0
 62
     7
100
AcDbLine
 10
1.525369903644107
 20
1.406198802593307
 30
0.0
 11
1.525369903644107
 21
1.327562026663841
 31
0.0
210
0.0
220
0.0
230
-1.0
  0
LINE
  5
503
330
4C6
100
AcDbEntity
  8
0
 62
     7
100
AcDbLine
 10
1.567551504277986
 20
1.406198802593307
 30
0.0
 11
1.567551504277986
 21
1.327562026663841
 31
0.0
210
0.0
220
0.0
230
-1.0
  0
LINE
  5
504
330
4C6
100
AcDbEntity
  8
0
 62
     7
100
AcDbLine
 10
1.726842320542346
 20
1.448380403227189
 30
0.0
 11
1.726842320542346
 21
1.30645932527691
 31
0.0
210
0.0
220
0.0
230
-1.0
  0
LINE
  5
505
330
4C6
100
AcDbEntity
  8
0
 62
     7
100
AcDbLine
 10
1.726842320542346
 20
1.407102782223982
 30
0.0
 11
1.726842320542346
 21
1.30645932527691
 31
0.0
210
0.0
220
0.0
230
-1.0
  0
LINE
  5
506
330
4C6
100
AcDbEntity
  8
0
 62
     7
100
AcDbLine
 10
1.726842320542346
 20
1.406747262095683
 30
0.0
 11
1.726842320542346
 21
1.30645932527691
 31
0.0
210
0.0
220
0.0
230
-1.0
  0
ARC
  5
507
330
4C6
100
AcDbEntity
  8
0
 62
     7
100
AcDbCircle
 10
-1.546460703961047
 20
1.327562026663841
 30
0.0
 40
0.0210908003169405
210
0.0
220
0.0
230
-1.0
100
AcDbArc
 50
180.0
 51
0.000000000000007
  0
LINE
  5
508
330
4C6
100
AcDbEntity
  8
0
 62
     7
100
AcDbLine
 10
1.509535861886545
 20
1.30645932527691
 30
0.0
 11
1.509535861886545
 21
1.30645932527691
 31
0.0
210
0.0
220
0.0
230
-1.0
  0
ARC
  5
509
330
4C6
100
AcDbEntity
  8
0
 62
     7
100
AcDbCircle
 10
-1.726842320542346
 20
1.285368524959969
 30
0.0
 40
0.0210908003169405
210
0.0
220
0.0
230
-1.0
100
AcDbArc
 50
0.000000000000007
 51
90.0
  0
LINE
  5
50A
330
4C6
100
AcDbEntity
  8
0
 62
     7
100
AcDbLine
 10
1.726842320542346
 20
1.285368524959967
 30
0.0
 11
1.726842320542346
 21
1.285368524959967
 31
0.0
210
0.0
220
0.0
230
-1.0
  0
LINE
  5
50B
330
4C6
100
AcDbEntity
  8
0
 62
     7
100
AcDbLine
 10
1.726842320542346
 20
1.264277724643026
 30
0.0
 11
1.705751520225407
 21
1.264277724643026
 31
0.0
210
0.0
220
0.0
230
-1.0
  0
LINE
  5
50C
330
4C6
100
AcDbEntity
  8
0
 62
     7
100
AcDbLine
 10
1.705751520225407
 20
1.285368524959967
 30
0.0
 11
1.705751520225407
 21
1.264277724643026
 31
0.0
210
0.0
220
0.0
230
-1.0
  0
LINE
  5
50D
330
4C6
100
AcDbEntity
  8
0
 62
     7
100
AcDbLine
 10
1.726842320542346
 20
1.285368524959967
 30
0.0
 11
1.726842320542346
 21
1.264277724643026
 31
0.0
210
0.0
220
0.0
230
-1.0
  0
LINE
  5
50E
330
4C6
100
AcDbEntity
  8
0
100
AcDbLine
 10
1.567551504277986
 20
1.406198802593306
 30
0.0
 11
1.726842320542346
 21
1.406198802593306
 31
0.0
  0
LINE
  5
50F
330
4C6
100
AcDbEntity
  8
0
 62
     7
100
AcDbLine
 10
1.726842320542346
 20
1.342926401642485
 30
0.0
 11
1.726842320542346
 21
1.342926401642485
 31
0.0
210
0.0
220
0.0
230
-1.0
  0
LINE
  5
510
330
4C6
100
AcDbEntity
  8
0
 62
     7
100
AcDbLine
 10
1.747933120859289
 20
1.406747262095683
 30
0.0
 11
1.747933120859289
 21
1.30645932527691
 31
0.0
210
0.0
220
0.0
230
-1.0
  0
ARC
  5
511
330
4C6
100
AcDbEntity
  8
0
 62
     7
100
AcDbCircle
 10
-1.76902392117623
 20
1.406747262095683
 30
0.0
 40
0.0210908003169405
210
0.0
220
0.0
230
-1.0
100
AcDbArc
 50
0.0000000000000579
 51
169.7255999729702
  0
HATCH
  5
512
330
4C6
100
AcDbEntity
  8
0
100
AcDbHatch
 10
0.0
 20
0.0
 30
0.0
210
0.0
220
0.0
230
1.0
  2
AR-CONC
 70
     0
 71
     1
 91
        2
 92
        7
 72
     1
 73
     1
 93
      206
 10
0.9763356630689444
 20
0.4157402203071792
 42
0.0
 10
0.9763356630689444
 20
0.4196256473648967
 42
0.0
 10
0.9296582579133119
 20
0.4196256473648976
 42
0.0
 10
0.929658257913311
 20
0.4235110689045554
 42
0.0
 10
0.8635319347851098
 20
0.4235110689045554
 42
0.0
 10
0.8635319347851098
 20
0.4273964904442122
 42
0.0
 10
0.7935158321053288
 20
0.4273964904442122
 42
0.0
 10
0.7935158321053271
 20
0.4312819119838709
 42
0.0
 10
0.711532690178907
 20
0.4312819119838709
 42
-0.0405295014900261
 10
0.7047055078021485
 20
0.4312819119838709
 42
0.0
 10
0.2878439749258757
 20
0.4312819119838718
 42
0.0
 10
0.2878439749258757
 20
0.4273964904442122
 42
0.0
 10
0.1322526311453247
 20
0.4273964904442131
 42
0.0
 10
0.1322526311453229
 20
0.4312819119838709
 42
0.0
 10
0.1166934927243304
 20
0.4312819119838718
 42
0.0
 10
0.1166934927243313
 20
0.4273964904442114
 42
0.0
 10
0.1011343644106821
 20
0.4273964904442122
 42
0.0
 10
0.1011343644106812
 20
0.4235110689045563
 42
0.0
 10
0.0933547952001863
 20
0.4235110689045563
 42
0.0
 10
0.0933547952001863
 20
0.4157402203071792
 42
0.0
 10
0.0855752259896896
 20
0.4157402203071792
 42
0.0
 10
0.0855752259896887
 20
0.4118547987675205
 42
0.0
 10
0.0777956668865327
 20
0.4118547987675214
 42
0.0
 10
0.0777956668865336
 20
0.4040839556882068
 42
0.0
 10
0.0700160976760378
 20
0.4040839556882077
 42
0.0
 10
0.0700160976760396
 20
0.3963131070908306
 42
0.0
 10
0.0622365284655428
 20
0.3963131070908279
 42
0.0
 10
0.0622365284655446
 20
0.3924276855511728
 42
0.0
 10
0.054456959255047
 20
0.3924276855511719
 42
0.0
 10
0.054456959255047
 20
0.3691151507951673
 42
0.0
 10
0.0466773900445512
 20
0.3691151507951673
 42
0.0
 10
0.0466773900445512
 20
0.3458026160391601
 42
0.0
 10
0.0427876104929732
 20
0.3458026160391601
 42
0.0
 10
0.0427876104929723
 20
0.338031767441783
 42
0.0
 10
0.038897830941397
 20
0.338031767441783
 42
0.0
 10
0.038897830941397
 20
0.3224900812831528
 42
0.0
 10
0.0350080412824765
 20
0.3224900812831528
 42
0.0
 10
0.0350080412824783
 20
0.3108338111461197
 42
0.0
 10
0.0311182617309012
 20
0.3108338111461197
 42
0.0
 10
0.0311182617309012
 20
0.2991775410090849
 42
0.0
 10
0.0233386925204062
 20
0.2991775410090849
 42
0.0
 10
0.0233386925204062
 20
0.2875212763901125
 42
0.0
 10
0.0194489129688264
 20
0.2875212763901125
 42
0.0
 10
0.0194489129688273
 20
0.2719795847134217
 42
0.0
 10
0.0116693437583324
 20
0.2719795847134217
 42
0.0
 10
0.0116693437583333
 20
0.2564378930367317
 42
0.0
 10
0.0077795540994119
 20
0.2564378930367308
 42
0.0
 10
0.0077795540994119
 20
0.2486670499574153
 42
0.0
 10
0.0038897745478348
 20
0.2486670499574162
 42
0.0
 10
0.0038897745478348
 20
0.2408962068781006
 42
0.0
 10
-0.0000000050037414
 20
0.2408962068781006
 42
0.0
 10
-0.0000000050037414
 20
0.1204481005222888
 42
0.0
 10
0.0038897745478348
 20
0.1204481005222888
 42
0.0
 10
0.0038897745478348
 20
0.1049064143636587
 42
0.0
 10
0.0077795540994119
 20
0.1049064143636578
 42
0.0
 10
0.0077795540994128
 20
0.0971355657662825
 42
0.0
 10
0.0155591233099077
 20
0.0971355657662825
 42
0.0
 10
0.0155591233099077
 20
0.0854793011473092
 42
0.0
 10
0.0233386925204053
 20
0.0854793011473101
 42
0.0
 10
0.0233386925204044
 20
0.0777084525499321
 42
0.0
 10
0.0311182617309003
 20
0.077708452549933
 42
0.0
 10
0.0311182617309003
 20
0.0738230310102761
 42
0.0
 10
0.0388978309413952
 20
0.073823031010277
 42
0.0
 10
0.0388978309413943
 20
0.0699376094706174
 42
0.0
 10
0.0933547952001845
 20
0.0699376094706174
 42
0.0
 10
0.0933547952001845
 20
0.0738230310102761
 42
0.0
 10
0.1050241439622557
 20
0.0738230310102761
 42
0.0
 10
0.1050241439622566
 20
0.077708452549933
 42
0.0
 10
0.2333870005597438
 20
0.077708452549933
 42
0.0
 10
0.2333870005597438
 20
0.073823031010277
 42
0.0
 10
0.2411665697702388
 20
0.073823031010277
 42
0.0
 10
0.2411665697702396
 20
0.0699376094706174
 42
0.0
 10
0.2567257081912304
 20
0.0699376094706174
 42
0.0
 10
0.2567257081912304
 20
0.0660521879309606
 42
0.0
 10
0.272284836504884
 20
0.0660521879309606
 42
0.0
 10
0.272284836504884
 20
0.0621667663913028
 42
0.0
 10
0.2839541852669569
 20
0.0621667663913028
 42
0.0
 10
0.2839541852669569
 20
0.0582813393335861
 42
0.0
 10
0.3034031032395248
 20
0.0582813393335853
 42
0.0
 10
0.3034031032395257
 20
0.0543959177939266
 42
0.0
 10
0.3189622416605165
 20
0.0543959177939275
 42
0.0
 10
0.3189622416605165
 20
0.050510496254268
 42
0.0
 10
0.3384111596330861
 20
0.0505104962542688
 42
0.0
 10
0.3384111596330852
 20
0.0466250747146111
 42
0.0
 10
0.353970298054076
 20
0.0466250747146111
 42
0.0
 10
0.353970298054076
 20
0.0427396531749533
 42
0.0
 10
0.3734192059193058
 20
0.0427396531749533
 42
0.0
 10
0.3734192059193058
 20
0.0388542261172349
 42
0.0
 10
0.3850885647887186
 20
0.0388542261172349
 42
0.0
 10
0.3850885647887177
 20
0.034968804577578
 42
0.0
 10
0.4940025034136362
 20
0.034968804577578
 42
0.0
 10
0.4940025034136371
 20
0.0388542261172349
 42
0.0
 10
0.5290105496998585
 20
0.0388542261172349
 42
0.0
 10
0.5290105496998585
 20
0.0427396531749533
 42
0.0
 10
0.5601288164345011
 20
0.0427396531749533
 42
0.0
 10
0.560128816434502
 20
0.046625074714612
 42
0.0
 10
0.5717981753039139
 20
0.046625074714612
 42
0.0
 10
0.571798175303913
 20
0.0505104962542688
 42
0.0
 10
0.719609949873969
 20
0.050510496254268
 42
0.0
 10
0.7196099498739708
 20
0.0466250747146111
 42
0.0
 10
0.7662873449222634
 20
0.0466250747146111
 42
0.0
 10
0.7662873449222616
 20
0.0427396531749533
 42
0.0
 10
0.9218786887028152
 20
0.0427396531749533
 42
0.0
 10
0.9218786887028161
 20
0.0388542261172349
 42
0.0
 10
0.9646663041995298
 20
0.0388542261172349
 42
0.0
 10
0.9646663041995307
 20
0.034968804577578
 42
0.0
 10
1.023013058117236
 20
0.0349688045775771
 42
0.0
 10
1.023013058117236
 20
0.0310833830379202
 42
0.0
 10
1.4742279510379
 20
0.0310833830379202
 42
0.0
 10
1.4742279510379
 20
0.0271979614982616
 42
0.0
 10
1.524795135745112
 20
0.0271979614982616
 42
0.0
 10
1.524795135745113
 20
0.0233125399586065
 42
0.0
 10
1.629819294818454
 20
0.0233125399586056
 42
0.0
 10
1.629819294818454
 20
0.0194271129008863
 42
0.0
 10
1.637598864028947
 20
0.0194271129008863
 42
0.0
 10
1.637598864028947
 20
0.0155416913612285
 42
0.0
 10
1.6531579923426
 20
0.0155416913612285
 42
0.0
 10
1.6531579923426
 20
0.0077708482819139
 42
0.0
 10
1.676496689866748
 20
0.0077708482819139
 42
0.0
 10
1.676496689866748
 20
0.003885426742257
 42
0.0
 10
1.692055828287739
 20
0.0038854267422561
 42
0.0
 10
1.69205582828774
 20
-0.0000000003154641
 42
0.0
 10
1.820418684885227
 20
-0.0000000003154623
 42
0.0
 10
1.820418684885226
 20
0.003885426742257
 42
0.0
 10
1.882655218354512
 20
0.003885426742257
 42
0.0
 10
1.882655218354513
 20
0.0077708482819139
 42
0.0
 10
1.917663274748072
 20
0.0077708482819139
 42
0.0
 10
1.917663274748072
 20
0.0116562698215708
 42
0.0
 10
1.941001972272218
 20
0.0116562698215708
 42
0.0
 10
1.941001972272218
 20
0.0155416913612285
 42
0.0
 10
1.948781541482713
 20
0.0155416913612285
 42
0.0
 10
1.948781541482713
 20
0.0194271129008863
 42
0.0
 10
2.419445352375947
 20
0.0194271129008863
 42
0.0
 10
2.419445352375947
 20
0.0233125399586056
 42
0.0
 10
2.462232967872662
 20
0.0233125399586056
 42
0.0
 10
2.462232967872662
 20
0.0271979614982625
 42
0.0
 10
2.477792106293652
 20
0.0271979614982625
 42
0.0
 10
2.477792106293652
 20
0.0310833830379202
 42
0.0
 10
2.489461455055729
 20
0.0310833830379202
 42
0.0
 10
2.489461455055729
 20
0.0349688045775789
 42
0.0
 10
2.516689942238791
 20
0.0349688045775789
 42
0.0
 10
2.516689942238791
 20
0.0427396531749533
 42
0.0
 10
2.532249070552444
 20
0.0427396531749533
 42
0.0
 10
2.532249070552444
 20
0.0466250747146111
 42
0.0
 10
2.543918419314515
 20
0.0466250747146111
 42
0.0
 10
2.543918419314515
 20
0.0505104962542688
 42
0.0
 10
2.559477557735509
 20
0.0505104962542688
 42
0.0
 10
2.559477557735509
 20
0.0582813393335861
 42
0.0
 10
2.57114690649758
 20
0.0582813393335853
 42
0.0
 10
2.571146906497582
 20
0.0621667663913037
 42
0.0
 10
2.578926475708077
 20
0.0621667663913037
 42
0.0
 10
2.578926475708077
 20
0.0699376094706174
 42
0.0
 10
2.590595824470149
 20
0.0699376094706174
 42
0.0
 10
2.590595824470149
 20
0.0777084525499312
 42
0.0
 10
2.602265173232224
 20
0.0777084525499321
 42
0.0
 10
2.602265173232224
 20
0.0854793011473083
 42
0.0
 10
2.613934521994299
 20
0.0854793011473083
 42
0.0
 10
2.613934521994297
 20
0.089364722686966
 42
0.0
 10
2.621714091204792
 20
0.089364722686966
 42
0.0
 10
2.621714091204792
 20
0.0971355657662816
 42
0.0
 10
2.629493660415289
 20
0.0971355657662816
 42
0.0
 10
2.629493660415287
 20
0.1049064143636578
 42
0.0
 10
2.641163009177362
 20
0.1049064143636578
 42
0.0
 10
2.641163009177363
 20
0.1126772574429733
 42
0.0
 10
2.64894257838786
 20
0.1126772574429733
 42
0.0
 10
2.648942578387855
 20
0.1204481005222879
 42
0.0
 10
2.656722147598352
 20
0.1204481005222879
 42
0.0
 10
2.65672214759835
 20
0.1243335275800064
 42
0.0
 10
2.66061192714993
 20
0.1243335275800073
 42
0.0
 10
2.66061192714993
 20
0.1359897921989814
 42
0.0
 10
2.66450171680885
 20
0.1359897921989797
 42
0.0
 10
2.66450171680885
 20
0.1515314838756714
 42
0.0
 10
2.676171065570921
 20
0.1515314838756714
 42
0.0
 10
2.676171065570919
 20
0.159302326954986
 42
0.0
 10
2.680060845122501
 20
0.159302326954986
 42
0.0
 10
2.680060845122501
 20
0.17095859709202
 42
0.0
 10
2.687840414332994
 20
0.17095859709202
 42
0.0
 10
2.687840414332994
 20
0.1865002887687108
 42
0.0
 10
2.695619983543489
 20
0.1865002887687108
 42
0.0
 10
2.695619983543489
 20
0.3186046542254353
 42
0.0
 10
2.691730193884572
 20
0.3186046542254344
 42
0.0
 10
2.691730193884572
 20
0.388542264011515
 42
0.0
 10
2.687840414332996
 20
0.388542264011515
 42
0.0
 10
2.687840414332994
 20
0.400198534148549
 42
0.0
 10
2.676171065570919
 20
0.400198534148549
 42
0.0
 10
2.676171065570921
 20
0.4157402203071792
 42
0.0
 10
2.66450171680885
 20
0.4157402203071774
 42
0.0
 10
2.66450171680885
 20
0.4273964904442122
 42
0.0
 10
2.248294870174405
 20
0.4273964904442131
 42
0.0
 10
2.248294870174407
 20
0.4235110689045554
 42
0.0
 10
2.069364828869707
 20
0.4235110689045554
 42
0.0
 10
2.069364828869707
 20
0.4196256473648958
 42
0.0
 10
2.038246562135063
 20
0.4196256473648967
 42
0.0
 10
2.038246562135063
 20
0.4157402203071783
 42
0.0
 10
2.011018074952001
 20
0.4157402203071792
 42
0.0
 10
2.011018074952
 20
0.4118547987675214
 42
0.0
 10
1.999348726189927
 20
0.4118547987675196
 42
0.0
 10
1.999348726189928
 20
0.4064725151375015
 42
0.0
 10
2.328839895443602
 20
0.4064725151375006
 42
0.0
 10
2.328839895443602
 20
0.2103733732637867
 42
0.0
 10
1.920685854217046
 20
0.2103733732637867
 42
0.0
 10
1.920685854217045
 20
0.4079693772278628
 42
0.0
 10
1.839867602857796
 20
0.4079693772278645
 42
0.0
 10
1.839867602857796
 20
0.4118547987675205
 42
0.0
 10
1.74262301299495
 20
0.4118547987675196
 42
0.0
 10
1.74262301299495
 20
0.4157402203071783
 42
0.0
 97
        6
330
513
330
4D5
330
4F9
330
4FB
330
4F8
330
4FA
 92
       22
 72
     0
 73
     1
 93
        4
 10
0.8155399454684007
 20
0.2103733732637867
 10
0.4073859042418446
 20
0.2103733732637867
 10
0.4073859042418464
 20
0.4064725151375015
 10
0.8155399454684007
 20
0.4064725151375006
 97
        4
330
4CE
330
4D1
330
4CD
330
4D2
 75
     0
 76
     1
 52
-0.0000000000000127
 41
0.0299036082969963
 77
     0
 78
    13
 53
49.99999999999998
 43
-5.151383610894985
 44
-0.6706960633734281
 45
0.2144866754752499
 46
-0.0187651526431977
 79
     2
 49
0.0224277062227473
 49
-0.2467047684502198
 53
355.0
 43
-5.151383610894985
 44
-0.6706960633734281
 45
-0.0414916553104901
 46
0.2249325893024707
 79
     2
 49
0.0179421649781978
 49
-0.1973638147601759
 53
100.4513999999999
 43
-5.133509721835249
 44
-0.6722598247235462
 45
0.1729951794691365
 46
0.2061673001025129
 79
     2
 49
0.0190606167453612
 49
-0.2096667907777668
 53
46.18419999999998
 43
-5.151383610894985
 44
-0.6108888467794369
 45
0.319143582765769
 46
-0.0494961577019989
 79
     2
 49
0.0336415593341209
 49
-0.3700571526753297
 53
96.63559999999997
 43
-5.124788315038083
 44
-0.6150135432759187
 45
0.2794978743653926
 46
0.2912963924651085
 79
     2
 49
0.02859092601515
 49
-0.3145001359285877
 53
351.1842
 43
-5.151383610894985
 44
-0.6108888467794369
 45
0.2794976469738468
 46
0.29129661076889
 79
     2
 49
0.0269132474672967
 49
-0.2960457221402635
 53
20.99999999999995
 43
-5.121480002597983
 44
-0.6258406509279336
 45
0.1784967467626525
 46
-0.120397575994275
 79
     2
 49
0.0224277062227473
 49
-0.2467047684502198
 53
326.0
 43
-5.121480002597983
 44
-0.6258406509279336
 45
0.0727600637843663
 46
0.2168460290363035
 79
     2
 49
0.0179421649781978
 49
-0.1973638147601758
 53
71.45139999999996
 43
-5.106605280083487
 44
-0.635873791763526
 45
0.2512568836737352
 46
0.0964482563745008
 79
     2
 49
0.0190606167453612
 49
-0.2096667907777673
 53
37.49999999999999
 43
-5.151383610894985
 44
-0.6706960633734281
 45
0.0036362355035641
 46
0.099547274094491
 79
     6
 49
0.0
 49
-0.194971526096416
 49
0.0
 49
-0.2003541755898754
 49
0.0
 49
-0.1981114049676007
 53
7.499999999999979
 43
-5.151383610894985
 44
-0.6706960633734281
 45
0.0786672840254203
 46
0.1179433333987788
 79
     6
 49
0.0
 49
-0.114231783694526
 49
0.0
 49
-0.1904859848518666
 49
0.0
 49
-0.0755066109499157
 53
327.5
 43
-5.218068657397281
 44
-0.6706960633734281
 45
0.1596321703144807
 46
-0.0067447204953389
 79
     6
 49
0.0
 49
-0.0747590207424909
 49
0.0
 49
-0.2332481447165715
 49
0.0
 49
-0.3095023458739121
 53
317.4999999999999
 43
-5.247972265694283
 44
-0.6706960633734281
 45
0.1743937077224049
 46
0.0299350018024336
 79
     6
 49
0.0
 49
-0.0971867269652381
 49
0.0
 49
-0.1549006909784411
 49
0.0
 49
-0.2197915209829231
 47
0.0
 98
        7
 10
0.0
 20
0.0
 10
0.0
 20
0.0
 10
0.0
 20
0.0
 10
0.0
 20
0.0
 10
0.0
 20
0.0
 10
1.096850520126717
 20
0.3763092082153268
 10
1.096850520126717
 20
0.3763092082153268
  0
LWPOLYLINE
  5
513
102
{ACAD_REACTORS
330
4CA
330
512
102
}
330
4C6
100
AcDbEntity
  8
0
 62
     7
100
AcDbPolyline
 90
      234
 70
     0
 43
0.0
 10
-0.12058328238325
 20
0.4312819119838709
 10
-0.1322526311453238
 20
0.4312819119838709
 10
-0.1322526311453238
 20
0.4273964904442122
 10
-0.2878439749258757
 20
0.4273964904442122
 10
-0.2878439749258757
 20
0.4312819119838709
 10
-0.793515832105328
 20
0.4312819119838709
 10
-0.793515832105328
 20
0.4273964904442122
 10
-0.8635319347851098
 20
0.4273964904442122
 10
-0.8635319347851098
 20
0.4235110689045554
 10
-0.929658257913311
 20
0.4235110689045554
 10
-0.929658257913311
 20
0.4196256473648967
 10
-0.9763356630689444
 20
0.4196256473648967
 10
-0.9763356630689444
 20
0.4157402203071783
 10
-1.74262301299495
 20
0.4157402203071783
 10
-1.74262301299495
 20
0.4118547987675205
 10
-1.839867602857796
 20
0.4118547987675205
 10
-1.839867602857796
 20
0.4079693772278636
 10
-1.999348726189927
 20
0.4079693772278636
 10
-1.999348726189927
 20
0.4118547987675205
 10
-2.011018074952
 20
0.4118547987675205
 10
-2.011018074952
 20
0.4157402203071783
 10
-2.038246562135063
 20
0.4157402203071783
 10
-2.038246562135063
 20
0.4196256473648967
 10
-2.069364828869707
 20
0.4196256473648967
 10
-2.069364828869707
 20
0.4235110689045554
 10
-2.248294870174405
 20
0.4235110689045554
 10
-2.248294870174405
 20
0.4273964904442122
 10
-2.66450171680885
 20
0.4273964904442122
 10
-2.66450171680885
 20
0.4196256473648967
 10
-2.668391496360426
 20
0.4196256473648967
 10
-2.668391496360426
 20
0.4157402203071783
 10
-2.676171065570921
 20
0.4157402203071783
 10
-2.676171065570921
 20
0.400198534148549
 10
-2.687840414332994
 20
0.400198534148549
 10
-2.687840414332994
 20
0.3885422640115141
 10
-2.691730193884572
 20
0.3885422640115141
 10
-2.691730193884572
 20
0.3186046542254344
 10
-2.695619983543489
 20
0.3186046542254344
 10
-2.695619983543489
 20
0.1865002887687108
 10
-2.691730193884572
 20
0.1865002887687108
 10
-2.691730193884572
 20
0.1826148672290531
 10
-2.687840414332994
 20
0.1826148672290531
 10
-2.687840414332994
 20
0.17095859709202
 10
-2.680060845122501
 20
0.17095859709202
 10
-2.680060845122501
 20
0.159302326954986
 10
-2.676171065570921
 20
0.159302326954986
 10
-2.676171065570921
 20
0.1515314838756714
 10
-2.66450171680885
 20
0.1515314838756714
 10
-2.66450171680885
 20
0.1359897921989806
 10
-2.66061192714993
 20
0.1359897921989806
 10
-2.66061192714993
 20
0.1243335275800064
 10
-2.656722147598352
 20
0.1243335275800064
 10
-2.656722147598352
 20
0.1204481005222879
 10
-2.652832357939435
 20
0.1204481005222879
 10
-2.652832357939435
 20
0.1165626789826311
 10
-2.648942578387858
 20
0.1165626789826311
 10
-2.648942578387858
 20
0.1126772574429733
 10
-2.645052798836279
 20
0.1126772574429733
 10
-2.645052798836279
 20
0.1087918359033155
 10
-2.641163009177362
 20
0.1087918359033155
 10
-2.641163009177362
 20
0.1049064143636578
 10
-2.633383439966867
 20
0.1049064143636578
 10
-2.633383439966867
 20
0.1010209928240009
 10
-2.629493660415289
 20
0.1010209928240009
 10
-2.629493660415289
 20
0.0971355657662816
 10
-2.625603880863709
 20
0.0971355657662816
 10
-2.625603880863709
 20
0.0932501442266247
 10
-2.621714091204792
 20
0.0932501442266247
 10
-2.621714091204792
 20
0.089364722686966
 10
-2.613934521994297
 20
0.089364722686966
 10
-2.613934521994297
 20
0.0854793011473083
 10
-2.606154962891141
 20
0.0854793011473083
 10
-2.606154962891141
 20
0.0815938796076523
 10
-2.602265173232224
 20
0.0815938796076523
 10
-2.602265173232224
 20
0.0777084525499321
 10
-2.594485604021727
 20
0.0777084525499321
 10
-2.594485604021727
 20
0.0738230310102761
 10
-2.590595824470149
 20
0.0738230310102761
 10
-2.590595824470149
 20
0.0699376094706174
 10
-2.582816255259653
 20
0.0699376094706174
 10
-2.582816255259653
 20
0.0660521879309606
 10
-2.578926475708077
 20
0.0660521879309606
 10
-2.578926475708077
 20
0.0621667663913028
 10
-2.571146906497582
 20
0.0621667663913028
 10
-2.571146906497582
 20
0.0582813393335853
 10
-2.563367337287087
 20
0.0582813393335853
 10
-2.563367337287087
 20
0.0543959177939266
 10
-2.559477557735509
 20
0.0543959177939266
 10
-2.559477557735509
 20
0.0505104962542688
 10
-2.543918419314515
 20
0.0505104962542688
 10
-2.543918419314515
 20
0.0466250747146111
 10
-2.532249070552442
 20
0.0466250747146111
 10
-2.532249070552442
 20
0.0427396531749533
 10
-2.520579721790371
 20
0.0427396531749533
 10
-2.520579721790371
 20
0.0388542261172349
 10
-2.516689942238791
 20
0.0388542261172349
 10
-2.516689942238791
 20
0.034968804577578
 10
-2.489461455055729
 20
0.034968804577578
 10
-2.489461455055729
 20
0.0310833830379202
 10
-2.477792106293652
 20
0.0310833830379202
 10
-2.477792106293652
 20
0.0271979614982625
 10
-2.462232967872662
 20
0.0271979614982625
 10
-2.462232967872662
 20
0.0233125399586056
 10
-2.419445352375947
 20
0.0233125399586056
 10
-2.419445352375947
 20
0.0194271129008863
 10
-1.948781541482713
 20
0.0194271129008863
 10
-1.948781541482713
 20
0.0155416913612285
 10
-1.941001972272217
 20
0.0155416913612285
 10
-1.941001972272217
 20
0.0116562698215708
 10
-1.917663274748071
 20
0.0116562698215708
 10
-1.917663274748071
 20
0.0077708482819139
 10
-1.882655218354511
 20
0.0077708482819139
 10
-1.882655218354511
 20
0.003885426742257
 10
-1.820418684885227
 20
0.003885426742257
 10
-1.820418684885227
 20
-0.0000000003154632
 10
-1.692055828287739
 20
-0.0000000003154632
 10
-1.692055828287739
 20
0.003885426742257
 10
-1.676496689866748
 20
0.003885426742257
 10
-1.676496689866748
 20
0.0077708482819139
 10
-1.6531579923426
 20
0.0077708482819139
 10
-1.6531579923426
 20
0.0155416913612285
 10
-1.637598864028947
 20
0.0155416913612285
 10
-1.637598864028947
 20
0.0194271129008863
 10
-1.629819294818454
 20
0.0194271129008863
 10
-1.629819294818454
 20
0.0233125399586056
 10
-1.524795135745112
 20
0.0233125399586056
 10
-1.524795135745112
 20
0.0271979614982625
 10
-1.474227951037901
 20
0.0271979614982625
 10
-1.474227951037901
 20
0.0310833830379202
 10
-1.023013058117236
 20
0.0310833830379202
 10
-1.023013058117236
 20
0.034968804577578
 10
-0.9646663041995307
 20
0.034968804577578
 10
-0.9646663041995307
 20
0.0388542261172349
 10
-0.9218786887028152
 20
0.0388542261172349
 10
-0.9218786887028152
 20
0.0427396531749533
 10
-0.7662873449222625
 20
0.0427396531749533
 10
-0.7662873449222625
 20
0.0466250747146111
 10
-0.7196099498739699
 20
0.0466250747146111
 10
-0.7196099498739699
 20
0.0505104962542688
 10
-0.571798175303913
 20
0.0505104962542688
 10
-0.571798175303913
 20
0.0466250747146111
 10
-0.5601288164345011
 20
0.0466250747146111
 10
-0.5601288164345011
 20
0.0427396531749533
 10
-0.5290105496998585
 20
0.0427396531749533
 10
-0.5290105496998585
 20
0.0388542261172349
 10
-0.4940025034136362
 20
0.0388542261172349
 10
-0.4940025034136362
 20
0.034968804577578
 10
-0.3850885647887186
 20
0.034968804577578
 10
-0.3850885647887186
 20
0.0388542261172349
 10
-0.3734192059193058
 20
0.0388542261172349
 10
-0.3734192059193058
 20
0.0427396531749533
 10
-0.353970298054076
 20
0.0427396531749533
 10
-0.353970298054076
 20
0.0466250747146111
 10
-0.3384111596330852
 20
0.0466250747146111
 10
-0.3384111596330852
 20
0.0505104962542688
 10
-0.3189622416605165
 20
0.0505104962542688
 10
-0.3189622416605165
 20
0.0543959177939266
 10
-0.3034031032395248
 20
0.0543959177939266
 10
-0.3034031032395248
 20
0.0582813393335853
 10
-0.2839541852669569
 20
0.0582813393335853
 10
-0.2839541852669578
 20
0.0621667663913028
 10
-0.272284836504884
 20
0.0621667663913028
 10
-0.272284836504884
 20
0.0660521879309606
 10
-0.2567257081912304
 20
0.0660521879309606
 10
-0.2567257081912304
 20
0.0699376094706174
 10
-0.2411665697702396
 20
0.0699376094706174
 10
-0.2411665697702396
 20
0.0738230310102761
 10
-0.2333870005597438
 20
0.0738230310102761
 10
-0.2333870005597438
 20
0.077708452549933
 10
-0.1050241439622566
 20
0.077708452549933
 10
-0.1050241439622566
 20
0.0738230310102761
 10
-0.0933547952001845
 20
0.0738230310102761
 10
-0.0933547952001845
 20
0.0699376094706174
 10
-0.0388978309413952
 20
0.0699376094706174
 10
-0.0388978309413952
 20
0.0738230310102761
 10
-0.0311182617309003
 20
0.0738230310102761
 10
-0.0311182617309003
 20
0.077708452549933
 10
-0.0233386925204053
 20
0.077708452549933
 10
-0.0233386925204053
 20
0.0815938796076523
 10
-0.0194489129688264
 20
0.0815938796076523
 10
-0.0194489129688264
 20
0.0854793011473092
 10
-0.0155591233099077
 20
0.0854793011473092
 10
-0.0155591233099077
 20
0.0932501442266247
 10
-0.0116693437583315
 20
0.0932501442266247
 10
-0.0116693437583324
 20
0.0971355657662825
 10
-0.0077795540994128
 20
0.0971355657662825
 10
-0.0077795540994128
 20
0.1049064143636578
 10
-0.0038897745478348
 20
0.1049064143636578
 10
-0.0038897745478348
 20
0.1204481005222888
 10
0.0000000050037414
 20
0.1204481005222888
 10
0.0000000050037414
 20
0.2408962068781006
 10
-0.0038897745478348
 20
0.2408962068781006
 10
-0.0038897745478348
 20
0.2486670499574162
 10
-0.0077795540994128
 20
0.2486670499574162
 10
-0.0077795540994128
 20
0.2564378930367308
 10
-0.0116693437583324
 20
0.2564378930367308
 10
-0.0116693437583324
 20
0.2719795847134217
 10
-0.0194489129688273
 20
0.2719795847134217
 10
-0.0194489129688273
 20
0.2875212763901125
 10
-0.0233386925204062
 20
0.2875212763901125
 10
-0.0233386925204062
 20
0.2991775410090849
 10
-0.0311182617309012
 20
0.2991775410090849
 10
-0.0311182617309012
 20
0.3108338111461197
 10
-0.0350080412824774
 20
0.3108338111461197
 10
-0.0350080412824774
 20
0.3224900812831528
 10
-0.0388978309413961
 20
0.3224900812831528
 10
-0.0388978309413961
 20
0.338031767441783
 10
-0.0427876104929723
 20
0.338031767441783
 10
-0.0427876104929723
 20
0.3458026160391601
 10
-0.0466773900445512
 20
0.3458026160391601
 10
-0.0466773900445512
 20
0.3691151507951673
 10
-0.0505671797034699
 20
0.3691151507951673
 10
-0.0505671797034699
 20
0.3730005723348242
 10
-0.054456959255047
 20
0.3730005723348242
 10
-0.054456959255047
 20
0.3924276855511719
 10
-0.0622365284655437
 20
0.3924276855511719
 10
-0.0622365284655437
 20
0.3963131070908297
 10
-0.0700160976760387
 20
0.3963131070908297
 10
-0.0700160976760387
 20
0.4040839556882068
 10
-0.0739058772276167
 20
0.4040839556882068
 10
-0.0739058772276167
 20
0.4079693772278654
 10
-0.0777956668865336
 20
0.4079693772278654
 10
-0.0777956668865336
 20
0.4118547987675205
 10
-0.0855752259896887
 20
0.4118547987675205
 10
-0.0855752259896887
 20
0.4157402203071792
 10
-0.0894650156486074
 20
0.4157402203071792
 10
-0.0894650156486074
 20
0.4196256473648976
 10
-0.0933547952001863
 20
0.4196256473648976
 10
-0.0933547952001863
 20
0.4235110689045563
 10
-0.1011343644106812
 20
0.4235110689045563
 10
-0.1011343644106812
 20
0.4273964904442122
 10
-0.1166934927243313
 20
0.4273964904442122
 10
-0.1166934927243313
 20
0.4312819119838709
 10
-0.1244730619348289
 20
0.4312819119838709
210
0.0
220
0.0
230
-1.0
  0
ENDBLK
  5
1202
330
4C6
100
AcDbEntity
  8
0
100
AcDbBlockEnd
  0
BLOCK
  5
1203
330
7CF
100
AcDbEntity
  8
0
100
AcDbBlockBegin
  2
A$C41EE0730
 70
     0
 10
0.0
 20
0.0
 30
0.0
  3
A$C41EE0730
  1

  0
LINE
  5
7D0
330
7CF
100
AcDbEntity
  8
0
100
AcDbLine
 10
0.0534040712923245
 20
0.0640320664207921
 30
0.0
 11
0.0534040712923236
 21
0.0000000078135494
 31
0.0
  0
LINE
  5
7D1
330
7CF
100
AcDbEntity
  8
0
100
AcDbLine
 10
0.0534040712923241
 20
0.0995087989424484
 30
0.0
 11
-0.0000000021564865
 21
0.0995087989424484
 31
0.0
  0
LINE
  5
7D2
330
7CF
100
AcDbEntity
  8
0
100
AcDbLine
 10
0.0534040712923241
 20
0.0640320664207921
 30
0.0
 11
-0.0000000021564865
 21
0.0640320664207921
 31
0.0
  0
LINE
  5
7D3
330
7CF
100
AcDbEntity
  8
0
100
AcDbLine
 10
-0.000000002156487
 20
0.1099566847722402
 30
0.0
 11
-0.000000002156487
 21
0.0995087989424484
 31
0.0
  0
LINE
  5
7D4
330
7CF
100
AcDbEntity
  8
0
100
AcDbLine
 10
0.0062211172344515
 20
0.0995087989424479
 30
0.0
 11
0.0062211172344515
 21
0.0640320664207916
 31
0.0
  0
LINE
  5
7D5
330
7CF
100
AcDbEntity
  8
0
100
AcDbLine
 10
0.0471829519013864
 20
0.0995087989424479
 30
0.0
 11
0.0471829519013869
 21
0.0640320664207916
 31
0.0
  0
LINE
  5
7D6
330
7CF
100
AcDbEntity
  8
0
100
AcDbLine
 10
-0.000000002156487
 20
0.0640320664207925
 30
0.0
 11
-0.0000000021564865
 21
0.0542945738062861
 31
0.0
  0
LINE
  5
7D7
330
7CF
100
AcDbEntity
  8
0
100
AcDbLine
 10
0.0534040712923245
 20
0.1099566847722406
 30
0.0
 11
0.0534040712923245
 21
0.0995087989424479
 31
0.0
  0
ENDBLK
  5
1204
330
7CF
100
AcDbEntity
  8
0
100
AcDbBlockEnd
  0
BLOCK
  5
1205
330
84A
100
AcDbEntity
  8
0
100
AcDbBlockBegin
  2
A$C2AD733AA
 70
     0
 10
0.0
 20
0.0
 30
0.0
  3
A$C2AD733AA
  1

  0
TEXT
  5
84B
330
84A
100
AcDbEntity
  8
0
100
AcDbText
 10
-0.5579504514522773
 20
5.488582787175762
 30
0.0
 40
0.1216750375201472
  1
T.O.P. 12 ZONE DRIP HEAD USING 1/4" DISTRIBUTION TUBING FOR ABOVE 
 50
180.0
 71
     4
210
0.0
220
0.0
230
-1.0
100
AcDbText
  0
LINE
  5
84C
330
84A
100
AcDbEntity
  8
0
100
AcDbLine
 10
0.482475476726802
 20
5.45816403046317
 30
0.0
 11
7.687768308074794
 21
5.45816403046317
 31
0.0
210
0.0
220
0.0
230
-1.0
  0
TEXT
  5
84D
330
84A
100
AcDbEntity
  8
0
100
AcDbText
 10
-0.5579504514522773
 20
5.279290700233535
 30
0.0
 40
0.1216750375201472
  1
GROUND INSTALLATION
 50
180.0
 71
     4
210
0.0
220
0.0
230
-1.0
100
AcDbText
  0
LINE
  5
84E
330
84A
100
AcDbEntity
  8
0
100
AcDbLine
 10
0.482475476726802
 20
5.249719313605208
 30
0.0
 11
2.783819191510737
 21
5.249719313605208
 31
0.0
210
0.0
220
0.0
230
-1.0
  0
CIRCLE
  5
84F
330
84A
100
AcDbEntity
  8
0
100
AcDbCircle
 10
-0.2447157100849706
 20
5.46471572470432
 30
0.0
 40
0.24471571935028
210
0.0
220
0.0
230
-1.0
  0
CIRCLE
  5
850
330
84A
100
AcDbEntity
  8
0
100
AcDbCircle
 10
-0.2447157100849706
 20
5.46471572470432
 30
0.0
 40
0.24471571935028
210
0.0
220
0.0
230
-1.0
  0
TEXT
  5
851
330
84A
100
AcDbEntity
  8
0
100
AcDbText
 10
-0.3034666609459
 20
5.327060757916307
 30
0.0
 40
0.1216750375201472
  1
3
 50
180.0
 71
     4
210
0.0
220
0.0
230
-1.0
100
AcDbText
  0
TEXT
  5
852
330
84A
100
AcDbEntity
  8
0
100
AcDbText
 10
-0.0395365321008887
 20
5.327929773896422
 30
0.0
 40
0.2792500509676575
  1
G
 50
180.0
 71
     4
210
0.0
220
0.0
230
-1.0
100
AcDbText
  0
LINE
  5
853
330
84A
100
AcDbEntity
  8
0
100
AcDbLine
 10
0.4893437105258349
 20
0.23816403046317
 30
0.0
 11
7.71457852610768
 21
0.23816403046317
 31
0.0
210
0.0
220
0.0
230
-1.0
  0
TEXT
  5
854
330
84A
100
AcDbEntity
  8
0
100
AcDbText
 10
-0.5579504514522773
 20
0.2685827871757622
 30
0.0
 40
0.1216750375201472
  1
T.O.P. 12 ZONE DRIP HEAD USING 1/4" DISTRIBUTION TUBING FOR BELOW 
 50
180.0
 71
     4
210
0.0
220
0.0
230
-1.0
100
AcDbText
  0
TEXT
  5
855
330
84A
100
AcDbEntity
  8
0
100
AcDbText
 10
-0.5579504514522782
 20
0.0592907299616483
 30
0.0
 40
0.1216750375201472
  1
GROUND INSTALLATION
 50
180.0
 71
     4
210
0.0
220
0.0
230
-1.0
100
AcDbText
  0
LINE
  5
856
330
84A
100
AcDbEntity
  8
0
100
AcDbLine
 10
0.4893437105258349
 20
0.0297193136052085
 30
0.0
 11
2.79068742530977
 21
0.0297193136052085
 31
0.0
210
0.0
220
0.0
230
-1.0
  0
TEXT
  5
857
330
84A
100
AcDbEntity
  8
0
100
AcDbText
 10
-0.0395365321008887
 20
0.107929773896422
 30
0.0
 40
0.2792500509676575
  1
G
 50
180.0
 71
     4
210
0.0
220
0.0
230
-1.0
100
AcDbText
  0
CIRCLE
  5
858
330
84A
100
AcDbEntity
  8
0
100
AcDbCircle
 10
-0.2447157100849706
 20
0.2447157247043199
 30
0.0
 40
0.24471571935028
210
0.0
220
0.0
230
-1.0
  0
TEXT
  5
859
330
84A
100
AcDbEntity
  8
0
100
AcDbText
 10
-0.3034666609459
 20
0.1070607579163072
 30
0.0
 40
0.1216750375201472
  1
4
 50
180.0
 71
     4
210
0.0
220
0.0
230
-1.0
100
AcDbText
  0
ENDBLK
  5
1206
330
84A
100
AcDbEntity
  8
0
100
AcDbBlockEnd
  0
BLOCK
  5
1207
330
86C
100
AcDbEntity
  8
0
100
AcDbBlockBegin
  2
A$C6D8B54C5
 70
     0
 10
0.0
 20
0.0
 30
0.0
  3
A$C6D8B54C5
  1

  0
TEXT
  5
86D
330
86C
100
AcDbEntity
  8
0
100
AcDbText
 10
5.233053247953248
 20
1.418671119650849
 30
0.0
 40
0.0684360496240188
  1
PVC LATERAL PIPE
100
AcDbText
  0
TEXT
  5
86E
330
86C
100
AcDbEntity
  8
0
100
AcDbText
 10
5.233053247953248
 20
1.654494082340758
 30
0.0
 40
0.0684360496240188
  1
PVC SCH 80 TEE
100
AcDbText
  0
TEXT
  5
86F
330
86C
100
AcDbEntity
  8
0
100
AcDbText
 10
5.233053247953248
 20
1.893062662783997
 30
0.0
 40
0.0684360496240188
  1
1/2" SCH 80 PVC NIPPLE
100
AcDbText
  0
TEXT
  5
870
330
86C
100
AcDbEntity
  8
0
100
AcDbText
 10
5.233053247953248
 20
2.166350098166994
 30
0.0
 40
0.0684360496240188
  1
1/4" CONNECTOR ELBOW DIG MODEL, 
100
AcDbText
  0
TEXT
  5
871
330
86C
100
AcDbEntity
  8
0
100
AcDbText
 10
5.233053247953248
 20
2.06056142501027
 30
0.0
 40
0.0684360496240188
  1
25-007
100
AcDbText
  0
TEXT
  5
872
330
86C
100
AcDbEntity
  8
0
100
AcDbText
 10
5.233053247953248
 20
2.409193489597531
 30
0.0
 40
0.0684360496240188
  1
TOP-020, 2.2 GPH AND TOP-030, 3.3
100
AcDbText
  0
TEXT
  5
873
330
86C
100
AcDbEntity
  8
0
100
AcDbText
 10
5.233053247953248
 20
2.602139563239984
 30
0.0
 40
0.0684360496240188
  1
T.O.P. 12 ZONE DRIP HEAD, DIG MODEL,
100
AcDbText
  0
TEXT
  5
874
330
86C
100
AcDbEntity
  8
0
100
AcDbText
 10
5.233053247953248
 20
2.509239604557649
 30
0.0
 40
0.0684360496240188
  1
TOP-005, 5 GPH, TOP-010, 1 GPH
100
AcDbText
  0
TEXT
  5
875
330
86C
100
AcDbEntity
  8
0
100
AcDbText
 10
5.233053247953248
 20
2.733644127615619
 30
0.0
 40
0.0684360496240188
  1
12-018
100
AcDbText
  0
TEXT
  5
876
330
86C
100
AcDbEntity
  8
0
100
AcDbText
 10
5.233053247953248
 20
2.830617078009283
 30
0.0
 40
0.0684360496240188
  1
100', 12-002; 500', 12-005; 3000',
100
AcDbText
  0
TEXT
  5
877
330
86C
100
AcDbEntity
  8
0
100
AcDbText
 10
5.233053247953248
 20
2.923517036691614
 30
0.0
 40
0.0684360496240188
  1
156 ID X 245 OD, DIG MODEL
100
AcDbText
  0
TEXT
  5
878
330
86C
100
AcDbEntity
  8
0
100
AcDbText
 10
5.233053247953248
 20
3.025232718137005
 30
0.0
 40
0.0684360496240188
  1
1/4" VINYL DISTRIBUTION TUBING
100
AcDbText
  0
TEXT
  5
879
330
86C
100
AcDbEntity
  8
0
100
AcDbText
 10
5.233053247953248
 20
3.360729293282997
 30
0.0
 40
0.0684360496240188
  1
"V" STAKE FOR 1/2" AND 1/4"
100
AcDbText
  0
TEXT
  5
87A
330
86C
100
AcDbEntity
  8
0
100
AcDbText
 10
5.233053247953248
 20
3.153490931394604
 30
0.0
 40
0.0684360496240188
  1
16-016
100
AcDbText
  0
TEXT
  5
87B
330
86C
100
AcDbEntity
  8
0
100
AcDbText
 10
5.233053247953248
 20
3.260683178322878
 30
0.0
 40
0.0684360496240188
  1
DISTRIBUTION TUBING, DIG MODEL 
100
AcDbText
  0
CIRCLE
  5
87C
330
86C
100
AcDbEntity
  8
0
100
AcDbCircle
 10
-5.056689277293502
 20
1.698949406769682
 30
0.0
 40
0.0980395409819625
210
0.0
220
0.0
230
-1.0
  0
CIRCLE
  5
87D
330
86C
100
AcDbEntity
  8
0
100
AcDbCircle
 10
-5.056689277293502
 20
1.698949406769682
 30
0.0
 40
0.0980395409819625
210
0.0
220
0.0
230
-1.0
  0
CIRCLE
  5
87E
330
86C
100
AcDbEntity
  8
0
100
AcDbCircle
 10
-5.056689277293502
 20
1.698949406769682
 30
0.0
 40
0.0980395409819625
210
0.0
220
0.0
230
-1.0
  0
CIRCLE
  5
87F
330
86C
100
AcDbEntity
  8
0
100
AcDbCircle
 10
-5.056689277293502
 20
1.698949406769682
 30
0.0
 40
0.0980395409819625
210
0.0
220
0.0
230
-1.0
  0
CIRCLE
  5
880
330
86C
100
AcDbEntity
  8
0
100
AcDbCircle
 10
-5.056689277293502
 20
1.698949406769682
 30
0.0
 40
0.0980395409819625
210
0.0
220
0.0
230
-1.0
  0
CIRCLE
  5
881
330
86C
100
AcDbEntity
  8
0
100
AcDbCircle
 10
-5.056689277293502
 20
1.698949406769682
 30
0.0
 40
0.0980395409819625
210
0.0
220
0.0
230
-1.0
  0
CIRCLE
  5
882
330
86C
100
AcDbEntity
  8
0
100
AcDbCircle
 10
-5.056689277293502
 20
1.698949406769682
 30
0.0
 40
0.0980395409819625
210
0.0
220
0.0
230
-1.0
  0
CIRCLE
  5
883
330
86C
100
AcDbEntity
  8
0
100
AcDbCircle
 10
-5.056689277293502
 20
1.698949406769682
 30
0.0
 40
0.0980395409819625
210
0.0
220
0.0
230
-1.0
  0
CIRCLE
  5
884
330
86C
100
AcDbEntity
  8
0
100
AcDbCircle
 10
-5.056689277293502
 20
1.698949406769682
 30
0.0
 40
0.0980395409819625
210
0.0
220
0.0
230
-1.0
  0
CIRCLE
  5
885
330
86C
100
AcDbEntity
  8
0
100
AcDbCircle
 10
-5.056689277293502
 20
1.698949406769682
 30
0.0
 40
0.0980395409819625
210
0.0
220
0.0
230
-1.0
  0
CIRCLE
  5
886
330
86C
100
AcDbEntity
  8
0
100
AcDbCircle
 10
-5.056689277293502
 20
1.698949406769682
 30
0.0
 40
0.0980395409819625
210
0.0
220
0.0
230
-1.0
  0
TEXT
  5
887
330
86C
100
AcDbEntity
  8
0
100
AcDbText
 10
-5.014252800686855
 20
1.654140569061099
 30
0.0
 40
0.0888620774192805
  1
6
 50
180.0
 71
     4
210
0.0
220
0.0
230
-1.0
100
AcDbText
  0
CIRCLE
  5
888
330
86C
100
AcDbEntity
  8
0
100
AcDbCircle
 10
-5.056689277293502
 20
1.463126444079773
 30
0.0
 40
0.0980395409819625
210
0.0
220
0.0
230
-1.0
  0
CIRCLE
  5
889
330
86C
100
AcDbEntity
  8
0
100
AcDbCircle
 10
-5.056689277293502
 20
1.463126444079773
 30
0.0
 40
0.0980395409819625
210
0.0
220
0.0
230
-1.0
  0
CIRCLE
  5
88A
330
86C
100
AcDbEntity
  8
0
100
AcDbCircle
 10
-5.056689277293502
 20
1.463126444079773
 30
0.0
 40
0.0980395409819625
210
0.0
220
0.0
230
-1.0
  0
CIRCLE
  5
88B
330
86C
100
AcDbEntity
  8
0
100
AcDbCircle
 10
-5.056689277293502
 20
1.463126444079773
 30
0.0
 40
0.0980395409819625
210
0.0
220
0.0
230
-1.0
  0
CIRCLE
  5
88C
330
86C
100
AcDbEntity
  8
0
100
AcDbCircle
 10
-5.056689277293502
 20
1.463126444079773
 30
0.0
 40
0.0980395409819625
210
0.0
220
0.0
230
-1.0
  0
CIRCLE
  5
88D
330
86C
100
AcDbEntity
  8
0
100
AcDbCircle
 10
-5.056689277293502
 20
1.463126444079773
 30
0.0
 40
0.0980395409819625
210
0.0
220
0.0
230
-1.0
  0
CIRCLE
  5
88E
330
86C
100
AcDbEntity
  8
0
100
AcDbCircle
 10
-5.056689277293502
 20
1.463126444079773
 30
0.0
 40
0.0980395409819625
210
0.0
220
0.0
230
-1.0
  0
CIRCLE
  5
88F
330
86C
100
AcDbEntity
  8
0
100
AcDbCircle
 10
-5.056689277293502
 20
1.463126444079773
 30
0.0
 40
0.0980395409819625
210
0.0
220
0.0
230
-1.0
  0
CIRCLE
  5
890
330
86C
100
AcDbEntity
  8
0
100
AcDbCircle
 10
-5.056689277293502
 20
1.463126444079773
 30
0.0
 40
0.0980395409819625
210
0.0
220
0.0
230
-1.0
  0
CIRCLE
  5
891
330
86C
100
AcDbEntity
  8
0
100
AcDbCircle
 10
-5.056689277293502
 20
1.463126444079773
 30
0.0
 40
0.0980395409819625
210
0.0
220
0.0
230
-1.0
  0
CIRCLE
  5
892
330
86C
100
AcDbEntity
  8
0
100
AcDbCircle
 10
-5.056689277293502
 20
1.463126444079773
 30
0.0
 40
0.0980395409819625
210
0.0
220
0.0
230
-1.0
  0
TEXT
  5
893
330
86C
100
AcDbEntity
  8
0
100
AcDbText
 10
-5.014252800686855
 20
1.41831760637119
 30
0.0
 40
0.0888620774192805
  1
7
 50
180.0
 71
     4
210
0.0
220
0.0
230
-1.0
100
AcDbText
  0
TEXT
  5
894
330
86C
100
AcDbEntity
  8
0
100
AcDbText
 10
-5.012533007345305
 20
3.293658412847542
 30
0.0
 40
0.0888620774192805
  1
1
 50
180.0
 71
     4
210
0.0
220
0.0
230
-1.0
100
AcDbText
  0
CIRCLE
  5
895
330
86C
100
AcDbEntity
  8
0
100
AcDbCircle
 10
-5.056689277293502
 20
3.338467250556125
 30
0.0
 40
0.0980395409819625
210
0.0
220
0.0
230
-1.0
  0
CIRCLE
  5
896
330
86C
100
AcDbEntity
  8
0
100
AcDbCircle
 10
-5.056689277293502
 20
3.338467250556125
 30
0.0
 40
0.0980395409819625
210
0.0
220
0.0
230
-1.0
  0
CIRCLE
  5
897
330
86C
100
AcDbEntity
  8
0
100
AcDbCircle
 10
-5.056689277293502
 20
3.338467250556125
 30
0.0
 40
0.0980395409819625
210
0.0
220
0.0
230
-1.0
  0
CIRCLE
  5
898
330
86C
100
AcDbEntity
  8
0
100
AcDbCircle
 10
-5.056689277293502
 20
3.338467250556125
 30
0.0
 40
0.0980395409819625
210
0.0
220
0.0
230
-1.0
  0
CIRCLE
  5
899
330
86C
100
AcDbEntity
  8
0
100
AcDbCircle
 10
-5.056689277293502
 20
3.338467250556125
 30
0.0
 40
0.0980395409819625
210
0.0
220
0.0
230
-1.0
  0
CIRCLE
  5
89A
330
86C
100
AcDbEntity
  8
0
100
AcDbCircle
 10
-5.056689277293502
 20
3.338467250556125
 30
0.0
 40
0.0980395409819625
210
0.0
220
0.0
230
-1.0
  0
CIRCLE
  5
89B
330
86C
100
AcDbEntity
  8
0
100
AcDbCircle
 10
-5.056689277293502
 20
3.338467250556125
 30
0.0
 40
0.0980395409819625
210
0.0
220
0.0
230
-1.0
  0
CIRCLE
  5
89C
330
86C
100
AcDbEntity
  8
0
100
AcDbCircle
 10
-5.056689277293502
 20
3.338467250556125
 30
0.0
 40
0.0980395409819625
210
0.0
220
0.0
230
-1.0
  0
CIRCLE
  5
89D
330
86C
100
AcDbEntity
  8
0
100
AcDbCircle
 10
-5.056689277293502
 20
3.338467250556125
 30
0.0
 40
0.0980395409819625
210
0.0
220
0.0
230
-1.0
  0
CIRCLE
  5
89E
330
86C
100
AcDbEntity
  8
0
100
AcDbCircle
 10
-5.056689277293502
 20
3.338467250556125
 30
0.0
 40
0.0980395409819625
210
0.0
220
0.0
230
-1.0
  0
CIRCLE
  5
89F
330
86C
100
AcDbEntity
  8
0
100
AcDbCircle
 10
-5.056689277293502
 20
3.338467250556125
 30
0.0
 40
0.0980395409819625
210
0.0
220
0.0
230
-1.0
  0
TEXT
  5
8A0
330
86C
100
AcDbEntity
  8
0
100
AcDbText
 10
-5.014252800686855
 20
2.464745939732801
 30
0.0
 40
0.0888620774192805
  1
3
 50
180.0
 71
     4
210
0.0
220
0.0
230
-1.0
100
AcDbText
  0
CIRCLE
  5
8A1
330
86C
100
AcDbEntity
  8
0
100
AcDbCircle
 10
-5.056689277293502
 20
2.509554777441384
 30
0.0
 40
0.0980395409819625
210
0.0
220
0.0
230
-1.0
  0
CIRCLE
  5
8A2
330
86C
100
AcDbEntity
  8
0
100
AcDbCircle
 10
-5.056689277293502
 20
2.509554777441384
 30
0.0
 40
0.0980395409819625
210
0.0
220
0.0
230
-1.0
  0
CIRCLE
  5
8A3
330
86C
100
AcDbEntity
  8
0
100
AcDbCircle
 10
-5.056689277293502
 20
2.509554777441384
 30
0.0
 40
0.0980395409819625
210
0.0
220
0.0
230
-1.0
  0
CIRCLE
  5
8A4
330
86C
100
AcDbEntity
  8
0
100
AcDbCircle
 10
-5.056689277293502
 20
2.509554777441384
 30
0.0
 40
0.0980395409819625
210
0.0
220
0.0
230
-1.0
  0
CIRCLE
  5
8A5
330
86C
100
AcDbEntity
  8
0
100
AcDbCircle
 10
-5.056689277293502
 20
2.509554777441384
 30
0.0
 40
0.0980395409819625
210
0.0
220
0.0
230
-1.0
  0
CIRCLE
  5
8A6
330
86C
100
AcDbEntity
  8
0
100
AcDbCircle
 10
-5.056689277293502
 20
2.509554777441384
 30
0.0
 40
0.0980395409819625
210
0.0
220
0.0
230
-1.0
  0
CIRCLE
  5
8A7
330
86C
100
AcDbEntity
  8
0
100
AcDbCircle
 10
-5.056689277293502
 20
2.509554777441384
 30
0.0
 40
0.0980395409819625
210
0.0
220
0.0
230
-1.0
  0
CIRCLE
  5
8A8
330
86C
100
AcDbEntity
  8
0
100
AcDbCircle
 10
-5.056689277293502
 20
2.509554777441384
 30
0.0
 40
0.0980395409819625
210
0.0
220
0.0
230
-1.0
  0
CIRCLE
  5
8A9
330
86C
100
AcDbEntity
  8
0
100
AcDbCircle
 10
-5.056689277293502
 20
2.509554777441384
 30
0.0
 40
0.0980395409819625
210
0.0
220
0.0
230
-1.0
  0
CIRCLE
  5
8AA
330
86C
100
AcDbEntity
  8
0
100
AcDbCircle
 10
-5.056689277293502
 20
2.509554777441384
 30
0.0
 40
0.0980395409819625
210
0.0
220
0.0
230
-1.0
  0
CIRCLE
  5
8AB
330
86C
100
AcDbEntity
  8
0
100
AcDbCircle
 10
-5.056689277293502
 20
2.509554777441384
 30
0.0
 40
0.0980395409819625
210
0.0
220
0.0
230
-1.0
  0
TEXT
  5
8AC
330
86C
100
AcDbEntity
  8
0
100
AcDbText
 10
-5.014252800686855
 20
1.892709149504338
 30
0.0
 40
0.0888620774192805
  1
5
 50
180.0
 71
     4
210
0.0
220
0.0
230
-1.0
100
AcDbText
  0
CIRCLE
  5
8AD
330
86C
100
AcDbEntity
  8
0
100
AcDbCircle
 10
-5.056689277293502
 20
1.937517987212921
 30
0.0
 40
0.0980395409819625
210
0.0
220
0.0
230
-1.0
  0
TEXT
  5
8AE
330
86C
100
AcDbEntity
  8
0
100
AcDbText
 10
-5.014252800686855
 20
2.149578860776725
 30
0.0
 40
0.0888620774192805
  1
4
 50
180.0
 71
     4
210
0.0
220
0.0
230
-1.0
100
AcDbText
  0
CIRCLE
  5
8AF
330
86C
100
AcDbEntity
  8
0
100
AcDbCircle
 10
-5.056689277293502
 20
2.194387698485308
 30
0.0
 40
0.0980395409819625
210
0.0
220
0.0
230
-1.0
  0
TEXT
  5
8B0
330
86C
100
AcDbEntity
  8
0
100
AcDbText
 10
5.233053247953248
 20
2.309147398947044
 30
0.0
 40
0.0684360496240188
  1
GPH
100
AcDbText
  0
TEXT
  5
8B1
330
86C
100
AcDbEntity
  8
0
100
AcDbText
 10
-5.014252800686855
 20
2.879858365714377
 30
0.0
 40
0.0888620774192805
  1
2
 50
180.0
 71
     4
210
0.0
220
0.0
230
-1.0
100
AcDbText
  0
CIRCLE
  5
8B2
330
86C
100
AcDbEntity
  8
0
100
AcDbCircle
 10
-5.056689277293502
 20
2.92466720342296
 30
0.0
 40
0.0980395409819625
210
0.0
220
0.0
230
-1.0
  0
CIRCLE
  5
8B3
330
86C
100
AcDbEntity
  8
0
100
AcDbCircle
 10
-5.056689277293502
 20
2.92466720342296
 30
0.0
 40
0.0980395409819625
210
0.0
220
0.0
230
-1.0
  0
CIRCLE
  5
8B4
330
86C
100
AcDbEntity
  8
0
100
AcDbCircle
 10
-5.056689277293502
 20
2.92466720342296
 30
0.0
 40
0.0980395409819625
210
0.0
220
0.0
230
-1.0
  0
CIRCLE
  5
8B5
330
86C
100
AcDbEntity
  8
0
100
AcDbCircle
 10
-5.056689277293502
 20
2.92466720342296
 30
0.0
 40
0.0980395409819625
210
0.0
220
0.0
230
-1.0
  0
CIRCLE
  5
8B6
330
86C
100
AcDbEntity
  8
0
100
AcDbCircle
 10
-5.056689277293502
 20
2.92466720342296
 30
0.0
 40
0.0980395409819625
210
0.0
220
0.0
230
-1.0
  0
CIRCLE
  5
8B7
330
86C
100
AcDbEntity
  8
0
100
AcDbCircle
 10
-5.056689277293502
 20
2.92466720342296
 30
0.0
 40
0.0980395409819625
210
0.0
220
0.0
230
-1.0
  0
CIRCLE
  5
8B8
330
86C
100
AcDbEntity
  8
0
100
AcDbCircle
 10
-5.056689277293502
 20
2.92466720342296
 30
0.0
 40
0.0980395409819625
210
0.0
220
0.0
230
-1.0
  0
CIRCLE
  5
8B9
330
86C
100
AcDbEntity
  8
0
100
AcDbCircle
 10
-5.056689277293502
 20
2.92466720342296
 30
0.0
 40
0.0980395409819625
210
0.0
220
0.0
230
-1.0
  0
CIRCLE
  5
8BA
330
86C
100
AcDbEntity
  8
0
100
AcDbCircle
 10
-5.056689277293502
 20
2.92466720342296
 30
0.0
 40
0.0980395409819625
210
0.0
220
0.0
230
-1.0
  0
CIRCLE
  5
8BB
330
86C
100
AcDbEntity
  8
0
100
AcDbCircle
 10
-5.056689277293502
 20
2.92466720342296
 30
0.0
 40
0.0980395409819625
210
0.0
220
0.0
230
-1.0
  0
CIRCLE
  5
8BC
330
86C
100
AcDbEntity
  8
0
100
AcDbCircle
 10
-5.056689277293502
 20
2.92466720342296
 30
0.0
 40
0.0980395409819625
210
0.0
220
0.0
230
-1.0
  0
LINE
  5
8BD
330
86C
100
AcDbEntity
  8
0
100
AcDbLine
 10
0.1960790896003817
 20
0.412481595251414
 30
0.0
 11
1.259789267287108
 21
0.412481595251414
 31
0.0
  0
LINE
  5
8BE
330
86C
100
AcDbEntity
  8
0
100
AcDbLine
 10
0.1960790896003817
 20
0.1461583285764014
 30
0.0
 11
0.9181892283955073
 21
0.1461583285764014
 31
0.0
  0
TEXT
  5
8BF
330
86C
100
AcDbEntity
  8
0
100
AcDbText
 10
-0.0610784640997295
 20
0.3670120847362615
 30
0.0
 40
0.0888620774192805
  1
6
 50
180.0
 71
     4
210
0.0
220
0.0
230
-1.0
100
AcDbText
  0
CIRCLE
  5
8C0
330
86C
100
AcDbEntity
  8
0
100
AcDbCircle
 10
-0.0980395486184191
 20
0.412481595251414
 30
0.0
 40
0.0980395409819625
210
0.0
220
0.0
230
-1.0
  0
CIRCLE
  5
8C1
330
86C
100
AcDbEntity
  8
0
100
AcDbCircle
 10
-0.0980395486184191
 20
0.1461583285764014
 30
0.0
 40
0.0980395409819625
210
0.0
220
0.0
230
-1.0
  0
TEXT
  5
8C2
330
86C
100
AcDbEntity
  8
0
100
AcDbText
 10
-0.0610784640997295
 20
0.1006888180612489
 30
0.0
 40
0.0888620774192805
  1
7
 50
180.0
 71
     4
210
0.0
220
0.0
230
-1.0
100
AcDbText
  0
LINE
  5
8C3
330
86C
100
AcDbEntity
  8
0
100
AcDbLine
 10
0.1960790896003817
 20
2.792208784789395
 30
0.0
 11
2.252078866137822
 21
2.792208784789395
 31
0.0
  0
LINE
  5
8C4
330
86C
100
AcDbEntity
  8
0
100
AcDbLine
 10
0.1960790896003817
 20
3.075714189075892
 30
0.0
 11
2.346275530322797
 21
3.075714189075891
 31
0.0
  0
CIRCLE
  5
8C5
330
86C
100
AcDbEntity
  8
0
100
AcDbCircle
 10
-0.0980395486184191
 20
1.71599256209743
 30
0.0
 40
0.0980395409819625
210
0.0
220
0.0
230
-1.0
  0
LINE
  5
8C6
330
86C
100
AcDbEntity
  8
0
100
AcDbLine
 10
1.382784458230535
 20
2.17866033394075
 30
0.0
 11
0.1957156708416691
 21
2.178660333940751
 31
0.0
  0
LINE
  5
8C7
330
86C
100
AcDbEntity
  8
0
100
AcDbLine
 10
1.665204211637377
 20
1.729058473024645
 30
0.0
 11
0.1952045297978335
 21
1.729058473024647
 31
0.0
  0
LINE
  5
8C8
330
86C
100
AcDbEntity
  8
0
100
AcDbLine
 10
1.321176852455931
 20
2.487404991898599
 30
0.0
 11
0.1952520783066618
 21
2.487404991898599
 31
0.0
  0
TEXT
  5
8C9
330
86C
100
AcDbEntity
  8
0
100
AcDbText
 10
-0.0610784640997295
 20
2.454642789027728
 30
0.0
 40
0.0888620774192805
  1
3
 50
180.0
 71
     4
210
0.0
220
0.0
230
-1.0
100
AcDbText
  0
CIRCLE
  5
8CA
330
86C
100
AcDbEntity
  8
0
100
AcDbCircle
 10
-0.0980395486184191
 20
2.500112299542881
 30
0.0
 40
0.0980395409819625
210
0.0
220
0.0
230
-1.0
  0
TEXT
  5
8CB
330
86C
100
AcDbEntity
  8
0
100
AcDbText
 10
-0.0610784640997295
 20
1.670523051582277
 30
0.0
 40
0.0888620774192805
  1
5
 50
180.0
 71
     4
210
0.0
220
0.0
230
-1.0
100
AcDbText
  0
CIRCLE
  5
8CC
330
86C
100
AcDbEntity
  8
0
100
AcDbCircle
 10
-0.0980395486184191
 20
2.187094001196616
 30
0.0
 40
0.0980395409819625
210
0.0
220
0.0
230
-1.0
  0
TEXT
  5
8CD
330
86C
100
AcDbEntity
  8
0
100
AcDbText
 10
-0.0610784640997295
 20
2.141624490681464
 30
0.0
 40
0.0888620774192805
  1
4
 50
180.0
 71
     4
210
0.0
220
0.0
230
-1.0
100
AcDbText
  0
CIRCLE
  5
8CE
330
86C
100
AcDbEntity
  8
0
100
AcDbCircle
 10
-0.0980395486184191
 20
2.792208784789395
 30
0.0
 40
0.0980395409819625
210
0.0
220
0.0
230
-1.0
  0
TEXT
  5
8CF
330
86C
100
AcDbEntity
  8
0
100
AcDbText
 10
-0.0610784640997295
 20
2.746739274274242
 30
0.0
 40
0.0888620774192805
  1
2
 50
180.0
 71
     4
210
0.0
220
0.0
230
-1.0
100
AcDbText
  0
CIRCLE
  5
8D0
330
86C
100
AcDbEntity
  8
0
100
AcDbCircle
 10
-0.0980395486184191
 20
3.075714189075892
 30
0.0
 40
0.0980395409819625
210
0.0
220
0.0
230
-1.0
  0
TEXT
  5
8D1
330
86C
100
AcDbEntity
  8
0
100
AcDbText
 10
-0.0610784640997295
 20
3.03024467856074
 30
0.0
 40
0.0888620774192805
  1
1
 50
180.0
 71
     4
210
0.0
220
0.0
230
-1.0
100
AcDbText
  0
SOLID
  5
8D2
330
86C
100
AcDbEntity
  8
0
100
AcDbTrace
 10
-1.205783064473492
 20
2.508705117222318
 30
0.0
 11
-1.321176852455931
 21
2.487404991898599
 31
0.0
 12
-1.20511241777296
 22
2.470128746778084
 32
0.0
 13
-1.20511241777296
 23
2.470128746778084
 33
0.0
210
0.0
220
0.0
230
-1.0
  0
SOLID
  5
8D3
330
86C
100
AcDbEntity
  8
0
100
AcDbTrace
 10
-1.267390670248096
 20
2.199960459264469
 30
0.0
 11
-1.382784458230535
 21
2.17866033394075
 31
0.0
 12
-1.266720023547564
 22
2.161384088820235
 32
0.0
 13
-1.266720023547564
 23
2.161384088820235
 33
0.0
210
0.0
220
0.0
230
-1.0
  0
SOLID
  5
8D4
330
86C
100
AcDbEntity
  8
0
100
AcDbTrace
 10
-1.549810423654938
 20
1.750358598348365
 30
0.0
 11
-1.665204211637377
 21
1.729058473024645
 31
0.0
 12
-1.549139776954406
 22
1.711782227904131
 32
0.0
 13
-1.549139776954406
 23
1.711782227904131
 33
0.0
210
0.0
220
0.0
230
-1.0
  0
LINE
  5
8D5
330
86C
100
AcDbEntity
  8
0
100
AcDbLine
 10
2.745840390608934
 20
1.993128893135072
 30
0.0
 11
2.252078866137822
 21
2.792208784789395
 31
0.0
210
0.0
220
0.0
230
-1.0
  0
LINE
  5
8D6
330
86C
100
AcDbEntity
  8
0
100
AcDbLine
 10
2.978058883589413
 20
2.053266411238091
 30
0.0
 11
2.346275530322797
 21
3.075714189075891
 31
0.0
210
0.0
220
0.0
230
-1.0
  0
SOLID
  5
8D7
330
86C
100
AcDbEntity
  8
0
100
AcDbTrace
 10
-2.702824034947778
 20
2.102303133637927
 30
0.0
 11
-2.745840390608933
 21
1.993128893135072
 31
0.0
 12
-2.669741381577185
 22
2.082450572855775
 32
0.0
 13
-2.669741381577185
 23
2.082450572855775
 33
0.0
210
0.0
220
0.0
230
-1.0
  0
SOLID
  5
8D8
330
86C
100
AcDbEntity
  8
0
100
AcDbTrace
 10
-2.935042527928257
 20
2.162440651740946
 30
0.0
 11
-2.978058883589412
 21
2.053266411238091
 31
0.0
 12
-2.901959874557664
 22
2.142588090958794
 32
0.0
 13
-2.901959874557664
 23
2.142588090958794
 33
0.0
210
0.0
220
0.0
230
-1.0
  0
SOLID
  5
8D9
330
86C
100
AcDbEntity
  8
0
100
AcDbTrace
 10
-1.455724896769627
 20
0.1349474412439431
 30
0.0
 11
-1.498741252430782
 21
0.0257732007410887
 31
0.0
 12
-1.422642243399035
 22
0.1150948804617915
 32
0.0
 13
-1.422642243399035
 23
0.1150948804617915
 33
0.0
210
0.0
220
0.0
230
-1.0
  0
LINE
  5
8DA
330
86C
100
AcDbEntity
  8
0
100
AcDbLine
 10
1.498741252430784
 20
0.0257732007410887
 30
0.0
 11
1.259789267287108
 21
0.412481595251414
 31
0.0
210
0.0
220
0.0
230
-1.0
  0
SOLID
  5
8DB
330
86C
100
AcDbEntity
  8
0
100
AcDbTrace
 10
-0.965485939909609
 20
0.1091742469810004
 30
0.0
 11
-1.008502295570764
 21
0.000000006478146
 31
0.0
 12
-0.9324032865390164
 22
0.0893216861988488
 32
0.0
 13
-0.9324032865390164
 23
0.0893216861988488
 33
0.0
210
0.0
220
0.0
230
-1.0
  0
LINE
  5
8DC
330
86C
100
AcDbEntity
  8
0
100
AcDbLine
 10
1.008502295570765
 20
0.000000006478146
 30
0.0
 11
0.9181892283955069
 21
0.1461583285764014
 31
0.0
210
0.0
220
0.0
230
-1.0
  0
ENDBLK
  5
1208
330
86C
100
AcDbEntity
  8
0
100
AcDbBlockEnd
  0
BLOCK
  5
1209
330
8E0
100
AcDbEntity
  8
0
100
AcDbBlockBegin
  2
A$C6AB2678E
 70
     0
 10
0.0
 20
0.0
 30
0.0
  3
A$C6AB2678E
  1

  0
TEXT
  5
8E1
330
8E0
100
AcDbEntity
  8
0
100
AcDbText
 10
5.233053230901125
 20
0.2860816271361335
 30
0.0
 40
0.0684360496240188
  1
PVC SCH 80 TEE
100
AcDbText
  0
TEXT
  5
8E2
330
8E0
100
AcDbEntity
  8
0
100
AcDbText
 10
5.233053230901125
 20
0.0608526808539755
 30
0.0
 40
0.0684360496240188
  1
PVC LATERAL PIPE
100
AcDbText
  0
TEXT
  5
8E3
330
8E0
100
AcDbEntity
  8
0
100
AcDbText
 10
5.233053230901125
 20
0.5130530380344167
 30
0.0
 40
0.0684360496240188
  1
1/2" SCH 80 PVC NIPPLE
100
AcDbText
  0
TEXT
  5
8E4
330
8E0
100
AcDbEntity
  8
0
100
AcDbText
 10
5.233053230901125
 20
0.7186332281194252
 30
0.0
 40
0.0684360496240188
  1
PEA GRVEL SUMP MINIMUM 3"
100
AcDbText
  0
TEXT
  5
8E5
330
8E0
100
AcDbEntity
  8
0
100
AcDbText
 10
5.233053230901125
 20
0.9389759727511828
 30
0.0
 40
0.0684360496240188
  1
BRICK SUPPORT AT EACH CORNER
100
AcDbText
  0
TEXT
  5
8E6
330
8E0
100
AcDbEntity
  8
0
100
AcDbText
 10
5.233053230901125
 20
1.280154806741094
 30
0.0
 40
0.0684360496240188
  1
1/8" VINYL DISTRIBUTION TUBING
100
AcDbText
  0
TEXT
  5
8E7
330
8E0
100
AcDbEntity
  8
0
100
AcDbText
 10
5.233053230901125
 20
1.187254848058763
 30
0.0
 40
0.0684360496240188
  1
118 ID X 187 OD, DIG MODEL
100
AcDbText
  0
TEXT
  5
8E8
330
8E0
100
AcDbEntity
  8
0
100
AcDbText
 10
5.233053230901125
 20
1.094354889376432
 30
0.0
 40
0.0684360496240188
  1
12-006, 100' 12-019, 3000'
100
AcDbText
  0
TEXT
  5
8E9
330
8E0
100
AcDbEntity
  8
0
100
AcDbText
 10
5.233053230901125
 20
1.523899082283019
 30
0.0
 40
0.0684360496240188
  1
1/4" CONNECTOR ELBOW DIG MODEL, 
100
AcDbText
  0
TEXT
  5
8EA
330
8E0
100
AcDbEntity
  8
0
100
AcDbText
 10
5.233053230901125
 20
1.952874601288424
 30
0.0
 40
0.0684360496240188
  1
T.O.P. 12 ZONE DRIP HEAD, DIG MODEL,
100
AcDbText
  0
TEXT
  5
8EB
330
8E0
100
AcDbEntity
  8
0
100
AcDbText
 10
5.233053230901125
 20
1.759928527645971
 30
0.0
 40
0.0684360496240188
  1
TOP-020, 2.2 GPH AND TOP-030, 3.3
100
AcDbText
  0
TEXT
  5
8EC
330
8E0
100
AcDbEntity
  8
0
100
AcDbText
 10
5.233053230901125
 20
1.859974642606089
 30
0.0
 40
0.0684360496240188
  1
TOP-005, 5 GPH, TOP-010, 1 GPH
100
AcDbText
  0
TEXT
  5
8ED
330
8E0
100
AcDbEntity
  8
0
100
AcDbText
 10
5.233053230901125
 20
2.075824787151151
 30
0.0
 40
0.0684360496240188
  1
FINISH GRADE TOP
100
AcDbText
  0
TEXT
  5
8EE
330
8E0
100
AcDbEntity
  8
0
100
AcDbText
 10
5.233053230901125
 20
2.288667934876975
 30
0.0
 40
0.0684360496240188
  1
6" IRRIGATION BOX WITH COVER
100
AcDbText
  0
TEXT
  5
8EF
330
8E0
100
AcDbEntity
  8
0
100
AcDbText
 10
5.233053230901125
 20
2.541289737520535
 30
0.0
 40
0.0684360496240188
  1
DISTRIBUTION TUBING, DIG MODEL 
100
AcDbText
  0
TEXT
  5
8F0
330
8E0
100
AcDbEntity
  8
0
100
AcDbText
 10
5.233053230901125
 20
2.641335852480654
 30
0.0
 40
0.0684360496240188
  1
"V" STAKE FOR 1/2" AND 1/4"
100
AcDbText
  0
TEXT
  5
8F1
330
8E0
100
AcDbEntity
  8
0
100
AcDbText
 10
-5.018064642792525
 20
0.4912283276061649
 30
0.0
 40
0.0888620774192805
  1
9
 50
180.0
 71
     4
210
0.0
220
0.0
230
-1.0
100
AcDbText
  0
CIRCLE
  5
8F2
330
8E0
100
AcDbEntity
  8
0
100
AcDbCircle
 10
-5.056689260241379
 20
0.536037165314748
 30
0.0
 40
0.0980395409819625
210
0.0
220
0.0
230
-1.0
  0
CIRCLE
  5
8F3
330
8E0
100
AcDbEntity
  8
0
100
AcDbCircle
 10
-5.056689260241379
 20
0.0980395315517795
 30
0.0
 40
0.0980395409819625
210
0.0
220
0.0
230
-1.0
  0
CIRCLE
  5
8F4
330
8E0
100
AcDbEntity
  8
0
100
AcDbCircle
 10
-5.056689260241379
 20
0.0980395315517795
 30
0.0
 40
0.0980395409819625
210
0.0
220
0.0
230
-1.0
  0
CIRCLE
  5
8F5
330
8E0
100
AcDbEntity
  8
0
100
AcDbCircle
 10
-5.056689260241379
 20
0.0980395315517795
 30
0.0
 40
0.0980395409819625
210
0.0
220
0.0
230
-1.0
  0
CIRCLE
  5
8F6
330
8E0
100
AcDbEntity
  8
0
100
AcDbCircle
 10
-5.056689260241379
 20
0.0980395315517795
 30
0.0
 40
0.0980395409819625
210
0.0
220
0.0
230
-1.0
  0
CIRCLE
  5
8F7
330
8E0
100
AcDbEntity
  8
0
100
AcDbCircle
 10
-5.056689260241379
 20
0.0980395315517795
 30
0.0
 40
0.0980395409819625
210
0.0
220
0.0
230
-1.0
  0
CIRCLE
  5
8F8
330
8E0
100
AcDbEntity
  8
0
100
AcDbCircle
 10
-5.056689260241379
 20
0.0980395315517795
 30
0.0
 40
0.0980395409819625
210
0.0
220
0.0
230
-1.0
  0
CIRCLE
  5
8F9
330
8E0
100
AcDbEntity
  8
0
100
AcDbCircle
 10
-5.056689260241379
 20
0.0980395315517795
 30
0.0
 40
0.0980395409819625
210
0.0
220
0.0
230
-1.0
  0
CIRCLE
  5
8FA
330
8E0
100
AcDbEntity
  8
0
100
AcDbCircle
 10
-5.056689260241379
 20
0.0980395315517795
 30
0.0
 40
0.0980395409819625
210
0.0
220
0.0
230
-1.0
  0
CIRCLE
  5
8FB
330
8E0
100
AcDbEntity
  8
0
100
AcDbCircle
 10
-5.056689260241379
 20
0.0980395315517795
 30
0.0
 40
0.0980395409819625
210
0.0
220
0.0
230
-1.0
  0
CIRCLE
  5
8FC
330
8E0
100
AcDbEntity
  8
0
100
AcDbCircle
 10
-5.056689260241379
 20
0.0980395315517795
 30
0.0
 40
0.0980395409819625
210
0.0
220
0.0
230
-1.0
  0
CIRCLE
  5
8FD
330
8E0
100
AcDbEntity
  8
0
100
AcDbCircle
 10
-5.056689260241379
 20
0.0980395315517795
 30
0.0
 40
0.0980395409819625
210
0.0
220
0.0
230
-1.0
  0
TEXT
  5
8FE
330
8E0
100
AcDbEntity
  8
0
100
AcDbText
 10
-4.968742857667579
 20
0.0532306938431963
 30
0.0
 40
0.0888620774192805
  1
11
 50
180.0
 71
     4
210
0.0
220
0.0
230
-1.0
100
AcDbText
  0
TEXT
  5
8FF
330
8E0
100
AcDbEntity
  8
0
100
AcDbText
 10
-4.968742857667579
 20
0.2758678407636515
 30
0.0
 40
0.0888620774192805
  1
10
 50
180.0
 71
     4
210
0.0
220
0.0
230
-1.0
100
AcDbText
  0
CIRCLE
  5
900
330
8E0
100
AcDbEntity
  8
0
100
AcDbCircle
 10
-5.056689260241379
 20
0.3206766784722346
 30
0.0
 40
0.0980395409819625
210
0.0
220
0.0
230
-1.0
  0
CIRCLE
  5
901
330
8E0
100
AcDbEntity
  8
0
100
AcDbCircle
 10
-5.056689260241379
 20
0.3206766784722346
 30
0.0
 40
0.0980395409819625
210
0.0
220
0.0
230
-1.0
  0
CIRCLE
  5
902
330
8E0
100
AcDbEntity
  8
0
100
AcDbCircle
 10
-5.056689260241379
 20
0.3206766784722346
 30
0.0
 40
0.0980395409819625
210
0.0
220
0.0
230
-1.0
  0
CIRCLE
  5
903
330
8E0
100
AcDbEntity
  8
0
100
AcDbCircle
 10
-5.056689260241379
 20
0.3206766784722346
 30
0.0
 40
0.0980395409819625
210
0.0
220
0.0
230
-1.0
  0
CIRCLE
  5
904
330
8E0
100
AcDbEntity
  8
0
100
AcDbCircle
 10
-5.056689260241379
 20
0.3206766784722346
 30
0.0
 40
0.0980395409819625
210
0.0
220
0.0
230
-1.0
  0
CIRCLE
  5
905
330
8E0
100
AcDbEntity
  8
0
100
AcDbCircle
 10
-5.056689260241379
 20
0.3206766784722346
 30
0.0
 40
0.0980395409819625
210
0.0
220
0.0
230
-1.0
  0
CIRCLE
  5
906
330
8E0
100
AcDbEntity
  8
0
100
AcDbCircle
 10
-5.056689260241379
 20
0.3206766784722346
 30
0.0
 40
0.0980395409819625
210
0.0
220
0.0
230
-1.0
  0
CIRCLE
  5
907
330
8E0
100
AcDbEntity
  8
0
100
AcDbCircle
 10
-5.056689260241379
 20
0.3206766784722346
 30
0.0
 40
0.0980395409819625
210
0.0
220
0.0
230
-1.0
  0
CIRCLE
  5
908
330
8E0
100
AcDbEntity
  8
0
100
AcDbCircle
 10
-5.056689260241379
 20
0.3206766784722346
 30
0.0
 40
0.0980395409819625
210
0.0
220
0.0
230
-1.0
  0
CIRCLE
  5
909
330
8E0
100
AcDbEntity
  8
0
100
AcDbCircle
 10
-5.056689260241379
 20
0.3206766784722346
 30
0.0
 40
0.0980395409819625
210
0.0
220
0.0
230
-1.0
  0
CIRCLE
  5
90A
330
8E0
100
AcDbEntity
  8
0
100
AcDbCircle
 10
-5.056689260241379
 20
0.3206766784722346
 30
0.0
 40
0.0980395409819625
210
0.0
220
0.0
230
-1.0
  0
TEXT
  5
90B
330
8E0
100
AcDbEntity
  8
0
100
AcDbText
 10
-5.018064642792525
 20
0.9178865879004325
 30
0.0
 40
0.0888620774192805
  1
7
 50
180.0
 71
     4
210
0.0
220
0.0
230
-1.0
100
AcDbText
  0
CIRCLE
  5
90C
330
8E0
100
AcDbEntity
  8
0
100
AcDbCircle
 10
-5.056689260241379
 20
0.9626954256090157
 30
0.0
 40
0.0980395409819625
210
0.0
220
0.0
230
-1.0
  0
CIRCLE
  5
90D
330
8E0
100
AcDbEntity
  8
0
100
AcDbCircle
 10
-5.056689260241379
 20
0.9626954256090157
 30
0.0
 40
0.0980395409819625
210
0.0
220
0.0
230
-1.0
  0
CIRCLE
  5
90E
330
8E0
100
AcDbEntity
  8
0
100
AcDbCircle
 10
-5.056689260241379
 20
0.9626954256090157
 30
0.0
 40
0.0980395409819625
210
0.0
220
0.0
230
-1.0
  0
CIRCLE
  5
90F
330
8E0
100
AcDbEntity
  8
0
100
AcDbCircle
 10
-5.056689260241379
 20
0.9626954256090157
 30
0.0
 40
0.0980395409819625
210
0.0
220
0.0
230
-1.0
  0
CIRCLE
  5
910
330
8E0
100
AcDbEntity
  8
0
100
AcDbCircle
 10
-5.056689260241379
 20
0.9626954256090157
 30
0.0
 40
0.0980395409819625
210
0.0
220
0.0
230
-1.0
  0
CIRCLE
  5
911
330
8E0
100
AcDbEntity
  8
0
100
AcDbCircle
 10
-5.056689260241379
 20
0.9626954256090157
 30
0.0
 40
0.0980395409819625
210
0.0
220
0.0
230
-1.0
  0
CIRCLE
  5
912
330
8E0
100
AcDbEntity
  8
0
100
AcDbCircle
 10
-5.056689260241379
 20
0.9626954256090157
 30
0.0
 40
0.0980395409819625
210
0.0
220
0.0
230
-1.0
  0
CIRCLE
  5
913
330
8E0
100
AcDbEntity
  8
0
100
AcDbCircle
 10
-5.056689260241379
 20
0.9626954256090157
 30
0.0
 40
0.0980395409819625
210
0.0
220
0.0
230
-1.0
  0
CIRCLE
  5
914
330
8E0
100
AcDbEntity
  8
0
100
AcDbCircle
 10
-5.056689260241379
 20
0.9626954256090157
 30
0.0
 40
0.0980395409819625
210
0.0
220
0.0
230
-1.0
  0
CIRCLE
  5
915
330
8E0
100
AcDbEntity
  8
0
100
AcDbCircle
 10
-5.056689260241379
 20
0.9626954256090157
 30
0.0
 40
0.0980395409819625
210
0.0
220
0.0
230
-1.0
  0
CIRCLE
  5
916
330
8E0
100
AcDbEntity
  8
0
100
AcDbCircle
 10
-5.056689260241379
 20
0.9626954256090157
 30
0.0
 40
0.0980395409819625
210
0.0
220
0.0
230
-1.0
  0
CIRCLE
  5
917
330
8E0
100
AcDbEntity
  8
0
100
AcDbCircle
 10
-5.056689260241379
 20
0.7423526889786443
 30
0.0
 40
0.0980395409819625
210
0.0
220
0.0
230
-1.0
  0
CIRCLE
  5
918
330
8E0
100
AcDbEntity
  8
0
100
AcDbCircle
 10
-5.056689260241379
 20
0.7423526889786443
 30
0.0
 40
0.0980395409819625
210
0.0
220
0.0
230
-1.0
  0
CIRCLE
  5
919
330
8E0
100
AcDbEntity
  8
0
100
AcDbCircle
 10
-5.056689260241379
 20
0.7423526889786443
 30
0.0
 40
0.0980395409819625
210
0.0
220
0.0
230
-1.0
  0
CIRCLE
  5
91A
330
8E0
100
AcDbEntity
  8
0
100
AcDbCircle
 10
-5.056689260241379
 20
0.7423526889786443
 30
0.0
 40
0.0980395409819625
210
0.0
220
0.0
230
-1.0
  0
CIRCLE
  5
91B
330
8E0
100
AcDbEntity
  8
0
100
AcDbCircle
 10
-5.056689260241379
 20
0.7423526889786443
 30
0.0
 40
0.0980395409819625
210
0.0
220
0.0
230
-1.0
  0
CIRCLE
  5
91C
330
8E0
100
AcDbEntity
  8
0
100
AcDbCircle
 10
-5.056689260241379
 20
0.7423526889786443
 30
0.0
 40
0.0980395409819625
210
0.0
220
0.0
230
-1.0
  0
CIRCLE
  5
91D
330
8E0
100
AcDbEntity
  8
0
100
AcDbCircle
 10
-5.056689260241379
 20
0.7423526889786443
 30
0.0
 40
0.0980395409819625
210
0.0
220
0.0
230
-1.0
  0
CIRCLE
  5
91E
330
8E0
100
AcDbEntity
  8
0
100
AcDbCircle
 10
-5.056689260241379
 20
0.7423526889786443
 30
0.0
 40
0.0980395409819625
210
0.0
220
0.0
230
-1.0
  0
CIRCLE
  5
91F
330
8E0
100
AcDbEntity
  8
0
100
AcDbCircle
 10
-5.056689260241379
 20
0.7423526889786443
 30
0.0
 40
0.0980395409819625
210
0.0
220
0.0
230
-1.0
  0
CIRCLE
  5
920
330
8E0
100
AcDbEntity
  8
0
100
AcDbCircle
 10
-5.056689260241379
 20
0.7423526889786443
 30
0.0
 40
0.0980395409819625
210
0.0
220
0.0
230
-1.0
  0
CIRCLE
  5
921
330
8E0
100
AcDbEntity
  8
0
100
AcDbCircle
 10
-5.056689260241379
 20
0.7423526889786443
 30
0.0
 40
0.0980395409819625
210
0.0
220
0.0
230
-1.0
  0
TEXT
  5
922
330
8E0
100
AcDbEntity
  8
0
100
AcDbText
 10
-5.018064642792525
 20
0.6975438512700611
 30
0.0
 40
0.0888620774192805
  1
8
 50
180.0
 71
     4
210
0.0
220
0.0
230
-1.0
100
AcDbText
  0
TEXT
  5
923
330
8E0
100
AcDbEntity
  8
0
100
AcDbText
 10
-5.018064642792525
 20
1.1869013347791
 30
0.0
 40
0.0888620774192805
  1
6
 50
180.0
 71
     4
210
0.0
220
0.0
230
-1.0
100
AcDbText
  0
CIRCLE
  5
924
330
8E0
100
AcDbEntity
  8
0
100
AcDbCircle
 10
-5.056689260241379
 20
1.231710172487683
 30
0.0
 40
0.0980395409819625
210
0.0
220
0.0
230
-1.0
  0
CIRCLE
  5
925
330
8E0
100
AcDbEntity
  8
0
100
AcDbCircle
 10
-5.056689260241379
 20
1.231710172487683
 30
0.0
 40
0.0980395409819625
210
0.0
220
0.0
230
-1.0
  0
CIRCLE
  5
926
330
8E0
100
AcDbEntity
  8
0
100
AcDbCircle
 10
-5.056689260241379
 20
1.231710172487683
 30
0.0
 40
0.0980395409819625
210
0.0
220
0.0
230
-1.0
  0
CIRCLE
  5
927
330
8E0
100
AcDbEntity
  8
0
100
AcDbCircle
 10
-5.056689260241379
 20
1.231710172487683
 30
0.0
 40
0.0980395409819625
210
0.0
220
0.0
230
-1.0
  0
CIRCLE
  5
928
330
8E0
100
AcDbEntity
  8
0
100
AcDbCircle
 10
-5.056689260241379
 20
1.231710172487683
 30
0.0
 40
0.0980395409819625
210
0.0
220
0.0
230
-1.0
  0
CIRCLE
  5
929
330
8E0
100
AcDbEntity
  8
0
100
AcDbCircle
 10
-5.056689260241379
 20
1.231710172487683
 30
0.0
 40
0.0980395409819625
210
0.0
220
0.0
230
-1.0
  0
CIRCLE
  5
92A
330
8E0
100
AcDbEntity
  8
0
100
AcDbCircle
 10
-5.056689260241379
 20
1.231710172487683
 30
0.0
 40
0.0980395409819625
210
0.0
220
0.0
230
-1.0
  0
CIRCLE
  5
92B
330
8E0
100
AcDbEntity
  8
0
100
AcDbCircle
 10
-5.056689260241379
 20
1.231710172487683
 30
0.0
 40
0.0980395409819625
210
0.0
220
0.0
230
-1.0
  0
CIRCLE
  5
92C
330
8E0
100
AcDbEntity
  8
0
100
AcDbCircle
 10
-5.056689260241379
 20
1.231710172487683
 30
0.0
 40
0.0980395409819625
210
0.0
220
0.0
230
-1.0
  0
CIRCLE
  5
92D
330
8E0
100
AcDbEntity
  8
0
100
AcDbCircle
 10
-5.056689260241379
 20
1.231710172487683
 30
0.0
 40
0.0980395409819625
210
0.0
220
0.0
230
-1.0
  0
CIRCLE
  5
92E
330
8E0
100
AcDbEntity
  8
0
100
AcDbCircle
 10
-5.056689260241379
 20
1.231710172487683
 30
0.0
 40
0.0980395409819625
210
0.0
220
0.0
230
-1.0
  0
CIRCLE
  5
92F
330
8E0
100
AcDbEntity
  8
0
100
AcDbCircle
 10
-5.056689260241379
 20
2.108858369534192
 30
0.0
 40
0.0980395409819625
210
0.0
220
0.0
230
-1.0
  0
CIRCLE
  5
930
330
8E0
100
AcDbEntity
  8
0
100
AcDbCircle
 10
-5.056689260241379
 20
2.108858369534192
 30
0.0
 40
0.0980395409819625
210
0.0
220
0.0
230
-1.0
  0
CIRCLE
  5
931
330
8E0
100
AcDbEntity
  8
0
100
AcDbCircle
 10
-5.056689260241379
 20
2.108858369534192
 30
0.0
 40
0.0980395409819625
210
0.0
220
0.0
230
-1.0
  0
CIRCLE
  5
932
330
8E0
100
AcDbEntity
  8
0
100
AcDbCircle
 10
-5.056689260241379
 20
2.108858369534192
 30
0.0
 40
0.0980395409819625
210
0.0
220
0.0
230
-1.0
  0
CIRCLE
  5
933
330
8E0
100
AcDbEntity
  8
0
100
AcDbCircle
 10
-5.056689260241379
 20
2.108858369534192
 30
0.0
 40
0.0980395409819625
210
0.0
220
0.0
230
-1.0
  0
CIRCLE
  5
934
330
8E0
100
AcDbEntity
  8
0
100
AcDbCircle
 10
-5.056689260241379
 20
2.108858369534192
 30
0.0
 40
0.0980395409819625
210
0.0
220
0.0
230
-1.0
  0
CIRCLE
  5
935
330
8E0
100
AcDbEntity
  8
0
100
AcDbCircle
 10
-5.056689260241379
 20
2.108858369534192
 30
0.0
 40
0.0980395409819625
210
0.0
220
0.0
230
-1.0
  0
CIRCLE
  5
936
330
8E0
100
AcDbEntity
  8
0
100
AcDbCircle
 10
-5.056689260241379
 20
2.108858369534192
 30
0.0
 40
0.0980395409819625
210
0.0
220
0.0
230
-1.0
  0
CIRCLE
  5
937
330
8E0
100
AcDbEntity
  8
0
100
AcDbCircle
 10
-5.056689260241379
 20
2.108858369534192
 30
0.0
 40
0.0980395409819625
210
0.0
220
0.0
230
-1.0
  0
CIRCLE
  5
938
330
8E0
100
AcDbEntity
  8
0
100
AcDbCircle
 10
-5.056689260241379
 20
2.108858369534192
 30
0.0
 40
0.0980395409819625
210
0.0
220
0.0
230
-1.0
  0
CIRCLE
  5
939
330
8E0
100
AcDbEntity
  8
0
100
AcDbCircle
 10
-5.056689260241379
 20
2.108858369534192
 30
0.0
 40
0.0980395409819625
210
0.0
220
0.0
230
-1.0
  0
TEXT
  5
93A
330
8E0
100
AcDbEntity
  8
0
100
AcDbText
 10
5.233053230901125
 20
1.418110409126295
 30
0.0
 40
0.0684360496240188
  1
25-007
100
AcDbText
  0
TEXT
  5
93B
330
8E0
100
AcDbEntity
  8
0
100
AcDbText
 10
5.233053230901125
 20
1.659882436995484
 30
0.0
 40
0.0684360496240188
  1
GPH
100
AcDbText
  0
CIRCLE
  5
93C
330
8E0
100
AcDbEntity
  8
0
100
AcDbCircle
 10
-5.056689260241379
 20
1.85698309546527
 30
0.0
 40
0.0980395409819625
210
0.0
220
0.0
230
-1.0
  0
TEXT
  5
93D
330
8E0
100
AcDbEntity
  8
0
100
AcDbText
 10
-5.018064642792525
 20
1.480331249452784
 30
0.0
 40
0.0888620774192805
  1
5
 50
180.0
 71
     4
210
0.0
220
0.0
230
-1.0
100
AcDbText
  0
CIRCLE
  5
93E
330
8E0
100
AcDbEntity
  8
0
100
AcDbCircle
 10
-5.056689260241379
 20
1.525140087161367
 30
0.0
 40
0.0980395409819625
210
0.0
220
0.0
230
-1.0
  0
CIRCLE
  5
93F
330
8E0
100
AcDbEntity
  8
0
100
AcDbCircle
 10
-5.056689260241379
 20
1.525140087161367
 30
0.0
 40
0.0980395409819625
210
0.0
220
0.0
230
-1.0
  0
CIRCLE
  5
940
330
8E0
100
AcDbEntity
  8
0
100
AcDbCircle
 10
-5.056689260241379
 20
1.525140087161367
 30
0.0
 40
0.0980395409819625
210
0.0
220
0.0
230
-1.0
  0
CIRCLE
  5
941
330
8E0
100
AcDbEntity
  8
0
100
AcDbCircle
 10
-5.056689260241379
 20
1.525140087161367
 30
0.0
 40
0.0980395409819625
210
0.0
220
0.0
230
-1.0
  0
CIRCLE
  5
942
330
8E0
100
AcDbEntity
  8
0
100
AcDbCircle
 10
-5.056689260241379
 20
1.525140087161367
 30
0.0
 40
0.0980395409819625
210
0.0
220
0.0
230
-1.0
  0
CIRCLE
  5
943
330
8E0
100
AcDbEntity
  8
0
100
AcDbCircle
 10
-5.056689260241379
 20
1.525140087161367
 30
0.0
 40
0.0980395409819625
210
0.0
220
0.0
230
-1.0
  0
CIRCLE
  5
944
330
8E0
100
AcDbEntity
  8
0
100
AcDbCircle
 10
-5.056689260241379
 20
1.525140087161367
 30
0.0
 40
0.0980395409819625
210
0.0
220
0.0
230
-1.0
  0
CIRCLE
  5
945
330
8E0
100
AcDbEntity
  8
0
100
AcDbCircle
 10
-5.056689260241379
 20
1.525140087161367
 30
0.0
 40
0.0980395409819625
210
0.0
220
0.0
230
-1.0
  0
CIRCLE
  5
946
330
8E0
100
AcDbEntity
  8
0
100
AcDbCircle
 10
-5.056689260241379
 20
1.525140087161367
 30
0.0
 40
0.0980395409819625
210
0.0
220
0.0
230
-1.0
  0
CIRCLE
  5
947
330
8E0
100
AcDbEntity
  8
0
100
AcDbCircle
 10
-5.056689260241379
 20
1.525140087161367
 30
0.0
 40
0.0980395409819625
210
0.0
220
0.0
230
-1.0
  0
CIRCLE
  5
948
330
8E0
100
AcDbEntity
  8
0
100
AcDbCircle
 10
-5.056689260241379
 20
1.525140087161367
 30
0.0
 40
0.0980395409819625
210
0.0
220
0.0
230
-1.0
  0
TEXT
  5
949
330
8E0
100
AcDbEntity
  8
0
100
AcDbText
 10
-5.018064642792525
 20
1.812174257756687
 30
0.0
 40
0.0888620774192805
  1
4
 50
180.0
 71
     4
210
0.0
220
0.0
230
-1.0
100
AcDbText
  0
TEXT
  5
94A
330
8E0
100
AcDbEntity
  8
0
100
AcDbText
 10
-5.018064642792525
 20
2.064049531825609
 30
0.0
 40
0.0888620774192805
  1
3
 50
180.0
 71
     4
210
0.0
220
0.0
230
-1.0
100
AcDbText
  0
TEXT
  5
94B
330
8E0
100
AcDbEntity
  8
0
100
AcDbText
 10
5.233053230901125
 20
2.434097490592261
 30
0.0
 40
0.0684360496240188
  1
16-016
100
AcDbText
  0
TEXT
  5
94C
330
8E0
100
AcDbEntity
  8
0
100
AcDbText
 10
-5.02015660962853
 20
2.527605932575557
 30
0.0
 40
0.0888620774192805
  1
1
 50
180.0
 71
     4
210
0.0
220
0.0
230
-1.0
100
AcDbText
  0
CIRCLE
  5
94D
330
8E0
100
AcDbEntity
  8
0
100
AcDbCircle
 10
-5.056689260241379
 20
2.57241477028414
 30
0.0
 40
0.0980395409819625
210
0.0
220
0.0
230
-1.0
  0
TEXT
  5
94E
330
8E0
100
AcDbEntity
  8
0
100
AcDbText
 10
-5.018064642792525
 20
2.283804644845044
 30
0.0
 40
0.0888620774192805
  1
2
 50
180.0
 71
     4
210
0.0
220
0.0
230
-1.0
100
AcDbText
  0
CIRCLE
  5
94F
330
8E0
100
AcDbEntity
  8
0
100
AcDbCircle
 10
-5.056689260241379
 20
2.328613482553627
 30
0.0
 40
0.0980395409819625
210
0.0
220
0.0
230
-1.0
  0
CIRCLE
  5
950
330
8E0
100
AcDbEntity
  8
0
100
AcDbCircle
 10
-5.056689260241379
 20
2.328613482553627
 30
0.0
 40
0.0980395409819625
210
0.0
220
0.0
230
-1.0
  0
CIRCLE
  5
951
330
8E0
100
AcDbEntity
  8
0
100
AcDbCircle
 10
-5.056689260241379
 20
2.328613482553627
 30
0.0
 40
0.0980395409819625
210
0.0
220
0.0
230
-1.0
  0
CIRCLE
  5
952
330
8E0
100
AcDbEntity
  8
0
100
AcDbCircle
 10
-5.056689260241379
 20
2.328613482553627
 30
0.0
 40
0.0980395409819625
210
0.0
220
0.0
230
-1.0
  0
CIRCLE
  5
953
330
8E0
100
AcDbEntity
  8
0
100
AcDbCircle
 10
-5.056689260241379
 20
2.328613482553627
 30
0.0
 40
0.0980395409819625
210
0.0
220
0.0
230
-1.0
  0
CIRCLE
  5
954
330
8E0
100
AcDbEntity
  8
0
100
AcDbCircle
 10
-5.056689260241379
 20
2.328613482553627
 30
0.0
 40
0.0980395409819625
210
0.0
220
0.0
230
-1.0
  0
CIRCLE
  5
955
330
8E0
100
AcDbEntity
  8
0
100
AcDbCircle
 10
-5.056689260241379
 20
2.328613482553627
 30
0.0
 40
0.0980395409819625
210
0.0
220
0.0
230
-1.0
  0
CIRCLE
  5
956
330
8E0
100
AcDbEntity
  8
0
100
AcDbCircle
 10
-5.056689260241379
 20
2.328613482553627
 30
0.0
 40
0.0980395409819625
210
0.0
220
0.0
230
-1.0
  0
CIRCLE
  5
957
330
8E0
100
AcDbEntity
  8
0
100
AcDbCircle
 10
-5.056689260241379
 20
2.328613482553627
 30
0.0
 40
0.0980395409819625
210
0.0
220
0.0
230
-1.0
  0
CIRCLE
  5
958
330
8E0
100
AcDbEntity
  8
0
100
AcDbCircle
 10
-5.056689260241379
 20
2.328613482553627
 30
0.0
 40
0.0980395409819625
210
0.0
220
0.0
230
-1.0
  0
CIRCLE
  5
959
330
8E0
100
AcDbEntity
  8
0
100
AcDbCircle
 10
-5.056689260241379
 20
2.328613482553627
 30
0.0
 40
0.0980395409819625
210
0.0
220
0.0
230
-1.0
  0
LINE
  5
95A
330
8E0
100
AcDbEntity
  8
0
100
AcDbLine
 10
2.618657800558521
 20
3.836821660026886
 30
0.0
 11
0.1960790725482591
 21
3.836821660026885
 31
0.0
  0
LINE
  5
95B
330
8E0
100
AcDbEntity
  8
0
100
AcDbLine
 10
5.031771008611002
 20
4.07773301124514
 30
0.0
 11
0.1960790725482582
 21
4.07773301124514
 31
0.0
1001
ACAD
1000
DSTYLE
1002
{
1070
   146
1040
0.25
1070
   271
1070
     2
1070
    41
1040
0.09
1002
}
  0
LWPOLYLINE
  5
95C
330
8E0
100
AcDbEntity
  8
0
100
AcDbPolyline
 90
        2
 70
     0
 43
0.0
 10
2.534150332156957
 20
1.064165026455331
 10
0.1960790725482577
 20
1.064165026455331
1001
ACAD
1000
DSTYLE
1002
{
1070
   146
1040
0.25
1070
   271
1070
     2
1070
    41
1040
0.09
1002
}
  0
LWPOLYLINE
  5
95D
330
8E0
100
AcDbEntity
  8
0
100
AcDbPolyline
 90
        2
 70
     0
 43
0.0
 10
2.507451862851457
 20
0.7396976721654234
 10
0.1960790725482586
 20
0.7396976721654234
1001
ACAD
1000
DSTYLE
1002
{
1070
   146
1040
0.25
1070
   271
1070
     2
1070
    41
1040
0.09
1002
}
  0
LWPOLYLINE
  5
95E
330
8E0
100
AcDbEntity
  8
0
100
AcDbPolyline
 90
        2
 70
     0
 43
0.0
 10
2.392648355785009
 20
2.330921132339363
 10
0.1960790725482586
 20
2.330921132339363
1001
ACAD
1000
DSTYLE
1002
{
1070
   146
1040
0.25
1070
   271
1070
     2
1070
    41
1040
0.09
1002
}
  0
LWPOLYLINE
  5
95F
330
8E0
100
AcDbEntity
  8
0
100
AcDbPolyline
 90
        2
 70
     0
 43
0.0
 10
2.285854434036611
 20
2.673167507753046
 10
0.1960790725482586
 20
2.673167507753046
1001
ACAD
1000
DSTYLE
1002
{
1070
   146
1040
0.25
1070
   271
1070
     2
1070
    41
1040
0.09
1002
}
  0
TEXT
  5
960
330
8E0
100
AcDbEntity
  8
0
100
AcDbText
 10
-0.0623075314148869
 20
1.018695515940179
 30
0.0
 40
0.0888620774192805
  1
9
 50
180.0
 71
     4
210
0.0
220
0.0
230
-1.0
100
AcDbText
  0
TEXT
  5
961
330
8E0
100
AcDbEntity
  8
0
100
AcDbText
 10
-0.0138389174283722
 20
0.6942281616502708
 30
0.0
 40
0.0888620774192805
  1
10
 50
180.0
 71
     4
210
0.0
220
0.0
230
-1.0
100
AcDbText
  0
CIRCLE
  5
962
330
8E0
100
AcDbEntity
  8
0
100
AcDbCircle
 10
-0.0980395315662959
 20
0.7396976721654234
 30
0.0
 40
0.0980395409819625
210
0.0
220
0.0
230
-1.0
  0
CIRCLE
  5
963
330
8E0
100
AcDbEntity
  8
0
100
AcDbCircle
 10
-0.0980395315662959
 20
1.064165026455331
 30
0.0
 40
0.0980395409819625
210
0.0
220
0.0
230
-1.0
  0
TEXT
  5
964
330
8E0
100
AcDbEntity
  8
0
100
AcDbText
 10
-0.0138389174283722
 20
0.4186531397597459
 30
0.0
 40
0.0888620774192805
  1
11
 50
180.0
 71
     4
210
0.0
220
0.0
230
-1.0
100
AcDbText
  0
CIRCLE
  5
965
330
8E0
100
AcDbEntity
  8
0
100
AcDbCircle
 10
-0.0980395315662959
 20
0.4641226502748985
 30
0.0
 40
0.0980395409819625
210
0.0
220
0.0
230
-1.0
  0
LWPOLYLINE
  5
966
330
8E0
100
AcDbEntity
  8
0
100
AcDbPolyline
 90
        2
 70
     0
 43
0.0
 10
1.426163277135525
 20
0.4641226502748985
 10
0.1960790725482582
 20
0.4641226502748985
1001
ACAD
1000
DSTYLE
1002
{
1070
   146
1040
0.25
1070
   271
1070
     2
1070
    41
1040
0.09
1002
}
  0
TEXT
  5
967
330
8E0
100
AcDbEntity
  8
0
100
AcDbText
 10
-0.0610321564008407
 20
2.080010991959879
 30
0.0
 40
0.0888620774192805
  1
6
 50
180.0
 71
     4
210
0.0
220
0.0
230
-1.0
100
AcDbText
  0
CIRCLE
  5
968
330
8E0
100
AcDbEntity
  8
0
100
AcDbCircle
 10
-0.0980395315662959
 20
2.125480502475032
 30
0.0
 40
0.0980395409819625
210
0.0
220
0.0
230
-1.0
  0
TEXT
  5
969
330
8E0
100
AcDbEntity
  8
0
100
AcDbText
 10
-0.0610321564008407
 20
2.28545162182421
 30
0.0
 40
0.0888620774192805
  1
5
 50
180.0
 71
     4
210
0.0
220
0.0
230
-1.0
100
AcDbText
  0
TEXT
  5
96A
330
8E0
100
AcDbEntity
  8
0
100
AcDbText
 10
-0.0610321564008407
 20
2.627697997237894
 30
0.0
 40
0.0888620774192805
  1
4
 50
180.0
 71
     4
210
0.0
220
0.0
230
-1.0
100
AcDbText
  0
TEXT
  5
96B
330
8E0
100
AcDbEntity
  8
0
100
AcDbText
 10
-0.0610321564008416
 20
3.570506126361487
 30
0.0
 40
0.0888620774192805
  1
3
 50
180.0
 71
     4
210
0.0
220
0.0
230
-1.0
100
AcDbText
  0
TEXT
  5
96C
330
8E0
100
AcDbEntity
  8
0
100
AcDbText
 10
-0.0610321564008416
 20
3.791352149511733
 30
0.0
 40
0.0888620774192805
  1
2
 50
180.0
 71
     4
210
0.0
220
0.0
230
-1.0
100
AcDbText
  0
CIRCLE
  5
96D
330
8E0
100
AcDbEntity
  8
0
100
AcDbCircle
 10
-0.0980395315662959
 20
4.07773301124514
 30
0.0
 40
0.0980395409819625
210
0.0
220
0.0
230
-1.0
  0
CIRCLE
  5
96E
330
8E0
100
AcDbEntity
  8
0
100
AcDbCircle
 10
-0.0980395315662967
 20
3.615975636876639
 30
0.0
 40
0.0980395409819625
210
0.0
220
0.0
230
-1.0
  0
CIRCLE
  5
96F
330
8E0
100
AcDbEntity
  8
0
100
AcDbCircle
 10
-0.0980395315662967
 20
3.836821660026885
 30
0.0
 40
0.0980395409819625
210
0.0
220
0.0
230
-1.0
  0
CIRCLE
  5
970
330
8E0
100
AcDbEntity
  8
0
100
AcDbCircle
 10
-0.0980395315662959
 20
2.330921132339363
 30
0.0
 40
0.0980395409819625
210
0.0
220
0.0
230
-1.0
  0
CIRCLE
  5
971
330
8E0
100
AcDbEntity
  8
0
100
AcDbCircle
 10
-0.0980395315662959
 20
2.673167507753046
 30
0.0
 40
0.0980395409819625
210
0.0
220
0.0
230
-1.0
  0
TEXT
  5
972
330
8E0
100
AcDbEntity
  8
0
100
AcDbText
 10
-0.0610321564008407
 20
1.449837069899745
 30
0.0
 40
0.0888620774192805
  1
8
 50
180.0
 71
     4
210
0.0
220
0.0
230
-1.0
100
AcDbText
  0
CIRCLE
  5
973
330
8E0
100
AcDbEntity
  8
0
100
AcDbCircle
 10
-0.0980395315662959
 20
1.495306580414898
 30
0.0
 40
0.0980395409819625
210
0.0
220
0.0
230
-1.0
  0
TEXT
  5
974
330
8E0
100
AcDbEntity
  8
0
100
AcDbText
 10
-0.0610321564008407
 20
1.707633046357495
 30
0.0
 40
0.0888620774192805
  1
7
 50
180.0
 71
     4
210
0.0
220
0.0
230
-1.0
100
AcDbText
  0
CIRCLE
  5
975
330
8E0
100
AcDbEntity
  8
0
100
AcDbCircle
 10
-0.0980395315662959
 20
1.753102556872648
 30
0.0
 40
0.0980395409819625
210
0.0
220
0.0
230
-1.0
  0
TEXT
  5
976
330
8E0
100
AcDbEntity
  8
0
100
AcDbText
 10
-0.0610321564008407
 20
4.032263500729988
 30
0.0
 40
0.0888620774192805
  1
1
 50
180.0
 71
     4
210
0.0
220
0.0
230
-1.0
100
AcDbText
  0
LWPOLYLINE
  5
977
330
8E0
100
AcDbEntity
  8
0
100
AcDbPolyline
 90
        2
 70
     0
 43
0.0
 10
1.918710379767094
 20
2.125480502475032
 10
0.1960790725482582
 20
2.125480502475032
1001
ACAD
1000
DSTYLE
1002
{
1070
   146
1040
0.25
1070
   271
1070
     2
1070
    41
1040
0.09
1002
}
  0
LWPOLYLINE
  5
978
330
8E0
100
AcDbEntity
  8
0
100
AcDbPolyline
 90
        2
 70
     0
 43
0.0
 10
1.200726715271261
 20
1.753102556872648
 10
0.1960790725482586
 20
1.753102556872648
1001
ACAD
1000
DSTYLE
1002
{
1070
   146
1040
0.25
1070
   271
1070
     2
1070
    41
1040
0.09
1002
}
  0
LWPOLYLINE
  5
979
330
8E0
100
AcDbEntity
  8
0
100
AcDbPolyline
 90
        2
 70
     0
 43
0.0
 10
0.6629668603347366
 20
1.495306580414898
 10
0.1960790725482584
 20
1.495306580414898
1001
ACAD
1000
DSTYLE
1002
{
1070
   146
1040
0.25
1070
   271
1070
     2
1070
    41
1040
0.09
1002
}
  0
LINE
  5
97A
330
8E0
100
AcDbEntity
  8
0
100
AcDbLine
 10
0.6149515631115365
 20
3.615650661744305
 30
0.0
 11
0.1960785339435001
 21
3.615650661744305
 31
0.0
  0
LINE
  5
97B
330
8E0
100
AcDbEntity
  8
0
100
AcDbLine
 10
2.839280764168301
 20
3.49887164348294
 30
0.0
 11
2.618657800558521
 21
3.836821660026886
 31
0.0
1001
ACAD
1000
DSTYLE
1002
{
1070
   146
1040
0.25
1070
   271
1070
     2
1070
    41
1040
0.09
1002
}
  0
SOLID
  5
97C
330
8E0
100
AcDbEntity
  8
0
100
AcDbTrace
 10
2.851841167264555
 20
3.507071416288304
 30
0.0
 11
2.888479401000483
 21
3.423509224905409
 31
0.0
 12
2.826720361072045
 22
3.490671870677576
 32
0.0
 13
2.826720361072045
 23
3.490671870677576
 33
0.0
1001
ACAD
1000
DSTYLE
1002
{
1070
   146
1040
0.25
1070
   271
1070
     2
1070
    41
1040
0.09
1002
}
  0
SOLID
  5
97D
330
8E0
100
AcDbEntity
  8
0
100
AcDbTrace
 10
5.009989146748118
 20
4.092733011245141
 30
0.0
 11
5.099989146748118
 21
4.07773301124514
 31
0.0
 12
5.009989146748118
 22
4.06273301124514
 32
0.0
 13
5.009989146748118
 23
4.06273301124514
 33
0.0
1001
ACAD
1000
DSTYLE
1002
{
1070
   146
1040
0.25
1070
   271
1070
     2
1070
    41
1040
0.09
1002
}
  0
SOLID
  5
97E
330
8E0
100
AcDbEntity
  8
0
100
AcDbTrace
 10
1.918710379767094
 20
2.140480502475032
 30
0.0
 11
2.008710379767094
 21
2.125480502475032
 31
0.0
 12
1.918710379767094
 22
2.110480502475032
 32
0.0
 13
1.918710379767094
 23
2.110480502475032
 33
0.0
1001
ACAD
1000
DSTYLE
1002
{
1070
   146
1040
0.25
1070
   271
1070
     2
1070
    41
1040
0.09
1002
}
  0
SOLID
  5
97F
330
8E0
100
AcDbEntity
  8
0
100
AcDbTrace
 10
2.285854434036611
 20
2.688167507753046
 30
0.0
 11
2.375854434036611
 21
2.673167507753046
 31
0.0
 12
2.285854434036611
 22
2.658167507753046
 32
0.0
 13
2.285854434036611
 23
2.658167507753046
 33
0.0
1001
ACAD
1000
DSTYLE
1002
{
1070
   146
1040
0.25
1070
   271
1070
     2
1070
    41
1040
0.09
1002
}
  0
SOLID
  5
980
330
8E0
100
AcDbEntity
  8
0
100
AcDbTrace
 10
2.392648355785009
 20
2.345921132339363
 30
0.0
 11
2.482648355785009
 21
2.330921132339363
 31
0.0
 12
2.392648355785009
 22
2.315921132339362
 32
0.0
 13
2.392648355785009
 23
2.315921132339362
 33
0.0
1001
ACAD
1000
DSTYLE
1002
{
1070
   146
1040
0.25
1070
   271
1070
     2
1070
    41
1040
0.09
1002
}
  0
SOLID
  5
981
330
8E0
100
AcDbEntity
  8
0
100
AcDbTrace
 10
2.507451862851457
 20
0.7546976721654233
 30
0.0
 11
2.597451862851456
 21
0.7396976721654234
 31
0.0
 12
2.507451862851457
 22
0.7246976721654235
 32
0.0
 13
2.507451862851457
 23
0.7246976721654235
 33
0.0
1001
ACAD
1000
DSTYLE
1002
{
1070
   146
1040
0.25
1070
   271
1070
     2
1070
    41
1040
0.09
1002
}
  0
SOLID
  5
982
330
8E0
100
AcDbEntity
  8
0
100
AcDbTrace
 10
2.534150332156957
 20
1.079165026455331
 30
0.0
 11
2.624150332156957
 21
1.064165026455331
 31
0.0
 12
2.534150332156957
 22
1.049165026455331
 32
0.0
 13
2.534150332156957
 23
1.049165026455331
 33
0.0
1001
ACAD
1000
DSTYLE
1002
{
1070
   146
1040
0.25
1070
   271
1070
     2
1070
    41
1040
0.09
1002
}
  0
SOLID
  5
983
330
8E0
100
AcDbEntity
  8
0
100
AcDbTrace
 10
1.426163277135525
 20
0.4791226502748986
 30
0.0
 11
1.516163277135525
 21
0.4641226502748985
 31
0.0
 12
1.426163277135525
 22
0.4491226502748984
 32
0.0
 13
1.426163277135525
 23
0.4491226502748984
 33
0.0
1001
ACAD
1000
DSTYLE
1002
{
1070
   146
1040
0.25
1070
   271
1070
     2
1070
    41
1040
0.09
1002
}
  0
SOLID
  5
984
330
8E0
100
AcDbEntity
  8
0
100
AcDbTrace
 10
0.5729668603347368
 20
1.510306580414898
 30
0.0
 11
0.6629668603347366
 21
1.495306580414898
 31
0.0
 12
0.5729668603347368
 22
1.480306580414898
 32
0.0
 13
0.5729668603347368
 23
1.480306580414898
 33
0.0
1001
ACAD
1000
DSTYLE
1002
{
1070
   146
1040
0.25
1070
   271
1070
     2
1070
    41
1040
0.09
1002
}
  0
LINE
  5
985
330
8E0
100
AcDbEntity
  8
0
100
AcDbLine
 10
0.6349207794148626
 20
3.585061837853719
 30
0.0
 11
0.6149515631115365
 21
3.615650661744305
 31
0.0
1001
ACAD
1000
DSTYLE
1002
{
1070
   146
1040
0.25
1070
   271
1070
     2
1070
    41
1040
0.09
1002
}
  0
SOLID
  5
986
330
8E0
100
AcDbEntity
  8
0
100
AcDbTrace
 10
0.6474811825111182
 20
3.593261610659083
 30
0.0
 11
0.6841194162470448
 21
3.509699419276188
 31
0.0
 12
0.622360376318607
 22
3.576862065048355
 32
0.0
 13
0.622360376318607
 23
3.576862065048355
 33
0.0
1001
ACAD
1000
DSTYLE
1002
{
1070
   146
1040
0.25
1070
   271
1070
     2
1070
    41
1040
0.09
1002
}
  0
ENDBLK
  5
120A
330
8E0
100
AcDbEntity
  8
0
100
AcDbBlockEnd
  0
BLOCK
  5
120B
330
C26
100
AcDbEntity
  8
0
100
AcDbBlockBegin
  2
A$C3DBB32A3
 70
     0
 10
0.0
 20
0.0
 30
0.0
  3
A$C3DBB32A3
  1

  0
ARC
  5
C27
330
C26
100
AcDbEntity
  8
0
100
AcDbCircle
 10
0.057954838524088
 20
0.0756067105240177
 30
0.0
 40
0.0586214293467795
100
AcDbArc
 50
136.7570575545833
 51
223.2429424454161
  0
ARC
  5
C28
330
C26
100
AcDbEntity
  8
0
100
AcDbCircle
 10
0.0578589711841726
 20
0.0756067105240177
 30
0.0
 40
0.0586214293467795
100
AcDbArc
 50
315.8884817094991
 51
44.11151829050071
  0
ARC
  5
C29
330
C26
100
AcDbEntity
  8
0
100
AcDbCircle
 10
-0.0211710242777055
 20
0.1500225203308514
 30
0.0
 40
0.05
100
AcDbArc
 50
316.7570575545832
 51
0.0
  0
ARC
  5
C2A
330
C26
100
AcDbEntity
  8
0
100
AcDbCircle
 10
0.1358476782970541
 20
0.1512134329513246
 30
0.0
 40
0.05
100
AcDbArc
 50
180.0
 51
224.1115182905006
  0
ARC
  5
C2B
330
C26
100
AcDbEntity
  8
0
100
AcDbCircle
 10
0.1358476782970541
 20
-0.0000000119032897
 30
0.0
 40
0.05
100
AcDbArc
 50
135.8884817094992
 51
180.0
  0
ARC
  5
C2C
330
C26
100
AcDbEntity
  8
0
100
AcDbCircle
 10
-0.0211710242777063
 20
0.0011909007171846
 30
0.0
 40
0.05
100
AcDbArc
 50
0.0
 51
43.24294244541622
  0
ENDBLK
  5
120C
330
C26
100
AcDbEntity
  8
0
100
AcDbBlockEnd
  0
BLOCK
  5
120D
330
E74
100
AcDbEntity
  8
0
100
AcDbBlockBegin
  2
A$C0B095E2C
 70
     0
 10
0.0
 20
0.0
 30
0.0
  3
A$C0B095E2C
  1

  0
LINE
  5
E75
330
E74
100
AcDbEntity
  8
0
  6
ByBlock
 62
     0
100
AcDbLine
 10
0.0900000082054397
 20
0.8746282931265768
 30
0.0
 11
0.1800000082054396
 21
0.8746282931265768
 31
0.0
  0
LINE
  5
E76
330
E74
100
AcDbEntity
  8
0
  6
ByBlock
 62
     0
100
AcDbLine
 10
0.0011349234085429
 20
0.619630443938334
 30
0.0
 11
0.0011349234085429
 21
0.9174043522414763
 31
0.0
  0
SOLID
  5
E77
330
E74
100
AcDbEntity
  8
0
  6
ByBlock
 62
     0
100
AcDbTrace
 10
0.0900000082054397
 20
0.8896282931265773
 30
0.0
 11
0.0900000082054397
 21
0.8596282931265762
 31
0.0
 12
0.0000000082054399
 22
0.8746282931265768
 32
0.0
 13
0.0000000082054399
 23
0.8746282931265768
 33
0.0
  0
TEXT
  5
E78
330
E74
100
AcDbEntity
  8
0
100
AcDbText
 10
0.1971909788149429
 20
0.8521063565673828
 30
0.0
 40
0.0684360496240188
  1
4"-6"
100
AcDbText
  0
TEXT
  5
E79
330
E74
100
AcDbEntity
  8
0
100
AcDbText
 10
0.2684461851887194
 20
0.1782230750920561
 30
0.0
 40
0.0684360496240188
  1
2"-4"
 50
90.0
100
AcDbText
  0
LINE
  5
E7A
330
E74
100
AcDbEntity
  8
0
  6
ByBlock
 62
     0
100
AcDbLine
 10
0.1973447348539654
 20
0.5985374171795552
 30
0.0
 11
0.4260107234264972
 21
0.5985374171795552
 31
0.0
  0
SOLID
  5
E7B
330
E74
100
AcDbEntity
  8
0
  6
ByBlock
 62
     0
100
AcDbTrace
 10
0.2310107234264969
 20
0.5085374171795554
 30
0.0
 11
0.261010723426498
 21
0.5085374171795554
 31
0.0
 12
0.2460107234264974
 22
0.5985374171795552
 32
0.0
 13
0.2460107234264974
 23
0.5985374171795552
 33
0.0
  0
LINE
  5
E7C
330
E74
100
AcDbEntity
  8
0
100
AcDbLine
 10
0.2460107234264974
 20
0.5985374171795552
 30
0.0
 11
0.2460107234264974
 21
0.4593312151456281
 31
0.0
  0
LINE
  5
E7D
330
E74
100
AcDbEntity
  8
0
100
AcDbLine
 10
0.2460107234264974
 20
0.1392062113088741
 30
0.0
 11
0.2460107234264974
 21
0.000000009274947
 31
0.0
  0
SOLID
  5
E7E
330
E74
100
AcDbEntity
  8
0
  6
ByBlock
 62
     0
100
AcDbTrace
 10
0.2310107234264969
 20
0.0900000092749469
 30
0.0
 11
0.261010723426498
 21
0.0900000092749469
 31
0.0
 12
0.2460107234264974
 22
0.000000009274947
 32
0.0
 13
0.2460107234264974
 23
0.000000009274947
 33
0.0
  0
SOLID
  5
E7F
330
E74
100
AcDbEntity
  8
0
  6
ByBlock
 62
     0
100
AcDbTrace
 10
0.5806237411412347
 20
0.8896282931265773
 30
0.0
 11
0.5806237411412347
 21
0.8596282931265762
 31
0.0
 12
0.6706237411412346
 22
0.8746282931265768
 32
0.0
 13
0.6706237411412346
 23
0.8746282931265768
 33
0.0
  0
LINE
  5
E80
330
E74
100
AcDbEntity
  8
0
  6
ByBlock
 62
     0
100
AcDbLine
 10
0.5806237411412347
 20
0.8746282931265768
 30
0.0
 11
0.490623741141234
 21
0.8746282931265768
 31
0.0
  0
ENDBLK
  5
120E
330
E74
100
AcDbEntity
  8
0
100
AcDbBlockEnd
  0
BLOCK
  5
120F
330
E97
100
AcDbEntity
  8
0
100
AcDbBlockBegin
  2
A$C28C21EF0
 70
     0
 10
0.0
 20
0.0
 30
0.0
  3
A$C28C21EF0
  1

  0
LINE
  5
E98
330
E97
100
AcDbEntity
  8
0
100
AcDbLine
 10
1.858454805340773
 20
0.3466590408112138
 30
0.0
 11
0.6626170400843332
 21
0.3466590408112138
 31
0.0
  0
LINE
  5
E99
330
E97
100
AcDbEntity
  8
0
100
AcDbLine
 10
-0.0000000008666765
 20
0.0000000014176003
 30
0.0
 11
0.6626170400843332
 21
0.3466590408112138
 31
0.0
210
0.0
220
0.0
230
-1.0
  0
SOLID
  5
E9A
330
E97
100
AcDbEntity
  8
0
100
AcDbTrace
 10
-0.0926888096819605
 20
0.071959754355067
 30
0.0
 11
0.0000000008666747
 21
0.0000000014175994
 31
0.0
 12
-0.1110169019563481
 22
0.0380088021264555
 32
0.0
 13
-0.1110169019563481
 23
0.0380088021264555
 33
0.0
210
0.0
220
0.0
230
-1.0
  0
CIRCLE
  5
E9B
330
E97
100
AcDbEntity
  8
0
100
AcDbCircle
 10
-1.956494346322735
 20
0.3466590408112138
 30
0.0
 40
0.0980395409819625
210
0.0
220
0.0
230
-1.0
  0
TEXT
  5
E9C
330
E97
100
AcDbEntity
  8
0
100
AcDbText
 10
-1.929556090269058
 20
0.3011895302960612
 30
0.0
 40
0.0888620774192805
  1
3
 50
180.0
 71
     4
210
0.0
220
0.0
230
-1.0
100
AcDbText
  0
ENDBLK
  5
1210
330
E97
100
AcDbEntity
  8
0
100
AcDbBlockEnd
  0
BLOCK
  5
1211
330
EBF
100
AcDbEntity
  8
0
100
AcDbBlockBegin
  2
A$C14C45B9F
 70
     0
 10
0.0
 20
0.0
 30
0.0
  3
A$C14C45B9F
  1

  0
CIRCLE
  5
EC0
330
EBF
100
AcDbEntity
  8
0
100
AcDbCircle
 10
-0.0980395411040931
 20
0.0980395484817782
 30
0.0
 40
0.0980395409819625
210
0.0
220
0.0
230
-1.0
  0
TEXT
  5
EC1
330
EBF
100
AcDbEntity
  8
0
100
AcDbText
 10
-0.0610784565854043
 20
0.0525700379666256
 30
0.0
 40
0.0888620774192805
  1
5
 50
180.0
 71
     4
210
0.0
220
0.0
230
-1.0
100
AcDbText
  0
CIRCLE
  5
EC2
330
EBF
100
AcDbEntity
  8
0
100
AcDbCircle
 10
-0.0980395411040931
 20
0.4823792331138774
 30
0.0
 40
0.0980395409819625
210
0.0
220
0.0
230
-1.0
  0
TEXT
  5
EC3
330
EBF
100
AcDbEntity
  8
0
100
AcDbText
 10
-0.0610784565854043
 20
0.4369097225987248
 30
0.0
 40
0.0888620774192805
  1
4
 50
180.0
 71
     4
210
0.0
220
0.0
230
-1.0
100
AcDbText
  0
CIRCLE
  5
EC4
330
EBF
100
AcDbEntity
  8
0
100
AcDbCircle
 10
-0.0980395411040931
 20
0.8759801559736493
 30
0.0
 40
0.0980395409819625
210
0.0
220
0.0
230
-1.0
  0
TEXT
  5
EC5
330
EBF
100
AcDbEntity
  8
0
100
AcDbText
 10
-0.0711012850504158
 20
0.8305106454584967
 30
0.0
 40
0.0888620774192805
  1
3
 50
180.0
 71
     4
210
0.0
220
0.0
230
-1.0
100
AcDbText
  0
TEXT
  5
EC6
330
EBF
100
AcDbEntity
  8
0
100
AcDbText
 10
-0.0711012850504158
 20
1.188687311151303
 30
0.0
 40
0.0888620774192805
  1
2
 50
180.0
 71
     4
210
0.0
220
0.0
230
-1.0
100
AcDbText
  0
CIRCLE
  5
EC7
330
EBF
100
AcDbEntity
  8
0
100
AcDbCircle
 10
-0.0980395411040931
 20
1.234156821666455
 30
0.0
 40
0.0980395409819625
210
0.0
220
0.0
230
-1.0
  0
CIRCLE
  5
EC8
330
EBF
100
AcDbEntity
  8
0
100
AcDbCircle
 10
-0.0980395411040931
 20
2.05983692796883
 30
0.0
 40
0.0980395409819625
210
0.0
220
0.0
230
-1.0
  0
TEXT
  5
EC9
330
EBF
100
AcDbEntity
  8
0
100
AcDbText
 10
-0.0811241135154201
 20
2.014367417453678
 30
0.0
 40
0.0888620774192805
  1
1
 50
180.0
 71
     4
210
0.0
220
0.0
230
-1.0
100
AcDbText
  0
TEXT
  5
ECA
330
EBF
100
AcDbEntity
  8
0
100
AcDbText
 10
-0.3116490387775084
 20
0.4358985147672927
 30
0.0
 40
0.0888620774192805
  1
PVC SCH 80 TEE
 50
180.0
 71
     4
210
0.0
220
0.0
230
-1.0
100
AcDbText
  0
TEXT
  5
ECB
330
EBF
100
AcDbEntity
  8
0
100
AcDbText
 10
-0.3116490387775084
 20
0.0515588301351935
 30
0.0
 40
0.0888620774192805
  1
PVC LATERAL PIPE
 50
180.0
 71
     4
210
0.0
220
0.0
230
-1.0
100
AcDbText
  0
TEXT
  5
ECC
330
EBF
100
AcDbEntity
  8
0
100
AcDbText
 10
-0.3116490387775084
 20
1.188687311151303
 30
0.0
 40
0.0888620774192805
  1
FINISH GRADE OR MULCH
 50
180.0
 71
     4
210
0.0
220
0.0
230
-1.0
100
AcDbText
  0
TEXT
  5
ECD
330
EBF
100
AcDbEntity
  8
0
100
AcDbText
 10
-0.3116490387775084
 20
0.822629922991184
 30
0.0
 40
0.0888620774192805
  1
SCH 80 PVC RISER
 50
180.0
 71
     4
210
0.0
220
0.0
230
-1.0
100
AcDbText
  0
TEXT
  5
ECE
330
EBF
100
AcDbEntity
  8
0
100
AcDbText
 10
-0.3116490387775084
 20
2.082673438353532
 30
0.0
 40
0.0888620774192805
  1
SINGLE OUTLET PC
 50
180.0
 71
     4
210
0.0
220
0.0
230
-1.0
100
AcDbText
  0
TEXT
  5
ECF
330
EBF
100
AcDbEntity
  8
0
100
AcDbText
 10
-0.3116490387775084
 20
1.9393539256304
 30
0.0
 40
0.0888620774192805
  1
DRIPPER ON 1/2" FNPT
 50
180.0
 71
     4
210
0.0
220
0.0
230
-1.0
100
AcDbText
  0
TEXT
  5
ED0
330
EBF
100
AcDbEntity
  8
0
100
AcDbText
 10
-0.3116490387775084
 20
1.802129507821257
 30
0.0
 40
0.0888620774192805
  1
BASE DIG MODEL 06-114
 50
180.0
 71
     4
210
0.0
220
0.0
230
-1.0
100
AcDbText
  0
TEXT
  5
ED1
330
EBF
100
AcDbEntity
  8
0
100
AcDbText
 10
-0.3116490387775084
 20
1.664905090012113
 30
0.0
 40
0.0888620774192805
  1
1 GPH, 06-115 2 GPH,
 50
180.0
 71
     4
210
0.0
220
0.0
230
-1.0
100
AcDbText
  0
TEXT
  5
ED2
330
EBF
100
AcDbEntity
  8
0
100
AcDbText
 10
-0.3116490387775084
 20
1.521585577288978
 30
0.0
 40
0.0888620774192805
  1
06-116 4 GPH
 50
180.0
 71
     4
210
0.0
220
0.0
230
-1.0
100
AcDbText
  0
ENDBLK
  5
1212
330
EBF
100
AcDbEntity
  8
0
100
AcDbBlockEnd
  0
BLOCK
  5
1213
330
ED7
100
AcDbEntity
  8
0
100
AcDbBlockBegin
  2
A$C39B8445F
 70
     0
 10
0.0
 20
0.0
 30
0.0
  3
A$C39B8445F
  1

  0
TEXT
  5
ED8
330
ED7
100
AcDbEntity
  8
0
100
AcDbText
 10
0.0000000044650657
 20
-0.0000000107705187
 30
0.0
 40
0.0888620774192805
  1
DIG MODEL 16-016
 50
180.0
 71
     4
210
0.0
220
0.0
230
-1.0
100
AcDbText
  0
TEXT
  5
ED9
330
ED7
100
AcDbEntity
  8
0
100
AcDbText
 10
0.0000000044650657
 20
0.1372244070386248
 30
0.0
 40
0.0888620774192805
  1
1/4" DISTRIBUTION TUBING,
 50
180.0
 71
     4
210
0.0
220
0.0
230
-1.0
100
AcDbText
  0
TEXT
  5
EDA
330
ED7
100
AcDbEntity
  8
0
100
AcDbText
 10
0.0000000044650657
 20
0.2805439197617563
 30
0.0
 40
0.0888620774192805
  1
"V" STAKE FOR 1/8" AND 
 50
180.0
 71
     4
210
0.0
220
0.0
230
-1.0
100
AcDbText
  0
ENDBLK
  5
1214
330
ED7
100
AcDbEntity
  8
0
100
AcDbBlockEnd
  0
BLOCK
  5
1215
330
EF1
100
AcDbEntity
  8
0
100
AcDbBlockBegin
  2
A$C3EC824E0
 70
     0
 10
0.0
 20
0.0
 30
0.0
  3
A$C3EC824E0
  1

  0
TEXT
  5
EF2
330
EF1
100
AcDbEntity
  8
0
100
AcDbText
 10
0.0000000044650657
 20
0.4503698153008369
 30
0.0
 40
0.0888620774192805
  1
1/4" VINYL DISTRIBUTION
 50
180.0
 71
     4
210
0.0
220
0.0
230
-1.0
100
AcDbText
  0
TEXT
  5
EF3
330
EF1
100
AcDbEntity
  8
0
100
AcDbText
 10
0.0000000044650657
 20
0.0148103377306565
 30
0.0
 40
0.0888620774192805
  1
12-005 500', 12-015 3000'
 50
180.0
 71
     4
210
0.0
220
0.0
230
-1.0
100
AcDbText
  0
TEXT
  5
EF4
330
EF1
100
AcDbEntity
  8
0
100
AcDbText
 10
0.0000000044650657
 20
0.3070503025777054
 30
0.0
 40
0.0888620774192805
  1
TUBING, 156 ID X 245 OD
 50
180.0
 71
     4
210
0.0
220
0.0
230
-1.0
100
AcDbText
  0
TEXT
  5
EF5
330
EF1
100
AcDbEntity
  8
0
100
AcDbText
 10
0.0000000044650657
 20
0.1698258847685619
 30
0.0
 40
0.0888620774192805
  1
DIG MODEL 12-002 100', 
 50
180.0
 71
     4
210
0.0
220
0.0
230
-1.0
100
AcDbText
  0
ENDBLK
  5
1216
330
EF1
100
AcDbEntity
  8
0
100
AcDbBlockEnd
  0
BLOCK
  5
1217
330
F5E
100
AcDbEntity
  8
0
100
AcDbBlockBegin
  2
A$C3FF5331E
 70
     0
 10
0.0
 20
0.0
 30
0.0
  3
A$C3FF5331E
  1

  0
LINE
  5
F5F
330
F5E
100
AcDbEntity
  8
0
100
AcDbLine
 10
6.670732667702794
 20
0.0000000114264074
 30
-0.0000000000000015
 11
6.670732667702794
 21
0.1828592965939952
 31
-0.0000000000000015
  0
LINE
  5
F60
330
F5E
100
AcDbEntity
  8
0
100
AcDbLine
 10
3.742998033983696
 20
0.0000000114264074
 30
-0.0000000000000015
 11
3.742998033983696
 21
1.002308880721908
 31
-0.0000000000000015
  0
LINE
  5
F61
330
F5E
100
AcDbEntity
  8
0
100
AcDbLine
 10
5.329001446138919
 20
0.0000000114264074
 30
-0.0000000000000015
 11
5.329001446138919
 21
1.002308880721908
 31
-0.0000000000000015
  0
LINE
  5
F62
330
F5E
100
AcDbEntity
  8
0
100
AcDbLine
 10
0.000000011114917
 20
0.0000000163101452
 30
-0.0000000000000013
 11
7.940000011114918
 21
0.0000000163101452
 31
-0.0000000000000013
  0
LINE
  5
F63
330
F5E
100
AcDbEntity
  8
0
100
AcDbLine
 10
3.742998033983696
 20
0.4928423120822432
 30
-0.0000000000000015
 11
5.329001446138919
 21
0.4928423120822432
 31
-0.0000000000000015
  0
LINE
  5
F64
330
F5E
100
AcDbEntity
  8
0
100
AcDbLine
 10
3.742998033983696
 20
0.279138102039501
 30
-0.0000000000000015
 11
5.329001446138919
 21
0.279138102039501
 31
-0.0000000000000015
  0
LINE
  5
F65
330
F5E
100
AcDbEntity
  8
0
100
AcDbLine
 10
3.670030044945271
 20
1.002308880721908
 30
-0.0000000000000015
 11
7.940000011114918
 21
1.002308880721908
 31
-0.0000000000000015
  0
TEXT
  5
F66
330
F5E
100
AcDbEntity
  8
0
 62
     7
100
AcDbText
 10
0.079759888473486
 20
0.8638800831721811
 30
0.0
 40
0.0608158393258724
  1
NOTE: 
100
AcDbText
  0
ARC
  5
F67
330
F5E
100
AcDbEntity
  8
LOGO
 62
     7
100
AcDbCircle
 10
4.403458315506743
 20
0.8918670422605945
 30
-0.0000000000000015
 40
0.0673816981175471
100
AcDbArc
 50
122.0260033892477
 51
208.0161118868835
  0
TEXT
  5
F68
330
F5E
100
AcDbEntity
  8
0
 62
     7
100
AcDbText
 10
4.150929241779895
 20
0.5244904103466581
 30
0.0
 40
0.0571569851655855
  1
IRRIGATION PRODUCTS
 41
0.6691042753526059
 72
     5
 11
4.783102283093331
 21
0.5244904103466581
 31
0.0
100
AcDbText
  0
ARC
  5
F69
330
F5E
100
AcDbEntity
  8
LOGO
 62
     7
100
AcDbCircle
 10
4.445349253753252
 20
0.9103970767840543
 30
-0.0000000000000015
 40
0.1131162792606516
100
AcDbArc
 50
206.3350300869302
 51
272.2277691305709
  0
TEXT
  5
F6A
330
F5E
100
AcDbEntity
  8
0
 62
     7
100
AcDbText
 10
3.808307061097867
 20
0.3607942257789754
 30
0.0
 40
0.0608158393258724
  1
DATE: 11-10-99
100
AcDbText
  0
TEXT
  5
F6B
330
F5E
100
AcDbEntity
  8
0
100
AcDbText
 10
3.808307061097867
 20
0.0940980852836057
 30
0.0
 40
0.0608158393258724
  1
REVISIONS:
100
AcDbText
  0
ARC
  5
F6C
330
F5E
100
AcDbEntity
  8
LOGO
 62
     7
100
AcDbCircle
 10
4.670375879967249
 20
0.7295143798133203
 30
-0.0000000000000015
 40
0.1137288586413809
100
AcDbArc
 50
43.57405058908683
 51
10.6612766956538
  0
ARC
  5
F6D
330
F5E
100
AcDbEntity
  8
LOGO
 62
     7
100
AcDbCircle
 10
4.469876776134264
 20
0.8618060594664474
 30
-0.0000000000000015
 40
0.0675108796499993
100
AcDbArc
 50
138.4175550410183
 51
252.6516243536209
  0
ARC
  5
F6E
330
F5E
100
AcDbEntity
  8
LOGO
 62
     7
100
AcDbCircle
 10
4.469876776134264
 20
0.8618060594664474
 30
-0.0000000000000015
 40
0.0675108796499993
100
AcDbArc
 50
287.3483756463791
 51
41.58244495898143
  0
ARC
  5
F6F
330
F5E
100
AcDbEntity
  8
LOGO
 62
     7
100
AcDbCircle
 10
4.494404298515278
 20
0.9103970767840543
 30
-0.0000000000000015
 40
0.1131162792606516
100
AcDbArc
 50
267.7722308694291
 51
333.6649699130697
  0
LINE
  5
F70
330
F5E
100
AcDbEntity
  8
LOGO
 62
     7
100
AcDbLine
 10
4.421436701781865
 20
0.6158977209734884
 30
-0.0000000000000015
 11
4.518316850486666
 21
0.6158977209734884
 31
-0.0000000000000015
  0
LINE
  5
F71
330
F5E
100
AcDbEntity
  8
LOGO
 62
     7
100
AcDbLine
 10
4.394057543119644
 20
0.7758026516038168
 30
-0.0000000000000015
 11
4.545696009148887
 21
0.7758026516038168
 31
-0.0000000000000015
  0
LINE
  5
F72
330
F5E
100
AcDbEntity
  8
LOGO
 62
     7
100
AcDbLine
 10
4.394057543119644
 20
0.7758026516038168
 30
-0.0000000000000015
 11
4.421436701781865
 21
0.6158977209734884
 31
-0.0000000000000015
  0
LINE
  5
F73
330
F5E
100
AcDbEntity
  8
LOGO
 62
     7
100
AcDbLine
 10
4.545696009148887
 20
0.7758026516038168
 30
-0.0000000000000015
 11
4.518316850486666
 21
0.6158977209734884
 31
-0.0000000000000015
  0
LINE
  5
F74
330
F5E
100
AcDbEntity
  8
LOGO
 62
     7
100
AcDbLine
 10
4.670375879967249
 20
0.7505545001410372
 30
-0.0000000000000015
 11
4.782141557276816
 21
0.7505545001410372
 31
-0.0000000000000015
  0
ARC
  5
F75
330
F5E
100
AcDbEntity
  8
LOGO
 62
     7
100
AcDbCircle
 10
4.670375879967249
 20
0.7295143798133203
 30
-0.0000000000000015
 40
0.0470411463120155
100
AcDbArc
 50
43.57405058908686
 51
333.4312990519632
  0
LINE
  5
F76
330
F5E
100
AcDbEntity
  8
LOGO
 62
     7
100
AcDbLine
 10
4.670375879967249
 20
0.7084742594856035
 30
-0.0000000000000015
 11
4.712449420143276
 21
0.7084742594856035
 31
-0.0000000000000015
  0
LINE
  5
F77
330
F5E
100
AcDbEntity
  8
LOGO
 62
     7
100
AcDbLine
 10
4.670375879967249
 20
0.7505545001410372
 30
-0.0000000000000015
 11
4.670375879967249
 21
0.7084742594856035
 31
-0.0000000000000015
  0
LINE
  5
F78
330
F5E
100
AcDbEntity
  8
LOGO
 62
     7
100
AcDbLine
 10
4.704456443347802
 20
0.7619394418180825
 30
-0.0000000000000015
 11
4.75277063177489
 21
0.8079067146581806
 31
-0.0000000000000015
  0
ARC
  5
F79
330
F5E
100
AcDbEntity
  8
LOGO
 62
     7
100
AcDbCircle
 10
4.564955073643301
 20
0.9376860831718483
 30
-0.0000000000000015
 40
0.0133375424658731
100
AcDbArc
 50
57.97399661075209
 51
139.0852896065208
  0
ARC
  5
F7A
330
F5E
100
AcDbEntity
  8
LOGO
 62
     7
100
AcDbCircle
 10
4.469876776134264
 20
0.8618060594664474
 30
-0.0000000000000015
 40
0.0675108796499993
100
AcDbArc
 50
55.76830433924557
 51
124.2316956607548
  0
CIRCLE
  5
F7B
330
F5E
100
AcDbEntity
  8
LOGO
 62
     7
100
AcDbCircle
 10
4.469876776134264
 20
0.8618060594664474
 30
-0.0000000000000015
 40
0.0432555883111094
  0
ARC
  5
F7C
330
F5E
100
AcDbEntity
  8
LOGO
 62
     7
100
AcDbCircle
 10
4.469876776134264
 20
0.6142627554948712
 30
-0.0000000000000015
 40
0.3718478266740365
100
AcDbArc
 50
79.83810088077882
 51
100.1618991192212
  0
CIRCLE
  5
F7D
330
F5E
100
AcDbEntity
  8
LOGO
 62
     7
100
AcDbCircle
 10
4.469876776134264
 20
0.8618060594664474
 30
-0.0000000000000015
 40
0.0311279426416641
  0
LINE
  5
F7E
330
F5E
100
AcDbEntity
  8
LOGO
 62
     7
100
AcDbLine
 10
4.419378538380681
 20
0.9066128318886966
 30
-0.0000000000000015
 11
4.384877463977768
 21
0.946421304593903
 31
-0.0000000000000015
  0
ARC
  5
F7F
330
F5E
100
AcDbEntity
  8
LOGO
 62
     7
100
AcDbCircle
 10
4.37479847862523
 20
0.9376860831718483
 30
-0.0000000000000015
 40
0.0133375424658731
100
AcDbArc
 50
40.91471039347918
 51
122.0260033892479
  0
ARC
  5
F80
330
F5E
100
AcDbEntity
  8
LOGO
 62
     7
100
AcDbCircle
 10
4.4066247259933
 20
0.967149142361782
 30
-0.0000000000000015
 40
0.0133375424658731
100
AcDbArc
 50
100.1618991192206
 51
220.9147103934802
  0
LINE
  5
F81
330
F5E
100
AcDbEntity
  8
LOGO
 62
     7
100
AcDbLine
 10
4.431899150028274
 20
0.9176219961375303
 30
-0.0000000000000015
 11
4.396545740640764
 21
0.9584139209397282
 31
-0.0000000000000015
  0
ARC
  5
F82
330
F5E
100
AcDbEntity
  8
LOGO
 62
     7
100
AcDbCircle
 10
4.533128826275229
 20
0.967149142361782
 30
-0.0000000000000015
 40
0.0133375424658731
100
AcDbArc
 50
319.0852896065217
 51
79.83810088077948
  0
LINE
  5
F83
330
F5E
100
AcDbEntity
  8
LOGO
 62
     7
100
AcDbLine
 10
4.507854402240255
 20
0.9176219961375303
 30
-0.0000000000000015
 11
4.543207811627767
 21
0.9584139209397282
 31
-0.0000000000000015
  0
LINE
  5
F84
330
F5E
100
AcDbEntity
  8
LOGO
 62
     7
100
AcDbLine
 10
4.520375013887849
 20
0.9066128318886966
 30
-0.0000000000000015
 11
4.554876088290762
 21
0.946421304593903
 31
-0.0000000000000015
  0
ARC
  5
F85
330
F5E
100
AcDbEntity
  8
LOGO
 62
     7
100
AcDbCircle
 10
4.536295236761788
 20
0.8918670422605945
 30
-0.0000000000000015
 40
0.0673816981175471
100
AcDbArc
 50
331.9838881131166
 51
57.97399661075228
  0
TEXT
  5
F86
330
F5E
100
AcDbEntity
  8
0
100
AcDbText
 10
5.412541747221965
 20
0.333987323589823
 30
0.0
 40
0.0689306978542596
  1
FNPT BASE WITH SUPPORT ROD FOR BELOW GROUND
 41
0.8666534438308864
 72
     5
 11
7.885140061551056
 21
0.333987323589823
 31
0.0
100
AcDbText
  0
TEXT
  5
F87
330
F5E
100
AcDbEntity
  8
0
100
AcDbText
 10
5.412541747221965
 20
0.4392980962985211
 30
0.0
 40
0.0689306978542596
  1
ADJUSTABLE COMPACT MICRO SPRINKLER ON 1/2"
 41
0.9188213637336164
 72
     5
 11
7.885140061551056
 21
0.4392980962985211
 31
0.0
100
AcDbText
  0
LINE
  5
F88
330
F5E
100
AcDbEntity
  8
0
100
AcDbLine
 10
5.329001446138919
 20
0.1828592965939952
 30
-0.0000000000000015
 11
7.940000011114918
 21
0.1828592965939952
 31
-0.0000000000000015
  0
LINE
  5
F89
330
F5E
100
AcDbEntity
  8
0
100
AcDbLine
 10
5.329001446138919
 20
0.6345470537315299
 30
-0.0000000000000015
 11
7.940000011114918
 21
0.6345470537315299
 31
-0.0000000000000015
  0
TEXT
  5
F8A
330
F5E
100
AcDbEntity
  8
0
100
AcDbText
 10
5.444503915281633
 20
0.8945386044173924
 30
0.0
 40
0.0608158393258724
  1
1290 ACTIVITY  DRIVE, VISTA, CA 92083 
100
AcDbText
  0
TEXT
  5
F8B
330
F5E
100
AcDbEntity
  8
0
100
AcDbText
 10
5.444503915281633
 20
0.7794515345218249
 30
0.0
 40
0.0608158393258724
  1
TEL. 1-800-822-9146
100
AcDbText
  0
TEXT
  5
F8C
330
F5E
100
AcDbEntity
  8
0
100
AcDbText
 10
5.444503915281633
 20
0.6670629138856645
 30
0.0
 40
0.0608158393258724
  1
EMAIL dig@digcorp.com
100
AcDbText
  0
TEXT
  5
F8D
330
F5E
100
AcDbEntity
  8
0
100
AcDbText
 10
5.755811109656463
 20
0.0346501353480759
 30
0.0
 40
0.0939845171888294
  1
NOT TO SCALE
 41
0.6259487054333952
 72
     5
 11
6.408818413859411
 21
0.0346501353480759
 31
0.0
100
AcDbText
  0
TEXT
  5
F8E
330
F5E
100
AcDbEntity
  8
0
100
AcDbText
 10
5.412541747221965
 20
0.2361987450918077
 30
0.0
 40
0.0689306978542596
  1
INSTALLATION                                           
 41
0.3787033999172338
 72
     5
 11
7.885140061551056
 21
0.2361987450918077
 31
0.0
100
AcDbText
  0
TEXT
  5
F8F
330
F5E
100
AcDbEntity
  8
0
100
AcDbText
 10
5.362829102726248
 20
0.5426324617092364
 30
0.0
 40
0.0608158393258724
  1
DWG. NAME
100
AcDbText
  0
TEXT
  5
F90
330
F5E
100
AcDbEntity
  8
0
100
AcDbText
 10
5.342864421238215
 20
0.0868190302390319
 30
0.0
 40
0.0608158393258724
  1
SCALE
100
AcDbText
  0
TEXT
  5
F91
330
F5E
100
AcDbEntity
  8
0
100
AcDbText
 10
6.718990757781839
 20
0.082091837140557
 30
0.0
 40
0.0608158393258724
  1
DWG. NO.
100
AcDbText
  0
TEXT
  5
F92
330
F5E
100
AcDbEntity
  8
0
100
AcDbText
 10
7.275437236768422
 20
0.0442068424965818
 30
0.0
 40
0.0751876137510635
  1
I2    
 41
0.8340973145631053
 72
     5
 11
7.797843080130779
 21
0.0442068424965818
 31
0.0
100
AcDbText
  0
LWPOLYLINE
  5
F93
330
F5E
100
AcDbEntity
  8
0
100
AcDbPolyline
 90
        2
 70
     0
 43
0.0
 10
7.940000011114918
 20
1.002308880721908
 10
0.0000000111149205
 20
1.002308880721908
  0
LWPOLYLINE
  5
F94
330
F5E
100
AcDbEntity
  8
LOGO
 62
     7
100
AcDbPolyline
 90
        4
 70
     1
 43
0.0
 10
4.158175421927167
 20
0.6158977222727557
 10
4.255055553680258
 20
0.6158977222727557
 42
1.11220835911755
 10
4.255055553680258
 20
0.843131037353885
 10
4.158175421927167
 20
0.8431310373538858
  0
LWPOLYLINE
  5
F95
330
F5E
100
AcDbEntity
  8
LOGO
 62
     7
100
AcDbPolyline
 90
        4
 70
     1
 43
0.0
 10
4.224863134256532
 20
0.682585434602121
 10
4.259365474236677
 20
0.682585434602121
 42
1.043882780016063
 10
4.259365474236677
 20
0.7764433250245197
 10
4.224863134256532
 20
0.7764433250245197
  0
ENDBLK
  5
1218
330
F5E
100
AcDbEntity
  8
0
100
AcDbBlockEnd
  0
ENDSEC
  0
SECTION
  2
ENTITIES
  0
ARC
  5
134
330
1F
100
AcDbEntity
  8
0
100
AcDbCircle
 10
4.585031567062757
 20
1.596643382811713
 30
0.0
 40
1.448061006618917
100
AcDbArc
 50
67.58955840518891
 51
110.4371281007705
  0
ARC
  5
135
330
1F
100
AcDbEntity
  8
0
100
AcDbCircle
 10
3.042568405136354
 20
6.518014516314349
 30
0.0
 40
3.712192145838583
100
AcDbArc
 50
278.7056566207161
 51
286.2186706252316
  0
ARC
  5
136
330
1F
100
AcDbEntity
  8
0
100
AcDbCircle
 10
1.433531287123117
 20
-3.389051727168287
 30
0.0
 40
6.345225630367226
100
AcDbArc
 50
83.95487975357969
 51
98.84623881067563
  0
ARC
  5
139
330
1F
100
AcDbEntity
  8
0
100
AcDbCircle
 10
1.085090050386459
 20
4.107192210950609
 30
0.0
 40
0.3409260286106134
100
AcDbArc
 50
288.0551128057728
 51
348.9047095213556
  0
ARC
  5
13A
330
1F
100
AcDbEntity
  8
0
100
AcDbCircle
 10
0.9732468780654493
 20
3.867933381727239
 30
0.0
 40
0.6045639457230795
100
AcDbArc
 50
297.5529021681456
 51
340.7589933375901
  0
ARC
  5
13B
330
1F
100
AcDbEntity
  8
0
100
AcDbCircle
 10
1.656493014494126
 20
3.182901400193584
 30
0.0
 40
0.4986478401442313
100
AcDbArc
 50
103.0331764405077
 51
150.9424090601683
  0
ARC
  5
13C
330
1F
100
AcDbEntity
  8
0
100
AcDbCircle
 10
1.437759024118957
 20
3.548850166432894
 30
0.0
 40
0.2531026391074491
100
AcDbArc
 50
109.0956593370308
 51
167.3980196497155
  0
ARC
  5
13D
330
1F
100
AcDbEntity
  8
0
100
AcDbCircle
 10
1.123626517185006
 20
3.765570953086632
 30
0.0
 40
0.2324181532054964
100
AcDbArc
 50
294.662720094899
 51
5.544149015073068
  0
ARC
  5
13E
330
1F
100
AcDbEntity
  8
0
100
AcDbCircle
 10
1.376350979299545
 20
3.772801631718097
 30
0.0
 40
0.2722465720965986
100
AcDbArc
 50
80.84997636498056
 51
132.9785479497329
  0
LINE
  5
141
330
1F
100
AcDbEntity
  8
0
100
AcDbLine
 10
1.127282070122245
 20
1.635095224909279
 30
0.0
 11
2.889891613056458
 21
1.635095224909276
 31
0.0
  0
LINE
  5
142
330
1F
100
AcDbEntity
  8
0
100
AcDbLine
 10
2.889891613056458
 20
1.393224107310702
 30
0.0
 11
1.127282070122245
 21
1.393224107310706
 31
0.0
  0
ARC
  5
146
330
1F
100
AcDbEntity
  8
0
100
AcDbCircle
 10
1.10526891406924
 20
1.574722195616086
 30
0.0
 40
0.0642610434513059
100
AcDbArc
 50
290.0328185300485
 51
69.96718146995138
  0
ARC
  5
147
330
1F
100
AcDbEntity
  8
0
100
AcDbCircle
 10
1.149141895657653
 20
1.453881386923255
 30
0.0
 40
0.0641195985183373
100
AcDbArc
 50
109.9330988445268
 51
250.0669011554735
  0
ARC
  5
148
330
1F
100
AcDbEntity
  8
0
100
AcDbCircle
 10
1.149295226175248
 20
1.574722195616086
 30
0.0
 40
0.0642610434513059
100
AcDbArc
 50
110.0328185300486
 51
249.9671814699515
  0
LINE
  5
159
330
1F
100
AcDbEntity
  8
0
100
AcDbLine
 10
2.889891613056458
 20
1.635095224909276
 30
0.0
 11
3.871086985241082
 21
1.635095224909275
 31
0.0
  0
LINE
  5
15A
330
1F
100
AcDbEntity
  8
0
100
AcDbLine
 10
3.870012186627905
 20
1.393224107310704
 30
0.0
 11
2.889891613056458
 21
1.393224107310704
 31
0.0
  0
ARC
  5
177
330
1F
100
AcDbEntity
  8
0
100
AcDbCircle
 10
3.849227159705682
 20
1.453881386923255
 30
0.0
 40
0.0641195985183373
100
AcDbArc
 50
288.9147084934261
 51
70.06690115547318
  0
ARC
  5
178
330
1F
100
AcDbEntity
  8
0
100
AcDbCircle
 10
3.849073829188088
 20
1.574722195616086
 30
0.0
 40
0.0642610434513059
100
AcDbArc
 50
290.0328185300485
 51
69.96718146995138
  0
ARC
  5
179
330
1F
100
AcDbEntity
  8
0
100
AcDbCircle
 10
3.893100141294095
 20
1.574722195616086
 30
0.0
 40
0.0642610434513059
100
AcDbArc
 50
110.0328185300486
 51
249.9671814699515
  0
LINE
  5
17A
330
1F
100
AcDbEntity
  8
0
100
AcDbLine
 10
2.303357530124469
 20
3.624654873526944
 30
0.0
 11
2.262970837836477
 21
3.624654873526944
 31
0.0
  0
LINE
  5
17B
330
1F
100
AcDbEntity
  8
0
100
AcDbLine
 10
2.333633373183311
 20
3.567635762505036
 30
0.0
 11
2.262970837836477
 21
3.567635762505039
 31
0.0
  0
LINE
  5
17E
330
1F
100
AcDbEntity
  8
0
100
AcDbLine
 10
2.376597189334761
 20
3.624654873526948
 30
0.0
 11
2.376597189334761
 21
2.631825131741405
 31
0.0
  0
LINE
  5
17F
330
1F
100
AcDbEntity
  8
0
100
AcDbLine
 10
2.333633373183311
 20
3.624654873526944
 30
0.0
 11
2.333633373183311
 21
2.675104876881399
 31
0.0
  0
LINE
  5
180
330
1F
100
AcDbEntity
  8
0
100
AcDbLine
 10
2.376597189334761
 20
2.631825131741405
 30
0.0
 11
2.376597189334761
 21
2.485979267641721
 31
0.0
  0
LINE
  5
181
330
1F
100
AcDbEntity
  8
0
100
AcDbLine
 10
2.376597189334761
 20
2.485979267641721
 30
0.0
 11
2.333633373183311
 21
2.675104876881399
 31
0.0
  0
LINE
  5
184
330
1F
100
AcDbEntity
  8
0
100
AcDbLine
 10
2.480079703991031
 20
3.624654873526944
 30
0.0
 11
2.376597189334761
 21
3.624654873526948
 31
0.0
  0
LINE
  5
185
330
1F
100
AcDbEntity
  8
0
100
AcDbLine
 10
2.564407768986026
 20
3.567635762505039
 30
0.0
 11
2.37659718933476
 21
3.567635762505039
 31
0.0
  0
LINE
  5
186
330
1F
100
AcDbEntity
  8
0
100
AcDbLine
 10
2.464144767361017
 20
3.624654873526944
 30
0.0
 11
2.564407768986026
 21
3.624654873526944
 31
0.0
  0
LINE
  5
187
330
1F
100
AcDbEntity
  8
0
100
AcDbLine
 10
2.333633373183311
 20
3.677792337905325
 30
0.0
 11
2.333633373183311
 21
3.624654873526944
 31
0.0
  0
LINE
  5
188
330
1F
100
AcDbEntity
  8
0
100
AcDbLine
 10
2.376597189334761
 20
3.677792337905328
 30
0.0
 11
2.376597189334761
 21
3.624654873526948
 31
0.0
  0
LINE
  5
189
330
1F
100
AcDbEntity
  8
0
100
AcDbLine
 10
2.333633373183311
 20
3.624654873526948
 30
0.0
 11
2.303357530124469
 21
3.624654873526944
 31
0.0
  0
LINE
  5
18A
330
1F
100
AcDbEntity
  8
0
100
AcDbLine
 10
2.333633373183311
 20
3.677792337905325
 30
0.0
 11
2.376597189334761
 21
3.677792337905328
 31
0.0
  0
POINT
  5
18B
330
1F
100
AcDbEntity
  8
0
100
AcDbPoint
 10
2.360662252704747
 20
3.677792337905328
 30
0.0
  0
ARC
  5
1C1
330
1F
100
AcDbEntity
  8
0
100
AcDbCircle
 10
0.8760904749754985
 20
3.781004008631439
 30
0.0
 40
0.299742743432309
100
AcDbArc
 50
0.3918161302518951
 51
80.21486720541417
  0
ARC
  5
1C2
330
1F
100
AcDbEntity
  8
0
100
AcDbCircle
 10
1.202922201009274
 20
4.028161737560806
 30
0.0
 40
0.2466011043095558
100
AcDbArc
 50
219.1273658803077
 51
263.6917276311187
  0
ARC
  5
1C3
330
1F
100
AcDbEntity
  8
0
100
AcDbCircle
 10
1.573250733995838
 20
3.87751672551632
 30
0.0
 40
0.3939887487734416
100
AcDbArc
 50
166.1275934498797
 51
193.8724065501235
  0
ARC
  5
1E8
330
1F
100
AcDbEntity
  8
0
100
AcDbCircle
 10
1.91217317806329
 20
3.173983468989218
 30
0.0
 40
0.6885725146518209
100
AcDbArc
 50
168.4855515475599
 51
198.6494342147829
  0
ARC
  5
1E9
330
1F
100
AcDbEntity
  8
0
100
AcDbCircle
 10
-0.5001734553296195
 20
3.023841470265383
 30
0.0
 40
1.694057971155556
100
AcDbArc
 50
357.5555409241029
 51
9.675970220399574
  0
ARC
  5
1EA
330
1F
100
AcDbEntity
  8
0
100
AcDbCircle
 10
0.8524050881125973
 20
3.191952219184662
 30
0.0
 40
0.3820139622499275
100
AcDbArc
 50
32.15394696467605
 51
98.99398984883545
  0
ARC
  5
1EB
330
1F
100
AcDbEntity
  8
0
100
AcDbCircle
 10
1.259820047741663
 20
4.230145852798971
 30
0.0
 40
0.9044123971012575
100
AcDbArc
 50
249.9882603998743
 51
262.6538812467554
  0
LINE
  5
1EC
330
1F
100
AcDbEntity
  8
0
100
AcDbLine
 10
1.220609001502737
 20
3.425088921959316
 30
0.0
 11
1.220609001502737
 21
3.554354013247481
 31
0.0
  0
LINE
  5
1ED
330
1F
100
AcDbEntity
  8
0
100
AcDbLine
 10
1.175826209725944
 20
3.395258504006983
 30
0.0
 11
1.175826209725944
 21
3.529495320986148
 31
0.0
  0
ARC
  5
1EE
330
1F
100
AcDbEntity
  8
0
100
AcDbCircle
 10
1.266704521265069
 20
3.30547506743659
 30
0.0
 40
0.0298466024765474
100
AcDbArc
 50
117.5529021681454
 51
168.4855515475601
  0
ARC
  5
1EF
330
1F
100
AcDbEntity
  8
0
100
AcDbCircle
 10
1.140362920029794
 20
3.30355539691733
 30
0.0
 40
0.0298466024765474
100
AcDbArc
 50
9.675970220400158
 51
82.65388124675349
  0
ARC
  5
1F0
330
1F
100
AcDbEntity
  8
0
100
AcDbCircle
 10
1.056008434342544
 20
3.539485440943627
 30
0.0
 40
0.1494244216256248
100
AcDbArc
 50
25.6092395307753
 51
98.13956384317535
  0
LINE
  5
1F1
330
1F
100
AcDbEntity
  8
0
100
AcDbLine
 10
1.190753824619685
 20
3.783053777871478
 30
0.0
 11
1.175826209725944
 21
3.783053777871478
 31
0.0
  0
LINE
  5
1F2
330
1F
100
AcDbEntity
  8
0
100
AcDbLine
 10
1.190753824619685
 20
3.6040713339638
 30
0.0
 11
1.190753824619685
 21
3.783053777871478
 31
0.0
  0
ARC
  5
1F3
330
1F
100
AcDbEntity
  8
0
100
AcDbCircle
 10
1.440520627261112
 20
3.962267580516792
 30
0.0
 40
0.5073016492123207
100
AcDbArc
 50
215.3612585184611
 51
238.5489935301957
  0
LINE
  5
1F4
330
1F
100
AcDbEntity
  8
0
100
AcDbLine
 10
1.175826209725944
 20
3.783053777871478
 30
0.0
 11
1.175826209725944
 21
3.628767905517174
 31
0.0
  0
ARC
  5
1F5
330
1F
100
AcDbEntity
  8
0
100
AcDbCircle
 10
1.036542533634099
 20
3.675586207239879
 30
0.0
 40
0.011938640990619
100
AcDbArc
 50
98.13956384317656
 51
215.36125851846
  0
ARC
  5
1F6
330
1F
100
AcDbEntity
  8
0
100
AcDbCircle
 10
0.6117099614644843
 20
3.278732289229543
 30
0.0
 40
0.3422915413993274
100
AcDbArc
 50
20.38930507147852
 51
58.08134935483128
  0
ARC
  5
1F7
330
1F
100
AcDbEntity
  8
0
100
AcDbCircle
 10
0.9605325484349763
 20
3.408384134363329
 30
0.0
 40
0.0298466024765474
100
AcDbArc
 50
200.3893050714785
 51
249.9882603998747
  0
ARC
  5
22A
330
1F
100
AcDbEntity
  8
0
100
AcDbCircle
 10
1.156707820322236
 20
4.262722798912892
 30
0.0
 40
0.2572245086918994
100
AcDbArc
 50
165.9950037488875
 51
264.2738245954894
  0
ARC
  5
22B
330
1F
100
AcDbEntity
  8
0
100
AcDbCircle
 10
0.691500857011146
 20
3.921449490227614
 30
0.0
 40
0.4575223879415167
100
AcDbArc
 50
15.71677678841617
 51
61.88153332263889
  0
ARC
  5
22C
330
1F
100
AcDbEntity
  8
0
100
AcDbCircle
 10
1.611043259043742
 20
3.990290636723854
 30
0.0
 40
0.482282787373453
100
AcDbArc
 50
130.9040884551765
 51
186.2656944446905
  0
ARC
  5
22D
330
1F
100
AcDbEntity
  8
0
100
AcDbCircle
 10
0.5251773199948175
 20
4.280227208356967
 30
0.0
 40
0.7736723656053133
100
AcDbArc
 50
339.9488291926084
 51
5.53145712447437
  0
POINT
  5
22E
330
1F
100
AcDbEntity
  8
0
100
AcDbPoint
 10
1.137155384756106
 20
4.06803759445682
 30
0.0
  0
POINT
  5
22F
330
1F
100
AcDbEntity
  8
0
100
AcDbPoint
 10
1.284175567722293
 20
4.359893188546865
 30
0.0
  0
ARC
  5
230
330
1F
100
AcDbEntity
  8
0
100
AcDbCircle
 10
1.376790333996295
 20
4.143553836865111
 30
0.0
 40
0.4547452697282272
100
AcDbArc
 50
188.4938981304385
 51
216.5809175675684
  0
POINT
  5
231
330
1F
100
AcDbEntity
  8
0
100
AcDbPoint
 10
1.009476555649616
 20
4.252973373370187
 30
0.0
  0
ARC
  5
2C3
330
1F
100
AcDbEntity
  8
0
100
AcDbCircle
 10
1.433531287123117
 20
-3.389051727168245
 30
0.0
 40
6.345225630367183
100
AcDbArc
 50
81.35980789275592
 51
81.45268672499361
  0
POINT
  5
33A
330
1F
100
AcDbEntity
  8
DEFPOINTS
  6
ByBlock
 62
     0
100
AcDbPoint
 10
1.295247023066999
 20
4.354803221334633
 30
0.0
  0
POINT
  5
33B
330
1F
100
AcDbEntity
  8
DEFPOINTS
  6
ByBlock
 62
     0
100
AcDbPoint
 10
2.333633373183311
 20
3.677792337905325
 30
0.0
  0
LINE
  5
B21
330
1F
100
AcDbEntity
  8
0
100
AcDbLine
 10
2.237758395216027
 20
3.340200115899921
 30
0.0
 11
2.237758395216028
 21
3.852240227493076
 31
0.0
  0
LINE
  5
B22
330
1F
100
AcDbEntity
  8
0
100
AcDbLine
 10
2.237758395216028
 20
3.852240227493076
 30
0.0
 11
2.09411773724238
 21
3.852240227493078
 31
0.0
  0
LINE
  5
B23
330
1F
100
AcDbEntity
  8
0
100
AcDbLine
 10
2.061642763839904
 20
3.824346449261742
 30
0.0
 11
2.061642763839904
 21
3.755876139988565
 31
0.0
  0
LINE
  5
B24
330
1F
100
AcDbEntity
  8
0
100
AcDbLine
 10
2.09411773724238
 20
3.340200115899921
 30
0.0
 11
2.237758395216027
 21
3.340200115899921
 31
0.0
  0
ARC
  5
B25
330
1F
100
AcDbEntity
  8
0
100
AcDbCircle
 10
2.09411773724238
 20
3.806860806437095
 30
0.0
 40
0.0453794210559838
100
AcDbArc
 50
90.0
 51
180.0
  0
ARC
  5
B26
330
1F
100
AcDbEntity
  8
0
100
AcDbCircle
 10
2.09411773724238
 20
3.385579536955905
 30
0.0
 40
0.0453794210559838
100
AcDbArc
 50
180.0
 51
270.0
  0
LINE
  5
B31
330
1F
100
AcDbEntity
  8
0
100
AcDbLine
 10
2.048738316186396
 20
3.588468802700502
 30
0.0
 11
2.237758395216028
 21
3.588468802700502
 31
0.0
  0
LINE
  5
B32
330
1F
100
AcDbEntity
  8
0
100
AcDbLine
 10
2.048738316186396
 20
3.603971540692498
 30
0.0
 11
2.237758395216028
 21
3.603971540692498
 31
0.0
  0
ARC
  5
B33
330
1F
100
AcDbEntity
  8
0
100
AcDbCircle
 10
2.09411773724238
 20
3.399790391696205
 30
0.0
 40
0.0453794210559838
100
AcDbArc
 50
180.0
 51
270.0
  0
ARC
  5
B34
330
1F
100
AcDbEntity
  8
0
100
AcDbCircle
 10
2.09411773724238
 20
3.482471555709683
 30
0.0
 40
0.0453794210559838
100
AcDbArc
 50
180.0
 51
270.0
  0
ARC
  5
B35
330
1F
100
AcDbEntity
  8
0
100
AcDbCircle
 10
2.09411773724238
 20
3.468260700969382
 30
0.0
 40
0.0453794210559838
100
AcDbArc
 50
180.0
 51
270.0
  0
ARC
  5
B36
330
1F
100
AcDbEntity
  8
0
100
AcDbCircle
 10
2.09411773724238
 20
3.553525667774504
 30
0.0
 40
0.0453794210559838
100
AcDbArc
 50
180.0
 51
270.0
  0
ARC
  5
B37
330
1F
100
AcDbEntity
  8
0
100
AcDbCircle
 10
2.09411773724238
 20
3.539314813034204
 30
0.0
 40
0.0453794210559838
100
AcDbArc
 50
180.0
 51
270.0
  0
ARC
  5
B38
330
1F
100
AcDbEntity
  8
0
100
AcDbCircle
 10
2.09411773724238
 20
3.709968787683317
 30
0.0
 40
0.0453794210559838
100
AcDbArc
 50
90.00000000000001
 51
180.0
  0
ARC
  5
B39
330
1F
100
AcDbEntity
  8
0
100
AcDbCircle
 10
2.09411773724238
 20
3.724179642423617
 30
0.0
 40
0.0453794210559838
100
AcDbArc
 50
90.00000000000001
 51
180.0
  0
ARC
  5
B3A
330
1F
100
AcDbEntity
  8
0
100
AcDbCircle
 10
2.09411773724238
 20
3.792649951696795
 30
0.0
 40
0.0453794210559838
100
AcDbArc
 50
90.00000000000001
 51
180.0
  0
ARC
  5
B3B
330
1F
100
AcDbEntity
  8
0
100
AcDbCircle
 10
2.09411773724238
 20
3.653125530358796
 30
0.0
 40
0.0453794210559838
100
AcDbArc
 50
90.00000000000001
 51
180.0
  0
ARC
  5
B3C
330
1F
100
AcDbEntity
  8
0
100
AcDbCircle
 10
2.09411773724238
 20
3.638914675618496
 30
0.0
 40
0.0453794210559838
100
AcDbArc
 50
90.00000000000001
 51
180.0
  0
LINE
  5
B3D
330
1F
100
AcDbEntity
  8
0
100
AcDbLine
 10
2.09411773724238
 20
3.354410970640222
 30
0.0
 11
2.237758395216027
 21
3.354410970640222
 31
0.0
  0
LINE
  5
B3E
330
1F
100
AcDbEntity
  8
0
100
AcDbLine
 10
2.09411773724238
 20
3.422881279913399
 30
0.0
 11
2.237758395216027
 21
3.422881279913399
 31
0.0
  0
LINE
  5
B3F
330
1F
100
AcDbEntity
  8
0
100
AcDbLine
 10
2.09411773724238
 20
3.437092134653699
 30
0.0
 11
2.237758395216027
 21
3.437092134653699
 31
0.0
  0
LINE
  5
B40
330
1F
100
AcDbEntity
  8
0
100
AcDbLine
 10
2.09411773724238
 20
3.493935391978221
 30
0.0
 11
2.237758395216027
 21
3.493935391978221
 31
0.0
  0
LINE
  5
B41
330
1F
100
AcDbEntity
  8
0
100
AcDbLine
 10
2.09411773724238
 20
3.508146246718521
 30
0.0
 11
2.237758395216027
 21
3.508146246718521
 31
0.0
  0
LINE
  5
B42
330
1F
100
AcDbEntity
  8
0
100
AcDbLine
 10
2.09411773724238
 20
3.838029372752778
 30
0.0
 11
2.237758395216028
 21
3.838029372752778
 31
0.0
  0
LINE
  5
B43
330
1F
100
AcDbEntity
  8
0
100
AcDbLine
 10
2.09411773724238
 20
3.755348208739302
 30
0.0
 11
2.237758395216028
 21
3.755348208739301
 31
0.0
  0
LINE
  5
B44
330
1F
100
AcDbEntity
  8
0
100
AcDbLine
 10
2.09411773724238
 20
3.769559063479601
 30
0.0
 11
2.237758395216028
 21
3.769559063479601
 31
0.0
  0
LINE
  5
B45
330
1F
100
AcDbEntity
  8
0
100
AcDbLine
 10
2.09411773724238
 20
3.684294096674479
 30
0.0
 11
2.237758395216028
 21
3.684294096674479
 31
0.0
  0
LINE
  5
B46
330
1F
100
AcDbEntity
  8
0
100
AcDbLine
 10
2.09411773724238
 20
3.698504951414779
 30
0.0
 11
2.237758395216028
 21
3.698504951414779
 31
0.0
  0
LINE
  5
B47
330
1F
100
AcDbEntity
  8
0
100
AcDbLine
 10
2.061642763839902
 20
3.436564203404437
 30
0.0
 11
2.061642763839902
 21
3.368093894131259
 31
0.0
  0
LINE
  5
B48
330
1F
100
AcDbEntity
  8
0
100
AcDbLine
 10
2.061642763839904
 20
3.507618315469258
 30
0.0
 11
2.061642763839902
 21
3.450775058144735
 31
0.0
  0
LINE
  5
B49
330
1F
100
AcDbEntity
  8
0
100
AcDbLine
 10
2.061642763839904
 20
3.588468802700502
 30
0.0
 11
2.061642763839904
 21
3.521829170209557
 31
0.0
  0
LINE
  5
B4A
330
1F
100
AcDbEntity
  8
0
100
AcDbLine
 10
2.061642763839906
 20
3.670611173183445
 30
0.0
 11
2.061642763839904
 21
3.603971540692498
 31
0.0
  0
LINE
  5
B4B
330
1F
100
AcDbEntity
  8
0
100
AcDbLine
 10
2.061642763839904
 20
3.741665285248265
 30
0.0
 11
2.061642763839906
 21
3.684822027923743
 31
0.0
  0
LINE
  5
B4C
330
1F
100
AcDbEntity
  8
0
100
AcDbLine
 10
2.048738316186396
 20
3.553525667774504
 30
0.0
 11
2.048738316186396
 21
3.539314813034204
 31
0.0
  0
LINE
  5
B4D
330
1F
100
AcDbEntity
  8
0
100
AcDbLine
 10
2.048738316186398
 20
3.638914675618496
 30
0.0
 11
2.048738316186398
 21
3.653125530358796
 31
0.0
  0
LINE
  5
B4E
330
1F
100
AcDbEntity
  8
0
100
AcDbLine
 10
2.048738316186396
 20
3.399790391696205
 30
0.0
 11
2.048738316186395
 21
3.385579536955905
 31
0.0
  0
LINE
  5
B4F
330
1F
100
AcDbEntity
  8
0
100
AcDbLine
 10
2.048738316186396
 20
3.482471555709683
 30
0.0
 11
2.048738316186396
 21
3.468260700969382
 31
0.0
  0
LINE
  5
B50
330
1F
100
AcDbEntity
  8
0
100
AcDbLine
 10
2.048738316186398
 20
3.709968787683317
 30
0.0
 11
2.048738316186398
 21
3.724179642423617
 31
0.0
  0
LINE
  5
B51
330
1F
100
AcDbEntity
  8
0
100
AcDbLine
 10
2.048738316186398
 20
3.792649951696795
 30
0.0
 11
2.048738316186396
 21
3.806860806437093
 31
0.0
  0
LINE
  5
B52
330
1F
100
AcDbEntity
  8
0
100
AcDbLine
 10
2.048738316186396
 20
3.588468802700502
 30
0.0
 11
2.048738316186396
 21
3.603971540692498
 31
0.0
  0
ARC
  5
B53
330
1F
100
AcDbEntity
  8
0
100
AcDbCircle
 10
3.100225656005868
 20
6.447636501581339
 30
0.0
 40
3.634193513827655
100
AcDbArc
 50
258.6782645936432
 51
267.592214397275
  0
LINE
  5
B54
330
1F
100
AcDbEntity
  8
0
100
AcDbLine
 10
2.262970837836477
 20
3.624654873526944
 30
0.0
 11
2.262970837836477
 21
3.567635762505039
 31
0.0
  0
LWPOLYLINE
  5
B57
330
1F
100
AcDbEntity
  8
0
100
AcDbPolyline
 90
        3
 70
     0
 43
0.0
 10
2.853269043119883
 20
1.848230317895694
 42
-0.1495902871650896
 10
3.08966944238592
 20
2.631288259239815
 42
0.5829974141146835
 10
2.564407768986025
 20
3.567635762505039
 42
0.5829974141146835
  0
LWPOLYLINE
  5
B58
330
1F
100
AcDbEntity
  8
0
100
AcDbPolyline
 90
        3
 70
     0
 43
0.0
 10
2.910287745694643
 20
1.848446138236243
 42
-0.1498309317497145
 10
3.137746358743158
 20
2.60060520459071
 42
0.5836671355162016
 10
2.5646314708648
 20
3.624654434702819
 42
0.5836671355162016
  0
ARC
  5
B59
330
1F
100
AcDbEntity
  8
0
100
AcDbCircle
 10
3.100225656005843
 20
6.447636501581062
 30
0.0
 40
3.634193513827377
100
AcDbArc
 50
267.5922143972753
 51
270.9975425826867
  0
LINE
  5
B5A
330
1F
100
AcDbEntity
  8
0
100
AcDbLine
 10
2.262970837836477
 20
3.340200115899921
 30
0.0
 11
2.262970837836477
 21
3.851618850183705
 31
0.0
  0
LINE
  5
B5B
330
1F
100
AcDbEntity
  8
0
100
AcDbLine
 10
2.262970837836477
 20
3.851618850183705
 30
0.0
 11
2.237758395216028
 21
3.852240227493076
 31
0.0
  0
LINE
  5
BCC
330
1F
100
AcDbEntity
  8
0
100
AcDbLine
 10
2.03230984620858
 20
3.624654873526944
 30
0.0
 11
1.991923153920588
 21
3.624654873526944
 31
0.0
  0
LINE
  5
BCD
330
1F
100
AcDbEntity
  8
0
100
AcDbLine
 10
2.062585689267422
 20
3.567635762505036
 30
0.0
 11
1.991923153920588
 21
3.567635762505039
 31
0.0
  0
LINE
  5
BCE
330
1F
100
AcDbEntity
  8
0
100
AcDbLine
 10
2.062585689267422
 20
3.624654873526948
 30
0.0
 11
2.03230984620858
 21
3.624654873526944
 31
0.0
  0
LINE
  5
BCF
330
1F
100
AcDbEntity
  8
0
100
AcDbLine
 10
2.237758395216027
 20
3.340200115899921
 30
0.0
 11
2.262970837836477
 21
3.340200115899921
 31
0.0
  0
LINE
  5
BD0
330
1F
100
AcDbEntity
  8
0
100
AcDbLine
 10
1.991923153920588
 20
3.624654873526944
 30
0.0
 11
1.991923153920588
 21
3.567635762505039
 31
0.0
  0
LINE
  5
BD2
330
1F
100
AcDbEntity
  8
0
100
AcDbLine
 10
2.882346972251719
 20
1.653236926951885
 30
0.0
 11
2.95644921202928
 21
1.653236926951885
 31
0.0
  0
LINE
  5
BD4
330
1F
100
AcDbEntity
  8
0
100
AcDbLine
 10
2.882346972251719
 20
1.653236926951885
 30
0.0
 11
2.808244732474158
 21
1.653236926951885
 31
0.0
  0
LINE
  5
BD6
330
1F
100
AcDbEntity
  8
0
100
AcDbLine
 10
2.910287745694643
 20
1.848446138236243
 30
0.0
 11
2.910287745694643
 21
1.828375216967223
 31
0.0
  0
LINE
  5
BD7
330
1F
100
AcDbEntity
  8
0
100
AcDbLine
 10
2.853269043119884
 20
1.848230317895694
 30
0.0
 11
2.853269043119884
 21
1.82718430434675
 31
0.0
  0
LINE
  5
BD8
330
1F
100
AcDbEntity
  8
0
100
AcDbLine
 10
2.808244732474158
 20
1.653236926951885
 30
0.0
 11
2.808244732474158
 21
1.635095224909276
 31
0.0
  0
LINE
  5
BD9
330
1F
100
AcDbEntity
  8
0
100
AcDbLine
 10
2.956449212029281
 20
1.653236926951885
 30
0.0
 11
2.956449212029281
 21
1.635095224909276
 31
0.0
  0
ARC
  5
BDC
330
1F
100
AcDbEntity
  8
0
100
AcDbCircle
 10
1.433531287123117
 20
-3.389051727168245
 30
0.0
 40
6.345225630367183
100
AcDbArc
 50
81.84479770149007
 51
83.95487975357963
  0
ARC
  5
BDD
330
1F
100
AcDbEntity
  8
0
100
AcDbCircle
 10
3.100225656005843
 20
6.447636501581062
 30
0.0
 40
3.634193513827377
100
AcDbArc
 50
271.9226015771776
 51
277.975041422681
  0
ARC
  5
BE0
330
1F
100
AcDbEntity
  8
0
100
AcDbCircle
 10
3.108164680334744
 20
3.835031430582835
 30
0.0
 40
1.718627650088305
100
AcDbArc
 50
249.8643354762299
 51
262.4104087077087
  0
ARC
  5
C1D
330
1F
100
AcDbEntity
  8
0
100
AcDbCircle
 10
2.882394905921677
 20
1.752768494539916
 30
0.0
 40
0.0586214293467795
100
AcDbArc
 50
136.7570575545833
 51
223.2429424454161
  0
ARC
  5
C1E
330
1F
100
AcDbEntity
  8
0
100
AcDbCircle
 10
2.882299038581762
 20
1.752768494539916
 30
0.0
 40
0.0586214293467795
100
AcDbArc
 50
315.8884817094991
 51
44.11151829050071
  0
ARC
  5
C1F
330
1F
100
AcDbEntity
  8
0
100
AcDbCircle
 10
2.803269043119883
 20
1.82718430434675
 30
0.0
 40
0.05
100
AcDbArc
 50
316.7570575545832
 51
0.0
  0
ARC
  5
C20
330
1F
100
AcDbEntity
  8
0
100
AcDbCircle
 10
2.960287745694643
 20
1.828375216967223
 30
0.0
 40
0.05
100
AcDbArc
 50
180.0
 51
224.1115182905006
  0
LINE
  5
C21
330
1F
100
AcDbEntity
  8
0
100
AcDbLine
 10
2.853269043119883
 20
1.678352684733083
 30
0.0
 11
2.853269043119884
 21
1.653236926951885
 31
0.0
  0
LINE
  5
C22
330
1F
100
AcDbEntity
  8
0
100
AcDbLine
 10
2.910287745694643
 20
1.677161772112609
 30
0.0
 11
2.910287745694642
 21
1.653236926951885
 31
0.0
  0
ARC
  5
C23
330
1F
100
AcDbEntity
  8
0
100
AcDbCircle
 10
2.960287745694643
 20
1.677161772112609
 30
0.0
 40
0.05
100
AcDbArc
 50
135.8884817094992
 51
180.0
  0
ARC
  5
C24
330
1F
100
AcDbEntity
  8
0
100
AcDbCircle
 10
2.803269043119883
 20
1.678352684733083
 30
0.0
 40
0.05
100
AcDbArc
 50
0.0
 51
43.24294244541622
  0
LINE
  5
C66
330
1F
100
AcDbEntity
  8
0
100
AcDbLine
 10
0.58745995783935
 20
2.892233326888151
 30
0.0
 11
0.77495995783935
 21
2.892233326888151
 31
0.0
  0
LINE
  5
C67
330
1F
100
AcDbEntity
  8
0
100
AcDbLine
 10
0.96245995783935
 20
2.892233326888151
 30
0.0
 11
1.14995995783935
 21
2.892233326888151
 31
0.0
  0
LINE
  5
C68
330
1F
100
AcDbEntity
  8
0
100
AcDbLine
 10
1.33745995783935
 20
2.892233326888151
 30
0.0
 11
1.52495995783935
 21
2.892233326888151
 31
0.0
  0
LINE
  5
C69
330
1F
100
AcDbEntity
  8
0
100
AcDbLine
 10
1.71245995783935
 20
2.892233326888151
 30
0.0
 11
1.89995995783935
 21
2.892233326888151
 31
0.0
  0
LINE
  5
C6A
330
1F
100
AcDbEntity
  8
0
100
AcDbLine
 10
2.08745995783935
 20
2.892233326888151
 30
0.0
 11
2.27495995783935
 21
2.892233326888151
 31
0.0
  0
LINE
  5
C6B
330
1F
100
AcDbEntity
  8
0
100
AcDbLine
 10
3.96245995783935
 20
2.892233326888151
 30
0.0
 11
4.14995995783935
 21
2.892233326888151
 31
0.0
  0
LINE
  5
C6C
330
1F
100
AcDbEntity
  8
0
100
AcDbLine
 10
4.33745995783935
 20
2.892233326888151
 30
0.0
 11
4.52495995783935
 21
2.892233326888151
 31
0.0
  0
LINE
  5
C6D
330
1F
100
AcDbEntity
  8
0
100
AcDbLine
 10
4.71245995783935
 20
2.892233326888151
 30
0.0
 11
4.89995995783935
 21
2.892233326888151
 31
0.0
  0
LINE
  5
C6E
330
1F
100
AcDbEntity
  8
0
100
AcDbLine
 10
5.08745995783935
 20
2.892233326888151
 30
0.0
 11
5.098829090407234
 21
2.892233326888151
 31
0.0
  0
LINE
  5
C6F
330
1F
100
AcDbEntity
  8
0
100
AcDbLine
 10
0.5120317246266008
 20
2.704733326888151
 30
0.0
 11
0.58745995783935
 21
2.704733326888151
 31
0.0
  0
LINE
  5
C70
330
1F
100
AcDbEntity
  8
0
100
AcDbLine
 10
0.77495995783935
 20
2.704733326888151
 30
0.0
 11
0.96245995783935
 21
2.704733326888151
 31
0.0
  0
LINE
  5
C71
330
1F
100
AcDbEntity
  8
0
100
AcDbLine
 10
1.14995995783935
 20
2.704733326888151
 30
0.0
 11
1.33745995783935
 21
2.704733326888151
 31
0.0
  0
LINE
  5
C72
330
1F
100
AcDbEntity
  8
0
100
AcDbLine
 10
1.52495995783935
 20
2.704733326888151
 30
0.0
 11
1.71245995783935
 21
2.704733326888151
 31
0.0
  0
LINE
  5
C73
330
1F
100
AcDbEntity
  8
0
100
AcDbLine
 10
1.89995995783935
 20
2.704733326888151
 30
0.0
 11
2.08745995783935
 21
2.704733326888151
 31
0.0
  0
LINE
  5
C74
330
1F
100
AcDbEntity
  8
0
100
AcDbLine
 10
2.27495995783935
 20
2.704733326888151
 30
0.0
 11
2.333633373183311
 21
2.704733326888151
 31
0.0
  0
LINE
  5
C75
330
1F
100
AcDbEntity
  8
0
100
AcDbLine
 10
3.189347854148127
 20
2.704733326888151
 30
0.0
 11
3.21245995783935
 21
2.704733326888151
 31
0.0
  0
LINE
  5
C76
330
1F
100
AcDbEntity
  8
0
100
AcDbLine
 10
3.39995995783935
 20
2.704733326888151
 30
0.0
 11
3.58745995783935
 21
2.704733326888151
 31
0.0
  0
LINE
  5
C77
330
1F
100
AcDbEntity
  8
0
100
AcDbLine
 10
3.77495995783935
 20
2.704733326888151
 30
0.0
 11
3.96245995783935
 21
2.704733326888151
 31
0.0
  0
LINE
  5
C78
330
1F
100
AcDbEntity
  8
0
100
AcDbLine
 10
4.14995995783935
 20
2.704733326888151
 30
0.0
 11
4.33745995783935
 21
2.704733326888151
 31
0.0
  0
LINE
  5
C79
330
1F
100
AcDbEntity
  8
0
100
AcDbLine
 10
4.52495995783935
 20
2.704733326888151
 30
0.0
 11
4.71245995783935
 21
2.704733326888151
 31
0.0
  0
LINE
  5
C7A
330
1F
100
AcDbEntity
  8
0
100
AcDbLine
 10
2.376597189334761
 20
2.704733326888151
 30
0.0
 11
2.46245995783935
 21
2.704733326888151
 31
0.0
  0
LINE
  5
C7B
330
1F
100
AcDbEntity
  8
0
100
AcDbLine
 10
2.64995995783935
 20
2.704733326888151
 30
0.0
 11
2.83745995783935
 21
2.704733326888151
 31
0.0
  0
LINE
  5
C7C
330
1F
100
AcDbEntity
  8
0
100
AcDbLine
 10
3.02495995783935
 20
2.704733326888151
 30
0.0
 11
3.127658576007661
 21
2.704733326888151
 31
0.0
  0
LINE
  5
C7D
330
1F
100
AcDbEntity
  8
0
100
AcDbLine
 10
0.6486698056591305
 20
2.517233326888151
 30
0.0
 11
0.77495995783935
 21
2.517233326888151
 31
0.0
  0
LINE
  5
C7E
330
1F
100
AcDbEntity
  8
0
100
AcDbLine
 10
0.96245995783935
 20
2.517233326888151
 30
0.0
 11
1.14995995783935
 21
2.517233326888151
 31
0.0
  0
LINE
  5
C7F
330
1F
100
AcDbEntity
  8
0
100
AcDbLine
 10
1.33745995783935
 20
2.517233326888151
 30
0.0
 11
1.52495995783935
 21
2.517233326888151
 31
0.0
  0
LINE
  5
C80
330
1F
100
AcDbEntity
  8
0
100
AcDbLine
 10
1.71245995783935
 20
2.517233326888151
 30
0.0
 11
1.89995995783935
 21
2.517233326888151
 31
0.0
  0
LINE
  5
C81
330
1F
100
AcDbEntity
  8
0
100
AcDbLine
 10
2.08745995783935
 20
2.517233326888151
 30
0.0
 11
2.27495995783935
 21
2.517233326888151
 31
0.0
  0
LINE
  5
C82
330
1F
100
AcDbEntity
  8
0
100
AcDbLine
 10
3.21245995783935
 20
2.517233326888151
 30
0.0
 11
3.39995995783935
 21
2.517233326888151
 31
0.0
  0
LINE
  5
C83
330
1F
100
AcDbEntity
  8
0
100
AcDbLine
 10
3.58745995783935
 20
2.517233326888151
 30
0.0
 11
3.77495995783935
 21
2.517233326888151
 31
0.0
  0
LINE
  5
C84
330
1F
100
AcDbEntity
  8
0
100
AcDbLine
 10
3.96245995783935
 20
2.517233326888151
 30
0.0
 11
4.14995995783935
 21
2.517233326888151
 31
0.0
  0
LINE
  5
C85
330
1F
100
AcDbEntity
  8
0
100
AcDbLine
 10
4.33745995783935
 20
2.517233326888151
 30
0.0
 11
4.52495995783935
 21
2.517233326888151
 31
0.0
  0
LINE
  5
C86
330
1F
100
AcDbEntity
  8
0
100
AcDbLine
 10
2.46245995783935
 20
2.517233326888151
 30
0.0
 11
2.64995995783935
 21
2.517233326888151
 31
0.0
  0
LINE
  5
C87
330
1F
100
AcDbEntity
  8
0
100
AcDbLine
 10
2.83745995783935
 20
2.517233326888151
 30
0.0
 11
3.020911994719281
 21
2.517233326888151
 31
0.0
  0
LINE
  5
C88
330
1F
100
AcDbEntity
  8
0
100
AcDbLine
 10
2.27495995783935
 20
2.329733326888151
 30
0.0
 11
2.46245995783935
 21
2.329733326888151
 31
0.0
  0
LINE
  5
C89
330
1F
100
AcDbEntity
  8
0
100
AcDbLine
 10
2.64995995783935
 20
2.329733326888151
 30
0.0
 11
2.83745995783935
 21
2.329733326888151
 31
0.0
  0
LINE
  5
C8A
330
1F
100
AcDbEntity
  8
0
100
AcDbLine
 10
3.02495995783935
 20
2.329733326888151
 30
0.0
 11
3.21245995783935
 21
2.329733326888151
 31
0.0
  0
LINE
  5
C8B
330
1F
100
AcDbEntity
  8
0
100
AcDbLine
 10
3.39995995783935
 20
2.329733326888151
 30
0.0
 11
3.58745995783935
 21
2.329733326888151
 31
0.0
  0
LINE
  5
C8C
330
1F
100
AcDbEntity
  8
0
100
AcDbLine
 10
3.77495995783935
 20
2.329733326888151
 30
0.0
 11
3.96245995783935
 21
2.329733326888151
 31
0.0
  0
LINE
  5
C8D
330
1F
100
AcDbEntity
  8
0
100
AcDbLine
 10
2.83745995783935
 20
2.142233326888151
 30
0.0
 11
2.883405063422782
 21
2.142233326888151
 31
0.0
  0
LINE
  5
C8E
330
1F
100
AcDbEntity
  8
0
100
AcDbLine
 10
2.941736536682548
 20
2.142233326888151
 30
0.0
 11
3.02495995783935
 21
2.142233326888151
 31
0.0
  0
LINE
  5
C8F
330
1F
100
AcDbEntity
  8
0
100
AcDbLine
 10
3.21245995783935
 20
2.142233326888151
 30
0.0
 11
3.39995995783935
 21
2.142233326888151
 31
0.0
  0
LINE
  5
CBA
330
1F
100
AcDbEntity
  8
0
100
AcDbLine
 10
4.104208114893248
 20
2.962545826888151
 30
0.0
 11
4.14995995783935
 21
2.962545826888151
 31
0.0
  0
LINE
  5
CBB
330
1F
100
AcDbEntity
  8
0
100
AcDbLine
 10
4.33745995783935
 20
2.962545826888151
 30
0.0
 11
4.52495995783935
 21
2.962545826888151
 31
0.0
  0
LINE
  5
CBC
330
1F
100
AcDbEntity
  8
0
100
AcDbLine
 10
4.71245995783935
 20
2.962545826888151
 30
0.0
 11
4.89995995783935
 21
2.962545826888151
 31
0.0
  0
LINE
  5
CBD
330
1F
100
AcDbEntity
  8
0
100
AcDbLine
 10
0.4835127866177942
 20
2.775045826888151
 30
0.0
 11
0.58745995783935
 21
2.775045826888151
 31
0.0
  0
LINE
  5
CBE
330
1F
100
AcDbEntity
  8
0
100
AcDbLine
 10
0.77495995783935
 20
2.775045826888151
 30
0.0
 11
0.96245995783935
 21
2.775045826888151
 31
0.0
  0
LINE
  5
CBF
330
1F
100
AcDbEntity
  8
0
100
AcDbLine
 10
1.14995995783935
 20
2.775045826888151
 30
0.0
 11
1.33745995783935
 21
2.775045826888151
 31
0.0
  0
LINE
  5
CC0
330
1F
100
AcDbEntity
  8
0
100
AcDbLine
 10
1.52495995783935
 20
2.775045826888151
 30
0.0
 11
1.71245995783935
 21
2.775045826888151
 31
0.0
  0
LINE
  5
CC1
330
1F
100
AcDbEntity
  8
0
100
AcDbLine
 10
1.89995995783935
 20
2.775045826888151
 30
0.0
 11
2.08745995783935
 21
2.775045826888151
 31
0.0
  0
LINE
  5
CC2
330
1F
100
AcDbEntity
  8
0
100
AcDbLine
 10
2.27495995783935
 20
2.775045826888151
 30
0.0
 11
2.333633373183311
 21
2.775045826888151
 31
0.0
  0
LINE
  5
CC3
330
1F
100
AcDbEntity
  8
0
100
AcDbLine
 10
3.39995995783935
 20
2.775045826888151
 30
0.0
 11
3.58745995783935
 21
2.775045826888151
 31
0.0
  0
LINE
  5
CC4
330
1F
100
AcDbEntity
  8
0
100
AcDbLine
 10
3.77495995783935
 20
2.775045826888151
 30
0.0
 11
3.96245995783935
 21
2.775045826888151
 31
0.0
  0
LINE
  5
CC5
330
1F
100
AcDbEntity
  8
0
100
AcDbLine
 10
4.14995995783935
 20
2.775045826888151
 30
0.0
 11
4.33745995783935
 21
2.775045826888151
 31
0.0
  0
LINE
  5
CC6
330
1F
100
AcDbEntity
  8
0
100
AcDbLine
 10
4.52495995783935
 20
2.775045826888151
 30
0.0
 11
4.71245995783935
 21
2.775045826888151
 31
0.0
  0
LINE
  5
CC7
330
1F
100
AcDbEntity
  8
0
100
AcDbLine
 10
4.89995995783935
 20
2.775045826888151
 30
0.0
 11
4.98068241707961
 21
2.775045826888151
 31
0.0
  0
LINE
  5
CC8
330
1F
100
AcDbEntity
  8
0
100
AcDbLine
 10
2.376597189334761
 20
2.775045826888151
 30
0.0
 11
2.46245995783935
 21
2.775045826888151
 31
0.0
  0
LINE
  5
CC9
330
1F
100
AcDbEntity
  8
0
100
AcDbLine
 10
2.64995995783935
 20
2.775045826888151
 30
0.0
 11
2.83745995783935
 21
2.775045826888151
 31
0.0
  0
LINE
  5
CCA
330
1F
100
AcDbEntity
  8
0
100
AcDbLine
 10
3.02495995783935
 20
2.775045826888151
 30
0.0
 11
3.153290955087992
 21
2.775045826888151
 31
0.0
  0
LINE
  5
CCB
330
1F
100
AcDbEntity
  8
0
100
AcDbLine
 10
0.58745995783935
 20
2.587545826888151
 30
0.0
 11
0.77495995783935
 21
2.587545826888151
 31
0.0
  0
LINE
  5
CCC
330
1F
100
AcDbEntity
  8
0
100
AcDbLine
 10
0.96245995783935
 20
2.587545826888151
 30
0.0
 11
1.14995995783935
 21
2.587545826888151
 31
0.0
  0
LINE
  5
CCD
330
1F
100
AcDbEntity
  8
0
100
AcDbLine
 10
1.33745995783935
 20
2.587545826888151
 30
0.0
 11
1.52495995783935
 21
2.587545826888151
 31
0.0
  0
LINE
  5
CCE
330
1F
100
AcDbEntity
  8
0
100
AcDbLine
 10
1.71245995783935
 20
2.587545826888151
 30
0.0
 11
1.89995995783935
 21
2.587545826888151
 31
0.0
  0
LINE
  5
CCF
330
1F
100
AcDbEntity
  8
0
100
AcDbLine
 10
2.08745995783935
 20
2.587545826888151
 30
0.0
 11
2.27495995783935
 21
2.587545826888151
 31
0.0
  0
LINE
  5
CD0
330
1F
100
AcDbEntity
  8
0
100
AcDbLine
 10
3.21245995783935
 20
2.587545826888151
 30
0.0
 11
3.39995995783935
 21
2.587545826888151
 31
0.0
  0
LINE
  5
CD1
330
1F
100
AcDbEntity
  8
0
100
AcDbLine
 10
3.58745995783935
 20
2.587545826888151
 30
0.0
 11
3.77495995783935
 21
2.587545826888151
 31
0.0
  0
LINE
  5
CD2
330
1F
100
AcDbEntity
  8
0
100
AcDbLine
 10
3.96245995783935
 20
2.587545826888151
 30
0.0
 11
4.14995995783935
 21
2.587545826888151
 31
0.0
  0
LINE
  5
CD3
330
1F
100
AcDbEntity
  8
0
100
AcDbLine
 10
4.33745995783935
 20
2.587545826888151
 30
0.0
 11
4.52495995783935
 21
2.587545826888151
 31
0.0
  0
LINE
  5
CD4
330
1F
100
AcDbEntity
  8
0
100
AcDbLine
 10
4.71245995783935
 20
2.587545826888151
 30
0.0
 11
4.73173282054418
 21
2.587545826888151
 31
0.0
  0
LINE
  5
CD5
330
1F
100
AcDbEntity
  8
0
100
AcDbLine
 10
2.46245995783935
 20
2.587545826888151
 30
0.0
 11
2.64995995783935
 21
2.587545826888151
 31
0.0
  0
LINE
  5
CD6
330
1F
100
AcDbEntity
  8
0
100
AcDbLine
 10
2.83745995783935
 20
2.587545826888151
 30
0.0
 11
3.02495995783935
 21
2.587545826888151
 31
0.0
  0
LINE
  5
CD7
330
1F
100
AcDbEntity
  8
0
100
AcDbLine
 10
0.8240149160504409
 20
2.400045826888151
 30
0.0
 11
0.96245995783935
 21
2.400045826888151
 31
0.0
  0
LINE
  5
CD8
330
1F
100
AcDbEntity
  8
0
100
AcDbLine
 10
1.14995995783935
 20
2.400045826888151
 30
0.0
 11
1.33745995783935
 21
2.400045826888151
 31
0.0
  0
LINE
  5
CD9
330
1F
100
AcDbEntity
  8
0
100
AcDbLine
 10
1.52495995783935
 20
2.400045826888151
 30
0.0
 11
1.71245995783935
 21
2.400045826888151
 31
0.0
  0
LINE
  5
CDA
330
1F
100
AcDbEntity
  8
0
100
AcDbLine
 10
1.89995995783935
 20
2.400045826888151
 30
0.0
 11
2.08745995783935
 21
2.400045826888151
 31
0.0
  0
LINE
  5
CDB
330
1F
100
AcDbEntity
  8
0
100
AcDbLine
 10
2.27495995783935
 20
2.400045826888151
 30
0.0
 11
2.46245995783935
 21
2.400045826888151
 31
0.0
  0
LINE
  5
CDC
330
1F
100
AcDbEntity
  8
0
100
AcDbLine
 10
2.64995995783935
 20
2.400045826888151
 30
0.0
 11
2.83745995783935
 21
2.400045826888151
 31
0.0
  0
LINE
  5
CDD
330
1F
100
AcDbEntity
  8
0
100
AcDbLine
 10
3.026740480089335
 20
2.400045826888151
 30
0.0
 11
3.21245995783935
 21
2.400045826888151
 31
0.0
  0
LINE
  5
CDE
330
1F
100
AcDbEntity
  8
0
100
AcDbLine
 10
3.39995995783935
 20
2.400045826888151
 30
0.0
 11
3.58745995783935
 21
2.400045826888151
 31
0.0
  0
LINE
  5
CDF
330
1F
100
AcDbEntity
  8
0
100
AcDbLine
 10
3.77495995783935
 20
2.400045826888151
 30
0.0
 11
3.96245995783935
 21
2.400045826888151
 31
0.0
  0
LINE
  5
CE0
330
1F
100
AcDbEntity
  8
0
100
AcDbLine
 10
4.14995995783935
 20
2.400045826888151
 30
0.0
 11
4.321358329437028
 21
2.400045826888151
 31
0.0
  0
LINE
  5
CE1
330
1F
100
AcDbEntity
  8
0
100
AcDbLine
 10
2.541400650555556
 20
2.212545826888151
 30
0.0
 11
2.64995995783935
 21
2.212545826888151
 31
0.0
  0
LINE
  5
CE2
330
1F
100
AcDbEntity
  8
0
100
AcDbLine
 10
2.83745995783935
 20
2.212545826888151
 30
0.0
 11
2.900160644977545
 21
2.212545826888151
 31
0.0
  0
LINE
  5
CE3
330
1F
100
AcDbEntity
  8
0
100
AcDbLine
 10
2.959248611053631
 20
2.212545826888151
 30
0.0
 11
3.02495995783935
 21
2.212545826888151
 31
0.0
  0
LINE
  5
CE4
330
1F
100
AcDbEntity
  8
0
100
AcDbLine
 10
3.21245995783935
 20
2.212545826888151
 30
0.0
 11
3.39995995783935
 21
2.212545826888151
 31
0.0
  0
LINE
  5
CE5
330
1F
100
AcDbEntity
  8
0
100
AcDbLine
 10
3.58745995783935
 20
2.212545826888151
 30
0.0
 11
3.674928710113933
 21
2.212545826888151
 31
0.0
  0
LINE
  5
D0E
330
1F
100
AcDbEntity
  8
0
100
AcDbLine
 10
4.400187542810672
 20
3.032858326888151
 30
0.0
 11
4.52495995783935
 21
3.032858326888151
 31
0.0
  0
LINE
  5
D0F
330
1F
100
AcDbEntity
  8
0
100
AcDbLine
 10
4.71245995783935
 20
3.032858326888151
 30
0.0
 11
4.769875591314841
 21
3.032858326888151
 31
0.0
  0
LINE
  5
D10
330
1F
100
AcDbEntity
  8
0
100
AcDbLine
 10
0.4642301898291166
 20
2.845358326888151
 30
0.0
 11
0.58745995783935
 21
2.845358326888151
 31
0.0
  0
LINE
  5
D11
330
1F
100
AcDbEntity
  8
0
100
AcDbLine
 10
0.77495995783935
 20
2.845358326888151
 30
0.0
 11
0.96245995783935
 21
2.845358326888151
 31
0.0
  0
LINE
  5
D12
330
1F
100
AcDbEntity
  8
0
100
AcDbLine
 10
1.14995995783935
 20
2.845358326888151
 30
0.0
 11
1.33745995783935
 21
2.845358326888151
 31
0.0
  0
LINE
  5
D13
330
1F
100
AcDbEntity
  8
0
100
AcDbLine
 10
1.52495995783935
 20
2.845358326888151
 30
0.0
 11
1.71245995783935
 21
2.845358326888151
 31
0.0
  0
LINE
  5
D14
330
1F
100
AcDbEntity
  8
0
100
AcDbLine
 10
1.89995995783935
 20
2.845358326888151
 30
0.0
 11
2.08745995783935
 21
2.845358326888151
 31
0.0
  0
LINE
  5
D15
330
1F
100
AcDbEntity
  8
0
100
AcDbLine
 10
2.27495995783935
 20
2.845358326888151
 30
0.0
 11
2.333633373183311
 21
2.845358326888151
 31
0.0
  0
LINE
  5
D16
330
1F
100
AcDbEntity
  8
0
100
AcDbLine
 10
3.580802859039956
 20
2.845358326888151
 30
0.0
 11
3.58745995783935
 21
2.845358326888151
 31
0.0
  0
LINE
  5
D17
330
1F
100
AcDbEntity
  8
0
100
AcDbLine
 10
3.77495995783935
 20
2.845358326888151
 30
0.0
 11
3.96245995783935
 21
2.845358326888151
 31
0.0
  0
LINE
  5
D18
330
1F
100
AcDbEntity
  8
0
100
AcDbLine
 10
4.14995995783935
 20
2.845358326888151
 30
0.0
 11
4.33745995783935
 21
2.845358326888151
 31
0.0
  0
LINE
  5
D19
330
1F
100
AcDbEntity
  8
0
100
AcDbLine
 10
4.52495995783935
 20
2.845358326888151
 30
0.0
 11
4.71245995783935
 21
2.845358326888151
 31
0.0
  0
LINE
  5
D1A
330
1F
100
AcDbEntity
  8
0
100
AcDbLine
 10
4.89995995783935
 20
2.845358326888151
 30
0.0
 11
5.054223411372402
 21
2.845358326888151
 31
0.0
  0
LINE
  5
D1B
330
1F
100
AcDbEntity
  8
0
100
AcDbLine
 10
2.376597189334761
 20
2.845358326888151
 30
0.0
 11
2.46245995783935
 21
2.845358326888151
 31
0.0
  0
LINE
  5
D1C
330
1F
100
AcDbEntity
  8
0
100
AcDbLine
 10
0.58745995783935
 20
2.657858326888151
 30
0.0
 11
0.77495995783935
 21
2.657858326888151
 31
0.0
  0
LINE
  5
D1D
330
1F
100
AcDbEntity
  8
0
100
AcDbLine
 10
0.96245995783935
 20
2.657858326888151
 30
0.0
 11
1.14995995783935
 21
2.657858326888151
 31
0.0
  0
LINE
  5
D1E
330
1F
100
AcDbEntity
  8
0
100
AcDbLine
 10
1.33745995783935
 20
2.657858326888151
 30
0.0
 11
1.52495995783935
 21
2.657858326888151
 31
0.0
  0
LINE
  5
D1F
330
1F
100
AcDbEntity
  8
0
100
AcDbLine
 10
1.71245995783935
 20
2.657858326888151
 30
0.0
 11
1.89995995783935
 21
2.657858326888151
 31
0.0
  0
LINE
  5
D20
330
1F
100
AcDbEntity
  8
0
100
AcDbLine
 10
2.08745995783935
 20
2.657858326888151
 30
0.0
 11
2.27495995783935
 21
2.657858326888151
 31
0.0
  0
LINE
  5
D21
330
1F
100
AcDbEntity
  8
0
100
AcDbLine
 10
3.21245995783935
 20
2.657858326888151
 30
0.0
 11
3.39995995783935
 21
2.657858326888151
 31
0.0
  0
LINE
  5
D22
330
1F
100
AcDbEntity
  8
0
100
AcDbLine
 10
3.58745995783935
 20
2.657858326888151
 30
0.0
 11
3.77495995783935
 21
2.657858326888151
 31
0.0
  0
LINE
  5
D23
330
1F
100
AcDbEntity
  8
0
100
AcDbLine
 10
3.96245995783935
 20
2.657858326888151
 30
0.0
 11
4.14995995783935
 21
2.657858326888151
 31
0.0
  0
LINE
  5
D24
330
1F
100
AcDbEntity
  8
0
100
AcDbLine
 10
4.33745995783935
 20
2.657858326888151
 30
0.0
 11
4.52495995783935
 21
2.657858326888151
 31
0.0
  0
LINE
  5
D25
330
1F
100
AcDbEntity
  8
0
100
AcDbLine
 10
4.71245995783935
 20
2.657858326888151
 30
0.0
 11
4.836137274244996
 21
2.657858326888151
 31
0.0
  0
LINE
  5
D26
330
1F
100
AcDbEntity
  8
0
100
AcDbLine
 10
2.46245995783935
 20
2.657858326888151
 30
0.0
 11
2.64995995783935
 21
2.657858326888151
 31
0.0
  0
LINE
  5
D27
330
1F
100
AcDbEntity
  8
0
100
AcDbLine
 10
2.83745995783935
 20
2.657858326888151
 30
0.0
 11
3.02495995783935
 21
2.657858326888151
 31
0.0
  0
LINE
  5
D28
330
1F
100
AcDbEntity
  8
0
100
AcDbLine
 10
0.77495995783935
 20
2.470358326888151
 30
0.0
 11
0.96245995783935
 21
2.470358326888151
 31
0.0
  0
LINE
  5
D29
330
1F
100
AcDbEntity
  8
0
100
AcDbLine
 10
1.14995995783935
 20
2.470358326888151
 30
0.0
 11
1.33745995783935
 21
2.470358326888151
 31
0.0
  0
LINE
  5
D2A
330
1F
100
AcDbEntity
  8
0
100
AcDbLine
 10
1.52495995783935
 20
2.470358326888151
 30
0.0
 11
1.71245995783935
 21
2.470358326888151
 31
0.0
  0
LINE
  5
D2B
330
1F
100
AcDbEntity
  8
0
100
AcDbLine
 10
1.89995995783935
 20
2.470358326888151
 30
0.0
 11
2.08745995783935
 21
2.470358326888151
 31
0.0
  0
LINE
  5
D2C
330
1F
100
AcDbEntity
  8
0
100
AcDbLine
 10
2.27495995783935
 20
2.470358326888151
 30
0.0
 11
2.46245995783935
 21
2.470358326888151
 31
0.0
  0
LINE
  5
D2D
330
1F
100
AcDbEntity
  8
0
100
AcDbLine
 10
2.64995995783935
 20
2.470358326888151
 30
0.0
 11
2.83745995783935
 21
2.470358326888151
 31
0.0
  0
LINE
  5
D2E
330
1F
100
AcDbEntity
  8
0
100
AcDbLine
 10
3.06062081436333
 20
2.470358326888151
 30
0.0
 11
3.21245995783935
 21
2.470358326888151
 31
0.0
  0
LINE
  5
D2F
330
1F
100
AcDbEntity
  8
0
100
AcDbLine
 10
3.39995995783935
 20
2.470358326888151
 30
0.0
 11
3.58745995783935
 21
2.470358326888151
 31
0.0
  0
LINE
  5
D30
330
1F
100
AcDbEntity
  8
0
100
AcDbLine
 10
3.77495995783935
 20
2.470358326888151
 30
0.0
 11
3.96245995783935
 21
2.470358326888151
 31
0.0
  0
LINE
  5
D31
330
1F
100
AcDbEntity
  8
0
100
AcDbLine
 10
4.14995995783935
 20
2.470358326888151
 30
0.0
 11
4.33745995783935
 21
2.470358326888151
 31
0.0
  0
LINE
  5
D32
330
1F
100
AcDbEntity
  8
0
100
AcDbLine
 10
2.46245995783935
 20
2.282858326888151
 30
0.0
 11
2.64995995783935
 21
2.282858326888151
 31
0.0
  0
LINE
  5
D33
330
1F
100
AcDbEntity
  8
0
100
AcDbLine
 10
2.83745995783935
 20
2.282858326888151
 30
0.0
 11
2.920838660293537
 21
2.282858326888151
 31
0.0
  0
LINE
  5
D34
330
1F
100
AcDbEntity
  8
0
100
AcDbLine
 10
2.980888351285615
 20
2.282858326888151
 30
0.0
 11
3.02495995783935
 21
2.282858326888151
 31
0.0
  0
LINE
  5
D35
330
1F
100
AcDbEntity
  8
0
100
AcDbLine
 10
3.21245995783935
 20
2.282858326888151
 30
0.0
 11
3.39995995783935
 21
2.282858326888151
 31
0.0
  0
LINE
  5
D36
330
1F
100
AcDbEntity
  8
0
100
AcDbLine
 10
3.58745995783935
 20
2.282858326888151
 30
0.0
 11
3.77495995783935
 21
2.282858326888151
 31
0.0
  0
LINE
  5
D37
330
1F
100
AcDbEntity
  8
0
100
AcDbLine
 10
0.61089745783935
 20
2.681295826888151
 30
0.0
 11
0.61089745783935
 21
2.868795826888151
 31
0.0
  0
LINE
  5
D3A
330
1F
100
AcDbEntity
  8
0
100
AcDbLine
 10
0.79839745783935
 20
2.493795826888151
 30
0.0
 11
0.79839745783935
 21
2.681295826888151
 31
0.0
  0
LINE
  5
D3B
330
1F
100
AcDbEntity
  8
0
100
AcDbLine
 10
0.79839745783935
 20
2.868795826888151
 30
0.0
 11
0.79839745783935
 21
2.924306596194048
 31
0.0
  0
LINE
  5
D3E
330
1F
100
AcDbEntity
  8
0
100
AcDbLine
 10
0.98589745783935
 20
2.352119476859237
 30
0.0
 11
0.98589745783935
 21
2.493795826888151
 31
0.0
  0
LINE
  5
D3F
330
1F
100
AcDbEntity
  8
0
100
AcDbLine
 10
0.98589745783935
 20
2.681295826888151
 30
0.0
 11
0.98589745783935
 21
2.868795826888151
 31
0.0
  0
LINE
  5
D42
330
1F
100
AcDbEntity
  8
0
100
AcDbLine
 10
1.17339745783935
 20
2.49379582688815
 30
0.0
 11
1.17339745783935
 21
2.68129582688815
 31
0.0
  0
LINE
  5
D43
330
1F
100
AcDbEntity
  8
0
100
AcDbLine
 10
1.17339745783935
 20
2.86879582688815
 30
0.0
 11
1.17339745783935
 21
2.950839335865154
 31
0.0
  0
LINE
  5
D46
330
1F
100
AcDbEntity
  8
0
100
AcDbLine
 10
1.36089745783935
 20
2.372938426473458
 30
0.0
 11
1.36089745783935
 21
2.49379582688815
 31
0.0
  0
LINE
  5
D47
330
1F
100
AcDbEntity
  8
0
100
AcDbLine
 10
1.36089745783935
 20
2.68129582688815
 30
0.0
 11
1.36089745783935
 21
2.86879582688815
 31
0.0
  0
LINE
  5
D4A
330
1F
100
AcDbEntity
  8
0
100
AcDbLine
 10
1.54839745783935
 20
2.49379582688815
 30
0.0
 11
1.54839745783935
 21
2.68129582688815
 31
0.0
  0
LINE
  5
D4B
330
1F
100
AcDbEntity
  8
0
100
AcDbLine
 10
1.54839745783935
 20
2.86879582688815
 30
0.0
 11
1.54839745783935
 21
2.955134119975074
 31
0.0
  0
LINE
  5
D4E
330
1F
100
AcDbEntity
  8
0
100
AcDbLine
 10
1.73589745783935
 20
2.378146135398925
 30
0.0
 11
1.73589745783935
 21
2.493795826888151
 31
0.0
  0
LINE
  5
D4F
330
1F
100
AcDbEntity
  8
0
100
AcDbLine
 10
1.73589745783935
 20
2.681295826888151
 30
0.0
 11
1.73589745783935
 21
2.868795826888151
 31
0.0
  0
LINE
  5
D52
330
1F
100
AcDbEntity
  8
0
100
AcDbLine
 10
1.92339745783935
 20
2.49379582688815
 30
0.0
 11
1.92339745783935
 21
2.68129582688815
 31
0.0
  0
LINE
  5
D53
330
1F
100
AcDbEntity
  8
0
100
AcDbLine
 10
1.92339745783935
 20
2.86879582688815
 30
0.0
 11
1.92339745783935
 21
2.937236239329677
 31
0.0
  0
LINE
  5
D56
330
1F
100
AcDbEntity
  8
0
100
AcDbLine
 10
2.11089745783935
 20
2.332120621544048
 30
0.0
 11
2.11089745783935
 21
2.49379582688815
 31
0.0
  0
LINE
  5
D57
330
1F
100
AcDbEntity
  8
0
100
AcDbLine
 10
2.11089745783935
 20
2.68129582688815
 30
0.0
 11
2.11089745783935
 21
2.86879582688815
 31
0.0
  0
LINE
  5
D5A
330
1F
100
AcDbEntity
  8
0
100
AcDbLine
 10
2.29839745783935
 20
2.289184548847696
 30
0.0
 11
2.29839745783935
 21
2.306295826888151
 31
0.0
  0
LINE
  5
D5B
330
1F
100
AcDbEntity
  8
0
100
AcDbLine
 10
2.29839745783935
 20
2.493795826888151
 30
0.0
 11
2.29839745783935
 21
2.681295826888151
 31
0.0
  0
LINE
  5
D5C
330
1F
100
AcDbEntity
  8
0
100
AcDbLine
 10
2.29839745783935
 20
2.868795826888151
 30
0.0
 11
2.29839745783935
 21
2.896956132118862
 31
0.0
  0
LINE
  5
D5F
330
1F
100
AcDbEntity
  8
0
100
AcDbLine
 10
2.48589745783935
 20
2.306295826888151
 30
0.0
 11
2.48589745783935
 21
2.493795826888151
 31
0.0
  0
LINE
  5
D60
330
1F
100
AcDbEntity
  8
0
100
AcDbLine
 10
2.48589745783935
 20
2.681295826888151
 30
0.0
 11
2.48589745783935
 21
2.86574267835256
 31
0.0
  0
LINE
  5
D64
330
1F
100
AcDbEntity
  8
0
100
AcDbLine
 10
2.67339745783935
 20
2.172305216832751
 30
0.0
 11
2.67339745783935
 21
2.306295826888151
 31
0.0
  0
LINE
  5
D65
330
1F
100
AcDbEntity
  8
0
100
AcDbLine
 10
2.67339745783935
 20
2.493795826888151
 30
0.0
 11
2.67339745783935
 21
2.681295826888151
 31
0.0
  0
LINE
  5
D68
330
1F
100
AcDbEntity
  8
0
100
AcDbLine
 10
2.86089745783935
 20
2.306295826888151
 30
0.0
 11
2.86089745783935
 21
2.493795826888151
 31
0.0
  0
LINE
  5
D69
330
1F
100
AcDbEntity
  8
0
100
AcDbLine
 10
2.86089745783935
 20
2.681295826888151
 30
0.0
 11
2.86089745783935
 21
2.821331976378116
 31
0.0
  0
LINE
  5
D6D
330
1F
100
AcDbEntity
  8
0
100
AcDbLine
 10
3.048397457839349
 20
2.118795826888151
 30
0.0
 11
3.048397457839349
 21
2.306295826888151
 31
0.0
  0
LINE
  5
D70
330
1F
100
AcDbEntity
  8
0
100
AcDbLine
 10
3.048397457839349
 20
2.565819875513651
 30
0.0
 11
3.048397457839349
 21
2.681295826888151
 31
0.0
  0
LINE
  5
D71
330
1F
100
AcDbEntity
  8
0
100
AcDbLine
 10
3.235897457839349
 20
2.30629582688815
 30
0.0
 11
3.235897457839349
 21
2.49379582688815
 31
0.0
  0
LINE
  5
D72
330
1F
100
AcDbEntity
  8
0
100
AcDbLine
 10
3.235897457839349
 20
2.68129582688815
 30
0.0
 11
3.235897457839349
 21
2.815976322250922
 31
0.0
  0
LINE
  5
D76
330
1F
100
AcDbEntity
  8
0
100
AcDbLine
 10
3.423397457839349
 20
2.145561307841749
 30
0.0
 11
3.423397457839349
 21
2.306295826888151
 31
0.0
  0
LINE
  5
D77
330
1F
100
AcDbEntity
  8
0
100
AcDbLine
 10
3.423397457839349
 20
2.493795826888151
 30
0.0
 11
3.423397457839349
 21
2.681295826888151
 31
0.0
  0
LINE
  5
D7A
330
1F
100
AcDbEntity
  8
0
100
AcDbLine
 10
3.610897457839349
 20
2.30629582688815
 30
0.0
 11
3.610897457839349
 21
2.49379582688815
 31
0.0
  0
LINE
  5
D7B
330
1F
100
AcDbEntity
  8
0
100
AcDbLine
 10
3.610897457839349
 20
2.68129582688815
 30
0.0
 11
3.610897457839349
 21
2.849585340838913
 31
0.0
  0
LINE
  5
D7F
330
1F
100
AcDbEntity
  8
0
100
AcDbLine
 10
3.798397457839349
 20
2.261100138401906
 30
0.0
 11
3.798397457839349
 21
2.30629582688815
 31
0.0
  0
LINE
  5
D80
330
1F
100
AcDbEntity
  8
0
100
AcDbLine
 10
3.798397457839349
 20
2.49379582688815
 30
0.0
 11
3.798397457839349
 21
2.68129582688815
 31
0.0
  0
LINE
  5
D81
330
1F
100
AcDbEntity
  8
0
100
AcDbLine
 10
3.798397457839349
 20
2.86879582688815
 30
0.0
 11
3.798397457839349
 21
2.883582927920399
 31
0.0
  0
LINE
  5
D84
330
1F
100
AcDbEntity
  8
0
100
AcDbLine
 10
3.985897457839349
 20
2.331050078037779
 30
0.0
 11
3.985897457839349
 21
2.493795826888151
 31
0.0
  0
LINE
  5
D85
330
1F
100
AcDbEntity
  8
0
100
AcDbLine
 10
3.985897457839349
 20
2.681295826888151
 30
0.0
 11
3.985897457839349
 21
2.868795826888151
 31
0.0
  0
LINE
  5
D88
330
1F
100
AcDbEntity
  8
0
100
AcDbLine
 10
4.173397457839349
 20
2.493795826888151
 30
0.0
 11
4.173397457839349
 21
2.681295826888151
 31
0.0
  0
LINE
  5
D89
330
1F
100
AcDbEntity
  8
0
100
AcDbLine
 10
4.173397457839349
 20
2.868795826888151
 30
0.0
 11
4.173397457839349
 21
2.984965405619838
 31
0.0
  0
LINE
  5
D8D
330
1F
100
AcDbEntity
  8
0
100
AcDbLine
 10
4.360897457839349
 20
2.412797616519418
 30
0.0
 11
4.360897457839349
 21
2.493795826888151
 31
0.0
  0
LINE
  5
D8E
330
1F
100
AcDbEntity
  8
0
100
AcDbLine
 10
4.360897457839349
 20
2.681295826888151
 30
0.0
 11
4.360897457839349
 21
2.868795826888151
 31
0.0
  0
LINE
  5
D91
330
1F
100
AcDbEntity
  8
0
100
AcDbLine
 10
4.548397457839349
 20
2.493795826888151
 30
0.0
 11
4.548397457839349
 21
2.681295826888151
 31
0.0
  0
LINE
  5
D92
330
1F
100
AcDbEntity
  8
0
100
AcDbLine
 10
4.548397457839349
 20
2.868795826888151
 30
0.0
 11
4.548397457839349
 21
3.044240916980516
 31
0.0
  0
LINE
  5
D95
330
1F
100
AcDbEntity
  8
0
100
AcDbLine
 10
4.735897457839349
 20
2.68129582688815
 30
0.0
 11
4.735897457839349
 21
2.86879582688815
 31
0.0
  0
LINE
  5
D98
330
1F
100
AcDbEntity
  8
0
100
AcDbLine
 10
4.923397457839349
 20
2.868795826888149
 30
0.0
 11
4.923397457839349
 21
3.004616821072943
 31
0.0
  0
LINE
  5
D9C
330
1F
100
AcDbEntity
  8
0
100
AcDbLine
 10
0.49370995783935
 20
2.868795826888151
 30
0.0
 11
0.49370995783935
 21
2.886187245914126
 31
0.0
  0
LINE
  5
D9E
330
1F
100
AcDbEntity
  8
0
100
AcDbLine
 10
0.68120995783935
 20
2.488558537099636
 30
0.0
 11
0.68120995783935
 21
2.493795826888151
 31
0.0
  0
LINE
  5
D9F
330
1F
100
AcDbEntity
  8
0
100
AcDbLine
 10
0.68120995783935
 20
2.681295826888151
 30
0.0
 11
0.68120995783935
 21
2.868795826888151
 31
0.0
  0
LINE
  5
DA2
330
1F
100
AcDbEntity
  8
0
100
AcDbLine
 10
0.86870995783935
 20
2.493795826888151
 30
0.0
 11
0.86870995783935
 21
2.681295826888151
 31
0.0
  0
LINE
  5
DA3
330
1F
100
AcDbEntity
  8
0
100
AcDbLine
 10
0.86870995783935
 20
2.868795826888151
 30
0.0
 11
0.86870995783935
 21
2.930985073852356
 31
0.0
  0
LINE
  5
DA6
330
1F
100
AcDbEntity
  8
0
100
AcDbLine
 10
1.05620995783935
 20
2.345197957260816
 30
0.0
 11
1.05620995783935
 21
2.493795826888151
 31
0.0
  0
LINE
  5
DA7
330
1F
100
AcDbEntity
  8
0
100
AcDbLine
 10
1.05620995783935
 20
2.681295826888151
 30
0.0
 11
1.05620995783935
 21
2.868795826888151
 31
0.0
  0
LINE
  5
DAA
330
1F
100
AcDbEntity
  8
0
100
AcDbLine
 10
1.24370995783935
 20
2.49379582688815
 30
0.0
 11
1.24370995783935
 21
2.68129582688815
 31
0.0
  0
LINE
  5
DAB
330
1F
100
AcDbEntity
  8
0
100
AcDbLine
 10
1.24370995783935
 20
2.86879582688815
 30
0.0
 11
1.24370995783935
 21
2.953333956722127
 31
0.0
  0
LINE
  5
DAE
330
1F
100
AcDbEntity
  8
0
100
AcDbLine
 10
1.43120995783935
 20
2.377791819019546
 30
0.0
 11
1.43120995783935
 21
2.49379582688815
 31
0.0
  0
LINE
  5
DAF
330
1F
100
AcDbEntity
  8
0
100
AcDbLine
 10
1.43120995783935
 20
2.68129582688815
 30
0.0
 11
1.43120995783935
 21
2.86879582688815
 31
0.0
  0
LINE
  5
DB2
330
1F
100
AcDbEntity
  8
0
100
AcDbLine
 10
1.61870995783935
 20
2.493795826888151
 30
0.0
 11
1.61870995783935
 21
2.681295826888151
 31
0.0
  0
LINE
  5
DB3
330
1F
100
AcDbEntity
  8
0
100
AcDbLine
 10
1.61870995783935
 20
2.868795826888151
 30
0.0
 11
1.61870995783935
 21
2.953471206190402
 31
0.0
  0
LINE
  5
DB6
330
1F
100
AcDbEntity
  8
0
100
AcDbLine
 10
1.80620995783935
 20
2.373457168429111
 30
0.0
 11
1.80620995783935
 21
2.49379582688815
 31
0.0
  0
LINE
  5
DB7
330
1F
100
AcDbEntity
  8
0
100
AcDbLine
 10
1.80620995783935
 20
2.68129582688815
 30
0.0
 11
1.80620995783935
 21
2.86879582688815
 31
0.0
  0
LINE
  5
DBA
330
1F
100
AcDbEntity
  8
0
100
AcDbLine
 10
1.99370995783935
 20
2.49379582688815
 30
0.0
 11
1.99370995783935
 21
2.68129582688815
 31
0.0
  0
LINE
  5
DBB
330
1F
100
AcDbEntity
  8
0
100
AcDbLine
 10
1.99370995783935
 20
2.86879582688815
 30
0.0
 11
1.99370995783935
 21
2.931398269243656
 31
0.0
  0
LINE
  5
DBE
330
1F
100
AcDbEntity
  8
0
100
AcDbLine
 10
2.18120995783935
 20
2.317622865241897
 30
0.0
 11
2.18120995783935
 21
2.493795826888151
 31
0.0
  0
LINE
  5
DBF
330
1F
100
AcDbEntity
  8
0
100
AcDbLine
 10
2.18120995783935
 20
2.681295826888151
 30
0.0
 11
2.18120995783935
 21
2.868795826888151
 31
0.0
  0
LINE
  5
DC2
330
1F
100
AcDbEntity
  8
0
100
AcDbLine
 10
2.36870995783935
 20
2.269495924713006
 30
0.0
 11
2.36870995783935
 21
2.30629582688815
 31
0.0
  0
LINE
  5
DC3
330
1F
100
AcDbEntity
  8
0
100
AcDbLine
 10
2.36870995783935
 20
2.49379582688815
 30
0.0
 11
2.36870995783935
 21
2.52069865701174
 31
0.0
  0
LINE
  5
DC6
330
1F
100
AcDbEntity
  8
0
100
AcDbLine
 10
2.55620995783935
 20
2.306295826888151
 30
0.0
 11
2.55620995783935
 21
2.493795826888151
 31
0.0
  0
LINE
  5
DC7
330
1F
100
AcDbEntity
  8
0
100
AcDbLine
 10
2.55620995783935
 20
2.681295826888151
 30
0.0
 11
2.55620995783935
 21
2.854391531349642
 31
0.0
  0
LINE
  5
DCB
330
1F
100
AcDbEntity
  8
0
100
AcDbLine
 10
2.74370995783935
 20
2.155491685623266
 30
0.0
 11
2.74370995783935
 21
2.306295826888151
 31
0.0
  0
LINE
  5
DCC
330
1F
100
AcDbEntity
  8
0
100
AcDbLine
 10
2.74370995783935
 20
2.493795826888151
 30
0.0
 11
2.74370995783935
 21
2.681295826888151
 31
0.0
  0
LINE
  5
DCF
330
1F
100
AcDbEntity
  8
0
100
AcDbLine
 10
2.93120995783935
 20
2.31375022710048
 30
0.0
 11
2.93120995783935
 21
2.493795826888151
 31
0.0
  0
LINE
  5
DD0
330
1F
100
AcDbEntity
  8
0
100
AcDbLine
 10
2.93120995783935
 20
2.681295826888151
 30
0.0
 11
2.93120995783935
 21
2.817375327819832
 31
0.0
  0
LINE
  5
DD3
330
1F
100
AcDbEntity
  8
0
100
AcDbLine
 10
3.118709957839349
 20
2.118795826888152
 30
0.0
 11
3.118709957839349
 21
2.306295826888152
 31
0.0
  0
LINE
  5
DD4
330
1F
100
AcDbEntity
  8
0
100
AcDbLine
 10
3.118709957839349
 20
2.493795826888152
 30
0.0
 11
3.118709957839349
 21
2.571429954733397
 31
0.0
  0
LINE
  5
DD7
330
1F
100
AcDbEntity
  8
0
100
AcDbLine
 10
3.306209957839349
 20
2.306295826888151
 30
0.0
 11
3.306209957839349
 21
2.493795826888151
 31
0.0
  0
LINE
  5
DD8
330
1F
100
AcDbEntity
  8
0
100
AcDbLine
 10
3.306209957839349
 20
2.681295826888151
 30
0.0
 11
3.306209957839349
 21
2.81928522815905
 31
0.0
  0
LINE
  5
DDC
330
1F
100
AcDbEntity
  8
0
100
AcDbLine
 10
3.493709957839349
 20
2.160207308878724
 30
0.0
 11
3.493709957839349
 21
2.30629582688815
 31
0.0
  0
LINE
  5
DDD
330
1F
100
AcDbEntity
  8
0
100
AcDbLine
 10
3.493709957839349
 20
2.49379582688815
 30
0.0
 11
3.493709957839349
 21
2.68129582688815
 31
0.0
  0
LINE
  5
DE0
330
1F
100
AcDbEntity
  8
0
100
AcDbLine
 10
3.681209957839349
 20
2.306295826888151
 30
0.0
 11
3.681209957839349
 21
2.493795826888151
 31
0.0
  0
LINE
  5
DE1
330
1F
100
AcDbEntity
  8
0
100
AcDbLine
 10
3.681209957839349
 20
2.681295826888151
 30
0.0
 11
3.681209957839349
 21
2.861170590907253
 31
0.0
  0
LINE
  5
DE5
330
1F
100
AcDbEntity
  8
0
100
AcDbLine
 10
3.868709957839349
 20
2.293846211177493
 30
0.0
 11
3.868709957839349
 21
2.306295826888151
 31
0.0
  0
LINE
  5
DE6
330
1F
100
AcDbEntity
  8
0
100
AcDbLine
 10
3.868709957839349
 20
2.493795826888151
 30
0.0
 11
3.868709957839349
 21
2.681295826888151
 31
0.0
  0
LINE
  5
DE7
330
1F
100
AcDbEntity
  8
0
100
AcDbLine
 10
3.868709957839349
 20
2.868795826888151
 30
0.0
 11
3.868709957839349
 21
2.898917852432165
 31
0.0
  0
LINE
  5
DEA
330
1F
100
AcDbEntity
  8
0
100
AcDbLine
 10
4.056209957839349
 20
2.33992918463082
 30
0.0
 11
4.056209957839349
 21
2.49379582688815
 31
0.0
  0
LINE
  5
DEB
330
1F
100
AcDbEntity
  8
0
100
AcDbLine
 10
4.056209957839349
 20
2.68129582688815
 30
0.0
 11
4.056209957839349
 21
2.86879582688815
 31
0.0
  0
LINE
  5
DEE
330
1F
100
AcDbEntity
  8
0
100
AcDbLine
 10
4.243709957839349
 20
2.493795826888151
 30
0.0
 11
4.243709957839349
 21
2.681295826888151
 31
0.0
  0
LINE
  5
DEF
330
1F
100
AcDbEntity
  8
0
100
AcDbLine
 10
4.243709957839349
 20
2.868795826888151
 30
0.0
 11
4.243709957839349
 21
3.003903215951043
 31
0.0
  0
LINE
  5
DF3
330
1F
100
AcDbEntity
  8
0
100
AcDbLine
 10
4.431209957839349
 20
2.438063809525352
 30
0.0
 11
4.431209957839349
 21
2.49379582688815
 31
0.0
  0
LINE
  5
DF4
330
1F
100
AcDbEntity
  8
0
100
AcDbLine
 10
4.431209957839349
 20
2.68129582688815
 30
0.0
 11
4.431209957839349
 21
2.86879582688815
 31
0.0
  0
LINE
  5
DF7
330
1F
100
AcDbEntity
  8
0
100
AcDbLine
 10
4.618709957839349
 20
2.522833590705376
 30
0.0
 11
4.618709957839349
 21
2.68129582688815
 31
0.0
  0
LINE
  5
DF8
330
1F
100
AcDbEntity
  8
0
100
AcDbLine
 10
4.618709957839349
 20
2.86879582688815
 30
0.0
 11
4.618709957839349
 21
3.044312697567293
 31
0.0
  0
LINE
  5
DFB
330
1F
100
AcDbEntity
  8
0
100
AcDbLine
 10
4.806209957839349
 20
2.68129582688815
 30
0.0
 11
4.806209957839349
 21
2.86879582688815
 31
0.0
  0
LINE
  5
DFD
330
1F
100
AcDbEntity
  8
0
100
AcDbLine
 10
4.993709957839349
 20
2.868795826888149
 30
0.0
 11
4.993709957839349
 21
2.985838348179225
 31
0.0
  0
LINE
  5
E00
330
1F
100
AcDbEntity
  8
0
100
AcDbLine
 10
0.56402245783935
 20
2.615409547919317
 30
0.0
 11
0.56402245783935
 21
2.681295826888151
 31
0.0
  0
LINE
  5
E01
330
1F
100
AcDbEntity
  8
0
100
AcDbLine
 10
0.56402245783935
 20
2.868795826888151
 30
0.0
 11
0.56402245783935
 21
2.896315620574142
 31
0.0
  0
LINE
  5
E03
330
1F
100
AcDbEntity
  8
0
100
AcDbLine
 10
0.75152245783935
 20
2.43839076753658
 30
0.0
 11
0.75152245783935
 21
2.493795826888151
 31
0.0
  0
LINE
  5
E04
330
1F
100
AcDbEntity
  8
0
100
AcDbLine
 10
0.75152245783935
 20
2.681295826888151
 30
0.0
 11
0.75152245783935
 21
2.868795826888151
 31
0.0
  0
LINE
  5
E07
330
1F
100
AcDbEntity
  8
0
100
AcDbLine
 10
0.93902245783935
 20
2.493795826888151
 30
0.0
 11
0.93902245783935
 21
2.681295826888151
 31
0.0
  0
LINE
  5
E08
330
1F
100
AcDbEntity
  8
0
100
AcDbLine
 10
0.93902245783935
 20
2.868795826888151
 30
0.0
 11
0.93902245783935
 21
2.936875028496019
 31
0.0
  0
LINE
  5
E0B
330
1F
100
AcDbEntity
  8
0
100
AcDbLine
 10
1.12652245783935
 20
2.346137168286196
 30
0.0
 11
1.12652245783935
 21
2.493795826888151
 31
0.0
  0
LINE
  5
E0C
330
1F
100
AcDbEntity
  8
0
100
AcDbLine
 10
1.12652245783935
 20
2.681295826888151
 30
0.0
 11
1.12652245783935
 21
2.868795826888151
 31
0.0
  0
LINE
  5
E0F
330
1F
100
AcDbEntity
  8
0
100
AcDbLine
 10
1.31402245783935
 20
2.493795826888151
 30
0.0
 11
1.31402245783935
 21
2.681295826888151
 31
0.0
  0
LINE
  5
E10
330
1F
100
AcDbEntity
  8
0
100
AcDbLine
 10
1.31402245783935
 20
2.868795826888151
 30
0.0
 11
1.31402245783935
 21
2.955048361890236
 31
0.0
  0
LINE
  5
E13
330
1F
100
AcDbEntity
  8
0
100
AcDbLine
 10
1.50152245783935
 20
2.380851498812238
 30
0.0
 11
1.50152245783935
 21
2.493795826888151
 31
0.0
  0
LINE
  5
E14
330
1F
100
AcDbEntity
  8
0
100
AcDbLine
 10
1.50152245783935
 20
2.681295826888151
 30
0.0
 11
1.50152245783935
 21
2.868795826888151
 31
0.0
  0
LINE
  5
E17
330
1F
100
AcDbEntity
  8
0
100
AcDbLine
 10
1.68902245783935
 20
2.493795826888151
 30
0.0
 11
1.68902245783935
 21
2.681295826888151
 31
0.0
  0
LINE
  5
E18
330
1F
100
AcDbEntity
  8
0
100
AcDbLine
 10
1.68902245783935
 20
2.868795826888151
 30
0.0
 11
1.68902245783935
 21
2.951028127372599
 31
0.0
  0
LINE
  5
E1B
330
1F
100
AcDbEntity
  8
0
100
AcDbLine
 10
1.87652245783935
 20
2.366966021896795
 30
0.0
 11
1.87652245783935
 21
2.49379582688815
 31
0.0
  0
LINE
  5
E1C
330
1F
100
AcDbEntity
  8
0
100
AcDbLine
 10
1.87652245783935
 20
2.68129582688815
 30
0.0
 11
1.87652245783935
 21
2.86879582688815
 31
0.0
  0
LINE
  5
E1F
330
1F
100
AcDbEntity
  8
0
100
AcDbLine
 10
2.06402245783935
 20
2.49379582688815
 30
0.0
 11
2.06402245783935
 21
2.68129582688815
 31
0.0
  0
LINE
  5
E20
330
1F
100
AcDbEntity
  8
0
100
AcDbLine
 10
2.06402245783935
 20
2.86879582688815
 30
0.0
 11
2.06402245783935
 21
2.92477193079984
 31
0.0
  0
LINE
  5
E23
330
1F
100
AcDbEntity
  8
0
100
AcDbLine
 10
2.25152245783935
 20
2.306295826888151
 30
0.0
 11
2.25152245783935
 21
2.493795826888151
 31
0.0
  0
LINE
  5
E24
330
1F
100
AcDbEntity
  8
0
100
AcDbLine
 10
2.25152245783935
 20
2.681295826888151
 30
0.0
 11
2.25152245783935
 21
2.868795826888151
 31
0.0
  0
LINE
  5
E27
330
1F
100
AcDbEntity
  8
0
100
AcDbLine
 10
2.43902245783935
 20
2.24778503108332
 30
0.0
 11
2.43902245783935
 21
2.306295826888151
 31
0.0
  0
LINE
  5
E28
330
1F
100
AcDbEntity
  8
0
100
AcDbLine
 10
2.43902245783935
 20
2.493795826888151
 30
0.0
 11
2.43902245783935
 21
2.681295826888151
 31
0.0
  0
LINE
  5
E29
330
1F
100
AcDbEntity
  8
0
100
AcDbLine
 10
2.43902245783935
 20
2.868795826888151
 30
0.0
 11
2.43902245783935
 21
2.874098643004581
 31
0.0
  0
LINE
  5
E2C
330
1F
100
AcDbEntity
  8
0
100
AcDbLine
 10
2.62652245783935
 20
2.306295826888151
 30
0.0
 11
2.62652245783935
 21
2.493795826888151
 31
0.0
  0
LINE
  5
E2D
330
1F
100
AcDbEntity
  8
0
100
AcDbLine
 10
2.62652245783935
 20
2.681295826888151
 30
0.0
 11
2.62652245783935
 21
2.844447944762003
 31
0.0
  0
LINE
  5
E31
330
1F
100
AcDbEntity
  8
0
100
AcDbLine
 10
2.81402245783935
 20
2.141762003529503
 30
0.0
 11
2.81402245783935
 21
2.306295826888151
 31
0.0
  0
LINE
  5
E32
330
1F
100
AcDbEntity
  8
0
100
AcDbLine
 10
2.81402245783935
 20
2.493795826888151
 30
0.0
 11
2.81402245783935
 21
2.681295826888151
 31
0.0
  0
LINE
  5
E35
330
1F
100
AcDbEntity
  8
0
100
AcDbLine
 10
3.00152245783935
 20
2.306295826888151
 30
0.0
 11
3.00152245783935
 21
2.339642367891286
 31
0.0
  0
LINE
  5
E39
330
1F
100
AcDbEntity
  8
0
100
AcDbLine
 10
3.00152245783935
 20
2.479972966840633
 30
0.0
 11
3.00152245783935
 21
2.493795826888151
 31
0.0
  0
LINE
  5
E3A
330
1F
100
AcDbEntity
  8
0
100
AcDbLine
 10
3.00152245783935
 20
2.681295826888151
 30
0.0
 11
3.00152245783935
 21
2.814783604116498
 31
0.0
  0
LINE
  5
E3B
330
1F
100
AcDbEntity
  8
0
100
AcDbLine
 10
3.189022457839349
 20
2.118795826888151
 30
0.0
 11
3.189022457839349
 21
2.306295826888151
 31
0.0
  0
LINE
  5
E3C
330
1F
100
AcDbEntity
  8
0
100
AcDbLine
 10
3.189022457839349
 20
2.493795826888151
 30
0.0
 11
3.189022457839349
 21
2.681295826888151
 31
0.0
  0
LINE
  5
E3F
330
1F
100
AcDbEntity
  8
0
100
AcDbLine
 10
3.376522457839349
 20
2.30629582688815
 30
0.0
 11
3.376522457839349
 21
2.49379582688815
 31
0.0
  0
LINE
  5
E40
330
1F
100
AcDbEntity
  8
0
100
AcDbLine
 10
3.376522457839349
 20
2.68129582688815
 30
0.0
 11
3.376522457839349
 21
2.823961216288303
 31
0.0
  0
LINE
  5
E44
330
1F
100
AcDbEntity
  8
0
100
AcDbLine
 10
3.564022457839349
 20
2.177963331096091
 30
0.0
 11
3.564022457839349
 21
2.306295826888151
 31
0.0
  0
LINE
  5
E45
330
1F
100
AcDbEntity
  8
0
100
AcDbLine
 10
3.564022457839349
 20
2.493795826888151
 30
0.0
 11
3.564022457839349
 21
2.681295826888151
 31
0.0
  0
LINE
  5
E48
330
1F
100
AcDbEntity
  8
0
100
AcDbLine
 10
3.751522457839349
 20
2.306295826888151
 30
0.0
 11
3.751522457839349
 21
2.493795826888151
 31
0.0
  0
LINE
  5
E49
330
1F
100
AcDbEntity
  8
0
100
AcDbLine
 10
3.751522457839349
 20
2.681295826888151
 30
0.0
 11
3.751522457839349
 21
2.868795826888151
 31
0.0
  0
LINE
  5
E4C
330
1F
100
AcDbEntity
  8
0
100
AcDbLine
 10
3.939022457839349
 20
2.49379582688815
 30
0.0
 11
3.939022457839349
 21
2.68129582688815
 31
0.0
  0
LINE
  5
E4D
330
1F
100
AcDbEntity
  8
0
100
AcDbLine
 10
3.939022457839349
 20
2.86879582688815
 30
0.0
 11
3.939022457839349
 21
2.915690175139883
 31
0.0
  0
LINE
  5
E50
330
1F
100
AcDbEntity
  8
0
100
AcDbLine
 10
4.126522457839349
 20
2.351706671211585
 30
0.0
 11
4.126522457839349
 21
2.493795826888151
 31
0.0
  0
LINE
  5
E51
330
1F
100
AcDbEntity
  8
0
100
AcDbLine
 10
4.126522457839349
 20
2.681295826888151
 30
0.0
 11
4.126522457839349
 21
2.868795826888151
 31
0.0
  0
LINE
  5
E54
330
1F
100
AcDbEntity
  8
0
100
AcDbLine
 10
4.314022457839349
 20
2.493795826888151
 30
0.0
 11
4.314022457839349
 21
2.681295826888151
 31
0.0
  0
LINE
  5
E55
330
1F
100
AcDbEntity
  8
0
100
AcDbLine
 10
4.314022457839349
 20
2.868795826888151
 30
0.0
 11
4.314022457839349
 21
3.019118247829766
 31
0.0
  0
LINE
  5
E59
330
1F
100
AcDbEntity
  8
0
100
AcDbLine
 10
4.501522457839349
 20
2.46677980159844
 30
0.0
 11
4.501522457839349
 21
2.49379582688815
 31
0.0
  0
LINE
  5
E5A
330
1F
100
AcDbEntity
  8
0
100
AcDbLine
 10
4.501522457839349
 20
2.68129582688815
 30
0.0
 11
4.501522457839349
 21
2.86879582688815
 31
0.0
  0
LINE
  5
E5D
330
1F
100
AcDbEntity
  8
0
100
AcDbLine
 10
4.689022457839349
 20
2.561780585148542
 30
0.0
 11
4.689022457839349
 21
2.68129582688815
 31
0.0
  0
LINE
  5
E5E
330
1F
100
AcDbEntity
  8
0
100
AcDbLine
 10
4.689022457839349
 20
2.86879582688815
 30
0.0
 11
4.689022457839349
 21
3.040965567618717
 31
0.0
  0
LINE
  5
E61
330
1F
100
AcDbEntity
  8
0
100
AcDbLine
 10
4.876522457839349
 20
2.68809912355059
 30
0.0
 11
4.876522457839349
 21
2.86879582688815
 31
0.0
  0
LINE
  5
E63
330
1F
100
AcDbEntity
  8
0
100
AcDbLine
 10
5.064022457839349
 20
2.86879582688815
 30
0.0
 11
5.064022457839349
 21
2.96318954209183
 31
0.0
  0
LINE
  5
E6D
330
1F
100
AcDbEntity
  8
0
100
AcDbLine
 10
-0.0000000216829035
 20
5.220000007295446
 30
0.0
 11
7.939999978317096
 21
5.220000007295446
 31
0.0
  0
LINE
  5
E6E
330
1F
100
AcDbEntity
  8
0
100
AcDbLine
 10
7.939999978317097
 20
5.220000007295446
 30
0.0
 11
7.939999978317097
 21
0.000000007295446
 31
0.0
  0
LINE
  5
E6F
330
1F
100
AcDbEntity
  8
0
100
AcDbLine
 10
-0.0000000216829035
 20
0.000000007295446
 30
0.0
 11
-0.0000000216829035
 21
5.220000007295446
 31
0.0
  0
LINE
  5
E71
330
1F
100
AcDbEntity
  8
0
100
AcDbLine
 10
-0.0000000216829035
 20
0.000000007295446
 30
0.0
 11
7.939999978317096
 21
0.000000007295446
 31
0.0
  0
LINE
  5
F01
330
1F
100
AcDbEntity
  8
0
100
AcDbLine
 10
5.080273491454387
 20
1.995140222945328
 30
0.0
 11
3.503045904655565
 21
1.995140222945329
 31
0.0
  0
LINE
  5
F02
330
1F
100
AcDbEntity
  8
0
100
AcDbLine
 10
5.079861445518754
 20
1.764154302505866
 30
0.0
 11
3.763840701407406
 21
1.764154302505866
 31
0.0
  0
CIRCLE
  5
F03
330
1F
100
AcDbEntity
  8
0
100
AcDbCircle
 10
-5.177900986500716
 20
1.764154302505866
 30
0.0
 40
0.0980395409819625
210
0.0
220
0.0
230
-1.0
  0
TEXT
  5
F04
330
1F
100
AcDbEntity
  8
0
100
AcDbText
 10
-5.150962730447039
 20
1.718684791990711
 30
0.0
 40
0.0888620774192805
  1
6
 50
180.0
 71
     4
210
0.0
220
0.0
230
-1.0
100
AcDbText
  0
CIRCLE
  5
F05
330
1F
100
AcDbEntity
  8
0
100
AcDbCircle
 10
-5.177900986500716
 20
1.986161146883017
 30
0.0
 40
0.0980395409819625
210
0.0
220
0.0
230
-1.0
  0
TEXT
  5
F06
330
1F
100
AcDbEntity
  8
0
100
AcDbText
 10
-5.150962730447039
 20
1.940691636367863
 30
0.0
 40
0.0888620774192805
  1
5
 50
180.0
 71
     4
210
0.0
220
0.0
230
-1.0
100
AcDbText
  0
LINE
  5
F08
330
1F
100
AcDbEntity
  8
0
100
AcDbLine
 10
3.540899662425346
 20
1.647519019018418
 30
0.0
 11
3.763840701407406
 21
1.764154302505866
 31
0.0
210
0.0
220
0.0
230
-1.0
  0
SOLID
  5
F09
330
1F
100
AcDbEntity
  8
0
100
AcDbTrace
 10
-3.633588472973983
 20
1.719478771955885
 30
0.0
 11
-3.540899662425348
 21
1.647519019018418
 31
0.0
 12
-3.651916565248371
 22
1.685527819727274
 32
0.0
 13
-3.651916565248371
 23
1.685527819727274
 33
0.0
210
0.0
220
0.0
230
-1.0
  0
LINE
  5
F0A
330
1F
100
AcDbEntity
  8
0
100
AcDbLine
 10
4.499378731767486
 20
3.048937221110748
 30
0.0
 11
5.087859688449699
 21
3.356810744635137
 31
0.0
210
0.0
220
0.0
230
-1.0
  0
LINE
  5
F0B
330
1F
100
AcDbEntity
  8
0
100
AcDbLine
 10
5.079861445518754
 20
3.776091314481601
 30
0.0
 11
3.700197185313546
 21
3.776091314481601
 31
0.0
  0
LINE
  5
F0C
330
1F
100
AcDbEntity
  8
0
100
AcDbLine
 10
5.079861490042427
 20
4.039724445217907
 30
0.0
 11
3.062667488299168
 21
4.039724445217908
 31
0.0
  0
CIRCLE
  5
F0D
330
1F
100
AcDbEntity
  8
0
100
AcDbCircle
 10
-5.177900986500716
 20
3.776091314481601
 30
0.0
 40
0.0980395409819625
210
0.0
220
0.0
230
-1.0
  0
CIRCLE
  5
F0E
330
1F
100
AcDbEntity
  8
0
100
AcDbCircle
 10
-5.177900986500716
 20
3.395596260504363
 30
0.0
 40
0.0980395409819625
210
0.0
220
0.0
230
-1.0
  0
TEXT
  5
F0F
330
1F
100
AcDbEntity
  8
0
100
AcDbText
 10
-5.150962730447039
 20
3.350126749989208
 30
0.0
 40
0.0888620774192805
  1
4
 50
180.0
 71
     4
210
0.0
220
0.0
230
-1.0
100
AcDbText
  0
TEXT
  5
F10
330
1F
100
AcDbEntity
  8
0
100
AcDbText
 10
-5.150962730447039
 20
3.730621803966447
 30
0.0
 40
0.0888620774192805
  1
3
 50
180.0
 71
     4
210
0.0
220
0.0
230
-1.0
100
AcDbText
  0
CIRCLE
  5
F11
330
1F
100
AcDbEntity
  8
0
100
AcDbCircle
 10
-5.17790103102439
 20
4.039724445217907
 30
0.0
 40
0.0980395409819625
210
0.0
220
0.0
230
-1.0
  0
TEXT
  5
F12
330
1F
100
AcDbEntity
  8
0
100
AcDbText
 10
-5.150962774970712
 20
3.994254934702753
 30
0.0
 40
0.0888620774192805
  1
2
 50
180.0
 71
     4
210
0.0
220
0.0
230
-1.0
100
AcDbText
  0
SOLID
  5
F13
330
1F
100
AcDbEntity
  8
0
100
AcDbTrace
 10
-4.592067542316123
 20
3.120896974048215
 30
0.0
 11
-4.499378731767488
 21
3.048937221110748
 31
0.0
 12
-4.61039563459051
 22
3.086946021819604
 32
0.0
 13
-4.61039563459051
 23
3.086946021819604
 33
0.0
210
0.0
220
0.0
230
-1.0
  0
LINE
  5
F14
330
1F
100
AcDbEntity
  8
0
100
AcDbLine
 10
3.037580144362536
 20
3.429432275087987
 30
0.0
 11
3.700197185313546
 21
3.776091314481601
 31
0.0
210
0.0
220
0.0
230
-1.0
  0
SOLID
  5
F15
330
1F
100
AcDbEntity
  8
0
100
AcDbTrace
 10
-3.130268954911173
 20
3.501392028025454
 30
0.0
 11
-3.037580144362538
 21
3.429432275087987
 31
0.0
 12
-3.148597047185561
 22
3.467441075796842
 32
0.0
 13
-3.148597047185561
 23
3.467441075796842
 33
0.0
210
0.0
220
0.0
230
-1.0
  0
SOLID
  5
F16
330
1F
100
AcDbEntity
  8
0
100
AcDbTrace
 10
-2.472397969814395
 20
3.754383278232162
 30
0.0
 11
-2.37970915926576
 21
3.682423525294695
 31
0.0
 12
-2.490726062088783
 22
3.720432326003551
 32
0.0
 13
-2.490726062088783
 23
3.720432326003551
 33
0.0
210
0.0
220
0.0
230
-1.0
  0
LINE
  5
F17
330
1F
100
AcDbEntity
  8
0
100
AcDbLine
 10
2.379709159265751
 20
3.682423525294695
 30
0.0
 11
3.062667488299168
 21
4.039724445217908
 31
0.0
210
0.0
220
0.0
230
-1.0
  0
LINE
  5
F18
330
1F
100
AcDbEntity
  8
0
100
AcDbLine
 10
2.98364523446638
 20
1.723407191253657
 30
0.0
 11
3.503045904655565
 21
1.995140222945329
 31
0.0
210
0.0
220
0.0
230
-1.0
  0
SOLID
  5
F19
330
1F
100
AcDbEntity
  8
0
100
AcDbTrace
 10
-3.076334045015017
 20
1.795366944191124
 30
0.0
 11
-2.983645234466382
 21
1.723407191253657
 31
0.0
 12
-3.094662137289404
 22
1.761415991962512
 32
0.0
 13
-3.094662137289404
 23
1.761415991962512
 33
0.0
210
0.0
220
0.0
230
-1.0
  0
LINE
  5
F1A
330
1F
100
AcDbEntity
  8
0
100
AcDbLine
 10
5.079861490042427
 20
4.30909684862479
 30
0.0
 11
3.038166247963848
 21
4.309096848624792
 31
0.0
  0
CIRCLE
  5
F1D
330
1F
100
AcDbEntity
  8
0
100
AcDbCircle
 10
-5.17790103102439
 20
4.30909684862479
 30
0.0
 40
0.0980395409819625
210
0.0
220
0.0
230
-1.0
  0
TEXT
  5
F1E
330
1F
100
AcDbEntity
  8
0
100
AcDbText
 10
-5.150962774970712
 20
4.263627338109636
 30
0.0
 40
0.0888620774192805
  1
1
 50
180.0
 71
     4
210
0.0
220
0.0
230
-1.0
100
AcDbText
  0
LINE
  5
F1F
330
1F
100
AcDbEntity
  8
0
100
AcDbLine
 10
2.217904340529913
 20
3.879963295895582
 30
0.0
 11
3.038166247963849
 21
4.309096848624792
 31
0.0
210
0.0
220
0.0
230
-1.0
  0
SOLID
  5
F20
330
1F
100
AcDbEntity
  8
0
100
AcDbTrace
 10
-2.310593151078557
 20
3.951923048833049
 30
0.0
 11
-2.217904340529921
 21
3.879963295895582
 31
0.0
 12
-2.328921243352944
 22
3.917972096604438
 32
0.0
 13
-2.328921243352944
 23
3.917972096604438
 33
0.0
210
0.0
220
0.0
230
-1.0
  0
TEXT
  5
F21
330
1F
100
AcDbEntity
  8
0
100
AcDbText
 10
-5.901588624049657
 20
2.581429346085281
 30
0.0
 40
0.0888620774192805
  1
25-001
 50
180.0
 71
     4
210
0.0
220
0.0
230
-1.0
100
AcDbText
  0
TEXT
  5
F22
330
1F
100
AcDbEntity
  8
0
100
AcDbText
 10
-5.901588624049657
 20
2.724748858808413
 30
0.0
 40
0.0888620774192805
  1
1/4" BARB DIG MODEL 
 50
180.0
 71
     4
210
0.0
220
0.0
230
-1.0
100
AcDbText
  0
TEXT
  5
F23
330
1F
100
AcDbEntity
  8
0
100
AcDbText
 10
-5.896111255536359
 20
4.971802528379421
 30
0.0
 40
0.0888620774192805
  1
SINGLE OUTLET PC
 50
180.0
 71
     4
210
0.0
220
0.0
230
-1.0
100
AcDbText
  0
TEXT
  5
F24
330
1F
100
AcDbEntity
  8
0
100
AcDbText
 10
-5.896111255536359
 20
4.82848301565629
 30
0.0
 40
0.0888620774192805
  1
DRIPPER WITH 1/4" BARB 
 50
180.0
 71
     4
210
0.0
220
0.0
230
-1.0
100
AcDbText
  0
TEXT
  5
F25
330
1F
100
AcDbEntity
  8
0
100
AcDbText
 10
-5.896111255536359
 20
4.691258597847146
 30
0.0
 40
0.0888620774192805
  1
INLET DIG MODEL 06-014
 50
180.0
 71
     4
210
0.0
220
0.0
230
-1.0
100
AcDbText
  0
TEXT
  5
F26
330
1F
100
AcDbEntity
  8
0
100
AcDbText
 10
-5.896111255536359
 20
4.554034180038003
 30
0.0
 40
0.0888620774192805
  1
1 GPH, 06-015 2 GPH,
 50
180.0
 71
     4
210
0.0
220
0.0
230
-1.0
100
AcDbText
  0
TEXT
  5
F27
330
1F
100
AcDbEntity
  8
0
100
AcDbText
 10
-5.896111255536359
 20
4.410714667314868
 30
0.0
 40
0.0888620774192805
  1
06-016 4 GPH
 50
180.0
 71
     4
210
0.0
220
0.0
230
-1.0
100
AcDbText
  0
TEXT
  5
F28
330
1F
100
AcDbEntity
  8
0
100
AcDbText
 10
-5.921526615215119
 20
2.974183710753112
 30
0.0
 40
0.0888620774192805
  1
FINISH GRADE OR MULCH
 50
180.0
 71
     4
210
0.0
220
0.0
230
-1.0
100
AcDbText
  0
INSERT
  5
F29
330
1F
100
AcDbEntity
  8
0
100
AcDbBlockReference
  2
A$C3EC824E0
 10
5.901588673038396
 20
3.1794852049893
 30
0.0
  0
INSERT
  5
F2A
330
1F
100
AcDbEntity
  8
0
100
AcDbBlockReference
  2
A$C39B8445F
 10
5.901588628514722
 20
3.913217335784043
 30
0.0
  0
CIRCLE
  5
F2B
330
1F
100
AcDbEntity
  8
0
100
AcDbCircle
 10
-5.707917117541697
 20
3.012489351743748
 30
0.0
 40
0.0980395409819625
210
0.0
220
0.0
230
-1.0
  0
CIRCLE
  5
F2C
330
1F
100
AcDbEntity
  8
0
100
AcDbCircle
 10
-5.707917117541697
 20
2.722625045546426
 30
0.0
 40
0.0980395409819625
210
0.0
220
0.0
230
-1.0
  0
TEXT
  5
F2D
330
1F
100
AcDbEntity
  8
0
100
AcDbText
 10
-5.670956033023008
 20
2.677155535031272
 30
0.0
 40
0.0888620774192805
  1
5
 50
180.0
 71
     4
210
0.0
220
0.0
230
-1.0
100
AcDbText
  0
CIRCLE
  5
F2E
330
1F
100
AcDbEntity
  8
0
100
AcDbCircle
 10
-5.707917117541697
 20
4.988752540286767
 30
0.0
 40
0.0980395409819625
210
0.0
220
0.0
230
-1.0
  0
TEXT
  5
F2F
330
1F
100
AcDbEntity
  8
0
100
AcDbText
 10
-5.691001689953024
 20
4.943283029771613
 30
0.0
 40
0.0888620774192805
  1
1
 50
180.0
 71
     4
210
0.0
220
0.0
230
-1.0
100
AcDbText
  0
CIRCLE
  5
F30
330
1F
100
AcDbEntity
  8
0
100
AcDbCircle
 10
-5.707917117541697
 20
3.669498997032544
 30
0.0
 40
0.0980395409819625
210
0.0
220
0.0
230
-1.0
  0
TEXT
  5
F31
330
1F
100
AcDbEntity
  8
0
100
AcDbText
 10
-5.680978861488019
 20
3.624029486517389
 30
0.0
 40
0.0888620774192805
  1
3
 50
180.0
 71
     4
210
0.0
220
0.0
230
-1.0
100
AcDbText
  0
TEXT
  5
F32
330
1F
100
AcDbEntity
  8
0
100
AcDbText
 10
-5.670956033023008
 20
2.967019841228594
 30
0.0
 40
0.0888620774192805
  1
4
 50
180.0
 71
     4
210
0.0
220
0.0
230
-1.0
100
AcDbText
  0
CIRCLE
  5
F33
330
1F
100
AcDbEntity
  8
0
100
AcDbCircle
 10
-5.707917117541697
 20
4.231387477069013
 30
0.0
 40
0.0980395409819625
210
0.0
220
0.0
230
-1.0
  0
TEXT
  5
F34
330
1F
100
AcDbEntity
  8
0
100
AcDbText
 10
-5.680978861488019
 20
4.185917966553858
 30
0.0
 40
0.0888620774192805
  1
2
 50
180.0
 71
     4
210
0.0
220
0.0
230
-1.0
100
AcDbText
  0
CIRCLE
  5
F37
330
1F
100
AcDbEntity
  8
0
100
AcDbCircle
 10
-5.707917117541697
 20
2.364746922397585
 30
0.0
 40
0.0980395409819625
210
0.0
220
0.0
230
-1.0
  0
TEXT
  5
F38
330
1F
100
AcDbEntity
  8
0
100
AcDbText
 10
-5.670956033023008
 20
2.319277411882431
 30
0.0
 40
0.0888620774192805
  1
6
 50
180.0
 71
     4
210
0.0
220
0.0
230
-1.0
100
AcDbText
  0
LINE
  5
F3E
330
1F
100
AcDbEntity
  8
0
100
AcDbLine
 10
1.762217541486695
 20
3.09495056218225
 30
0.0
 11
1.762217541486695
 21
2.955744360148322
 31
0.0
  0
SOLID
  5
F3F
330
1F
100
AcDbEntity
  8
0
  6
ByBlock
 62
     0
100
AcDbTrace
 10
1.747217541486695
 20
3.045744360148322
 30
0.0
 11
1.777217541486696
 21
3.045744360148322
 31
0.0
 12
1.762217541486695
 22
2.955744360148322
 32
0.0
 13
1.762217541486695
 23
2.955744360148322
 33
0.0
  0
TEXT
  5
F40
330
1F
100
AcDbEntity
  8
0
100
AcDbText
 10
1.784653003248917
 20
3.213228049625206
 30
0.0
 40
0.0684360496240188
  1
1-2"
 50
90.0
100
AcDbText
  0
LINE
  5
F41
330
1F
100
AcDbEntity
  8
0
  6
ByBlock
 62
     0
100
AcDbLine
 10
1.713551552914163
 20
3.621721473062912
 30
0.0
 11
1.942217541486695
 21
3.621721473062912
 31
0.0
  0
LINE
  5
F42
330
1F
100
AcDbEntity
  8
0
100
AcDbLine
 10
1.762217541486695
 20
3.621721473062912
 30
0.0
 11
1.762217541486695
 21
3.482515271028985
 31
0.0
  0
SOLID
  5
F43
330
1F
100
AcDbEntity
  8
0
  6
ByBlock
 62
     0
100
AcDbTrace
 10
1.747217541486695
 20
3.531721473062912
 30
0.0
 11
1.777217541486696
 21
3.531721473062912
 31
0.0
 12
1.762217541486695
 22
3.621721473062912
 32
0.0
 13
1.762217541486695
 23
3.621721473062912
 33
0.0
  0
TEXT
  5
F44
330
1F
100
AcDbEntity
  8
0
100
AcDbText
 10
1.559875390502809
 20
4.134775387971397
 30
0.0
 40
0.0684360496240188
  1
3-4"
100
AcDbText
  0
LINE
  5
F45
330
1F
100
AcDbEntity
  8
0
  6
ByBlock
 62
     0
100
AcDbLine
 10
1.37941966053506
 20
4.157297324530591
 30
0.0
 11
1.46941966053506
 21
4.157297324530591
 31
0.0
  0
SOLID
  5
F46
330
1F
100
AcDbEntity
  8
0
  6
ByBlock
 62
     0
100
AcDbTrace
 10
1.37941966053506
 20
4.172297324530591
 30
0.0
 11
1.37941966053506
 21
4.14229732453059
 31
0.0
 12
1.28941966053506
 22
4.157297324530591
 32
0.0
 13
1.28941966053506
 23
4.157297324530591
 33
0.0
  0
LINE
  5
F47
330
1F
100
AcDbEntity
  8
0
  6
ByBlock
 62
     0
100
AcDbLine
 10
1.956628997627224
 20
4.157297324530591
 30
0.0
 11
1.866628997627223
 21
4.157297324530591
 31
0.0
  0
SOLID
  5
F48
330
1F
100
AcDbEntity
  8
0
  6
ByBlock
 62
     0
100
AcDbTrace
 10
1.956628997627224
 20
4.172297324530591
 30
0.0
 11
1.956628997627224
 21
4.14229732453059
 31
0.0
 12
2.046628997627224
 22
4.157297324530591
 32
0.0
 13
2.046628997627224
 23
4.157297324530591
 33
0.0
  0
LINE
  5
F49
330
1F
100
AcDbEntity
  8
0
  6
ByBlock
 62
     0
100
AcDbLine
 10
2.063546699207635
 20
3.88321482069651
 30
0.0
 11
2.063546699207635
 21
4.256273121615463
 31
0.0
  0
LINE
  5
F4A
330
1F
100
AcDbEntity
  8
0
100
AcDbLine
 10
1.049827406131094
 20
1.639666864850942
 30
0.0
 11
0.1805306356822953
 21
1.639666864850942
 31
0.0
  0
LINE
  5
F4B
330
1F
100
AcDbEntity
  8
0
  6
ByBlock
 62
     0
100
AcDbLine
 10
0.181290883996704
 20
2.886058687902885
 30
0.0
 11
0.4099568725692357
 21
2.886058687902885
 31
0.0
  0
TEXT
  5
F4C
330
1F
100
AcDbEntity
  8
0
100
AcDbText
 10
0.252392334331458
 20
2.123570484808945
 30
0.0
 40
0.0684360496240188
  1
6"-8"
 50
90.0
100
AcDbText
  0
LINE
  5
F4D
330
1F
100
AcDbEntity
  8
0
100
AcDbLine
 10
0.229956872569236
 20
2.092302916822999
 30
0.0
 11
0.229956872569236
 21
1.638120964518528
 31
0.0
  0
SOLID
  5
F4E
330
1F
100
AcDbEntity
  8
0
  6
ByBlock
 62
     0
100
AcDbTrace
 10
0.2149568725692355
 20
1.728120964518527
 30
0.0
 11
0.2449568725692366
 21
1.728120964518527
 31
0.0
 12
0.229956872569236
 22
1.638120964518528
 32
0.0
 13
0.229956872569236
 23
1.638120964518528
 33
0.0
  0
LINE
  5
F4F
330
1F
100
AcDbEntity
  8
0
100
AcDbLine
 10
0.229956872569236
 20
2.886058687902885
 30
0.0
 11
0.229956872569236
 21
2.424851850981449
 31
0.0
  0
SOLID
  5
F50
330
1F
100
AcDbEntity
  8
0
  6
ByBlock
 62
     0
100
AcDbTrace
 10
0.2149568725692355
 20
2.796058687902885
 30
0.0
 11
0.2449568725692366
 21
2.796058687902885
 31
0.0
 12
0.229956872569236
 22
2.886058687902885
 32
0.0
 13
0.229956872569236
 23
2.886058687902885
 33
0.0
  0
LINE
  5
F9E
330
1F
100
AcDbEntity
  8
0
100
AcDbLine
 10
-0.0000000216829044
 20
5.220000007295446
 30
0.0
 11
7.939999978317097
 21
5.220000007295446
 31
0.0
  0
TEXT
  5
FD4
330
1F
100
AcDbEntity
  8
0
100
AcDbText
 10
7.202347025827661
 20
0.0346501263333767
 30
0.0
 40
0.06
  1
NOT TO SCALE
 41
0.9804914477521737
 72
     5
 11
7.855354330030608
 21
0.0346501263333767
 31
0.0
100
AcDbText
  0
TEXT
  5
FD8
330
1F
100
AcDbEntity
  8
0
100
AcDbText
 10
1.800376555235905
 20
0.747692826773051
 30
0.0
 40
0.125
  1
SINGLE OUTLET PC DRIPPER USING 1/4" DISTRIBUTION
 41
0.9523222039437189
 72
     5
 11
6.838161014098178
 21
0.747692826773051
 31
0.0
100
AcDbText
  0
TEXT
  5
FD9
330
1F
100
AcDbEntity
  8
0
100
AcDbText
 10
2.442888618287513
 20
0.477164973089313
 30
0.0
 40
0.125
  1
TUBING FOR ABOVE GROUND INSTALLATION     
 41
0.951063003577466
100
AcDbText
  0
LINE
  5
FDA
330
1F
100
AcDbEntity
  8
0
100
AcDbLine
 10
-0.0000000216829044
 20
0.000000007295446
 30
0.0
 11
7.939999978317097
 21
0.000000007295446
 31
0.0
  0
LINE
  5
FDD
330
1F
100
AcDbEntity
  8
0
100
AcDbLine
 10
-0.0000000216829035
 20
0.000000007295446
 30
0.0
 11
7.939999978317096
 21
0.000000007295446
 31
0.0
  0
TEXT
  5
FE1
330
1F
100
AcDbEntity
  8
0
 62
     7
100
AcDbText
 10
0.067322071496692
 20
0.0586377394840052
 30
0.0
 40
0.0608158393258724
  1
DATE: 7-12-11
100
AcDbText
  0
ARC
  5
FE5
330
1F
100
AcDbEntity
  8
LOGO
 62
     7
100
AcDbCircle
 10
0.4442898432812267
 20
4.99127790661545
 30
-0.0000000000000002
 40
0.0675108796499993
100
AcDbArc
 50
287.3483756463791
 51
41.58244495898143
  0
ARC
  5
FE6
330
1F
100
AcDbEntity
  8
LOGO
 62
     7
100
AcDbCircle
 10
0.4688173656622407
 20
5.039868923933057
 30
-0.0000000000000002
 40
0.1131162792606516
100
AcDbArc
 50
267.7722308694291
 51
333.6649699130697
  0
ARC
  5
FE7
330
1F
100
AcDbEntity
  8
LOGO
 62
     7
100
AcDbCircle
 10
0.4442898432812267
 20
4.99127790661545
 30
-0.0000000000000002
 40
0.0675108796499993
100
AcDbArc
 50
138.4175550410183
 51
252.6516243536209
  0
ARC
  5
FE8
330
1F
100
AcDbEntity
  8
LOGO
 62
     7
100
AcDbCircle
 10
0.4197623209002145
 20
5.039868923933057
 30
-0.0000000000000002
 40
0.1131162792606516
100
AcDbArc
 50
206.3350300869302
 51
272.2277691305709
  0
ARC
  5
FE9
330
1F
100
AcDbEntity
  8
LOGO
 62
     7
100
AcDbCircle
 10
0.6447889471142123
 20
4.858986226962323
 30
-0.0000000000000002
 40
0.1137288586413809
100
AcDbArc
 50
43.57405058908683
 51
10.6612766956538
  0
LWPOLYLINE
  5
FEA
330
1F
100
AcDbEntity
  8
LOGO
 62
     7
100
AcDbPolyline
 90
        4
 70
     1
 43
0.0
 10
0.13258848907413
 20
4.745369569421759
 10
0.2294686208272207
 20
4.745369569421759
 42
1.11220835911755
 10
0.2294686208272207
 20
4.972602884502888
 10
0.13258848907413
 20
4.972602884502889
  0
TEXT
  5
FEB
330
1F
100
AcDbEntity
  8
0
 62
     7
100
AcDbText
 10
0.1253423089268583
 20
4.653962257495661
 30
0.0
 40
0.0571569851655855
  1
IRRIGATION PRODUCTS
 41
0.6691042753526059
 72
     5
 11
0.7575153502402945
 21
4.653962257495661
 31
0.0
100
AcDbText
  0
LWPOLYLINE
  5
FEC
330
1F
100
AcDbEntity
  8
LOGO
 62
     7
100
AcDbPolyline
 90
        4
 70
     1
 43
0.0
 10
0.1992762014034952
 20
4.812057281751124
 10
0.2337785413836403
 20
4.812057281751124
 42
1.043882780016063
 10
0.2337785413836403
 20
4.905915172173523
 10
0.1992762014034952
 20
4.905915172173523
  0
LINE
  5
FED
330
1F
100
AcDbEntity
  8
LOGO
 62
     7
100
AcDbLine
 10
0.3958497689288276
 20
4.745369568122491
 30
-0.0000000000000002
 11
0.4927299176336294
 21
4.745369568122491
 31
-0.0000000000000002
  0
LINE
  5
FEE
330
1F
100
AcDbEntity
  8
LOGO
 62
     7
100
AcDbLine
 10
0.3684706102666066
 20
4.90527449875282
 30
-0.0000000000000002
 11
0.5201090762958505
 21
4.90527449875282
 31
-0.0000000000000002
  0
LINE
  5
FEF
330
1F
100
AcDbEntity
  8
LOGO
 62
     7
100
AcDbLine
 10
0.3684706102666066
 20
4.90527449875282
 30
-0.0000000000000002
 11
0.3958497689288276
 21
4.745369568122491
 31
-0.0000000000000002
  0
LINE
  5
FF0
330
1F
100
AcDbEntity
  8
LOGO
 62
     7
100
AcDbLine
 10
0.5201090762958505
 20
4.90527449875282
 30
-0.0000000000000002
 11
0.4927299176336294
 21
4.745369568122491
 31
-0.0000000000000002
  0
LINE
  5
FF1
330
1F
100
AcDbEntity
  8
LOGO
 62
     7
100
AcDbLine
 10
0.6788695104947646
 20
4.891411288967086
 30
-0.0000000000000002
 11
0.7271836989218532
 21
4.937378561807184
 31
-0.0000000000000002
  0
LINE
  5
FF2
330
1F
100
AcDbEntity
  8
LOGO
 62
     7
100
AcDbLine
 10
0.6447889471142123
 20
4.88002634729004
 30
-0.0000000000000002
 11
0.7565546244237791
 21
4.88002634729004
 31
-0.0000000000000002
  0
ARC
  5
FF3
330
1F
100
AcDbEntity
  8
LOGO
 62
     7
100
AcDbCircle
 10
0.6447889471142123
 20
4.858986226962323
 30
-0.0000000000000002
 40
0.0470411463120155
100
AcDbArc
 50
43.57405058908686
 51
333.4312990519632
  0
LINE
  5
FF4
330
1F
100
AcDbEntity
  8
LOGO
 62
     7
100
AcDbLine
 10
0.6447889471142123
 20
4.837946106634607
 30
-0.0000000000000002
 11
0.6868624872902391
 21
4.837946106634607
 31
-0.0000000000000002
  0
LINE
  5
FF5
330
1F
100
AcDbEntity
  8
LOGO
 62
     7
100
AcDbLine
 10
0.6447889471142123
 20
4.88002634729004
 30
-0.0000000000000002
 11
0.6447889471142123
 21
4.837946106634607
 31
-0.0000000000000002
  0
ARC
  5
FF6
330
1F
100
AcDbEntity
  8
LOGO
 62
     7
100
AcDbCircle
 10
0.510708303908751
 20
5.021338889409598
 30
-0.0000000000000002
 40
0.0673816981175471
100
AcDbArc
 50
331.9838881131166
 51
57.97399661075228
  0
ARC
  5
FF7
330
1F
100
AcDbEntity
  8
LOGO
 62
     7
100
AcDbCircle
 10
0.3778713826537061
 20
5.021338889409598
 30
-0.0000000000000002
 40
0.0673816981175471
100
AcDbArc
 50
122.0260033892477
 51
208.0161118868835
  0
ARC
  5
FF8
330
1F
100
AcDbEntity
  8
LOGO
 62
     7
100
AcDbCircle
 10
0.4442898432812267
 20
4.99127790661545
 30
-0.0000000000000002
 40
0.0675108796499993
100
AcDbArc
 50
55.76830433924557
 51
124.2316956607548
  0
CIRCLE
  5
FF9
330
1F
100
AcDbEntity
  8
LOGO
 62
     7
100
AcDbCircle
 10
0.4442898432812267
 20
4.99127790661545
 30
-0.0000000000000002
 40
0.0432555883111094
  0
CIRCLE
  5
FFA
330
1F
100
AcDbEntity
  8
LOGO
 62
     7
100
AcDbCircle
 10
0.4442898432812267
 20
4.99127790661545
 30
-0.0000000000000002
 40
0.0311279426416641
  0
ARC
  5
FFB
330
1F
100
AcDbEntity
  8
LOGO
 62
     7
100
AcDbCircle
 10
0.4442898432812267
 20
4.743734602643874
 30
-0.0000000000000002
 40
0.3718478266740365
100
AcDbArc
 50
79.83810088077882
 51
100.1618991192212
  0
LINE
  5
FFC
330
1F
100
AcDbEntity
  8
LOGO
 62
     7
100
AcDbLine
 10
0.3937916055276435
 20
5.0360846790377
 30
-0.0000000000000002
 11
0.3592905311247307
 21
5.075893151742906
 31
-0.0000000000000002
  0
ARC
  5
FFD
330
1F
100
AcDbEntity
  8
LOGO
 62
     7
100
AcDbCircle
 10
0.3492115457721933
 20
5.067157930320851
 30
-0.0000000000000002
 40
0.0133375424658731
100
AcDbArc
 50
40.91471039347918
 51
122.0260033892479
  0
ARC
  5
FFE
330
1F
100
AcDbEntity
  8
LOGO
 62
     7
100
AcDbCircle
 10
0.381037793140263
 20
5.096620989510785
 30
-0.0000000000000002
 40
0.0133375424658731
100
AcDbArc
 50
100.1618991192205
 51
220.9147103934802
  0
LINE
  5
FFF
330
1F
100
AcDbEntity
  8
LOGO
 62
     7
100
AcDbLine
 10
0.4063122171752369
 20
5.047093843286533
 30
-0.0000000000000002
 11
0.3709588077877274
 21
5.087885768088731
 31
-0.0000000000000002
  0
ARC
  5
1000
330
1F
100
AcDbEntity
  8
LOGO
 62
     7
100
AcDbCircle
 10
0.5393681407902637
 20
5.067157930320851
 30
-0.0000000000000002
 40
0.0133375424658731
100
AcDbArc
 50
57.97399661075209
 51
139.0852896065208
  0
ARC
  5
1001
330
1F
100
AcDbEntity
  8
LOGO
 62
     7
100
AcDbCircle
 10
0.5075418934221922
 20
5.096620989510785
 30
-0.0000000000000002
 40
0.0133375424658731
100
AcDbArc
 50
319.0852896065217
 51
79.83810088077948
  0
LINE
  5
1002
330
1F
100
AcDbEntity
  8
LOGO
 62
     7
100
AcDbLine
 10
0.4822674693872184
 20
5.047093843286533
 30
-0.0000000000000002
 11
0.5176208787747296
 21
5.087885768088731
 31
-0.0000000000000002
  0
LINE
  5
1003
330
1F
100
AcDbEntity
  8
LOGO
 62
     7
100
AcDbLine
 10
0.4947880810348117
 20
5.0360846790377
 30
-0.0000000000000002
 11
0.5292891554377246
 21
5.075893151742906
 31
-0.0000000000000002
  0
LINE
  5
1155
330
1F
100
AcDbEntity
  8
0
100
AcDbLine
 10
1.281564869965294
 20
0.6673493966199687
 30
0.0
 11
6.996146959245744
 21
0.6673493966199687
 31
0.0
  0
CIRCLE
  5
1156
330
1F
100
AcDbEntity
  8
0
100
AcDbCircle
 10
1.031570630323863
 20
0.6656522972996979
 30
0.0
 40
0.25
  0
MTEXT
  5
1159
330
1F
100
AcDbEntity
  8
0
100
AcDbMText
 10
0.9259296555499281
 20
0.8255931106945916
 30
0.0
 40
0.2999999999999998
 41
0.2033641528566976
 71
     1
 72
     5
  1
{\fCentury Gothic|b0|i0|c0|p34;2\P}{\fromans.shx;\H0.6873x;
 73
     1
 44
1.0
  0
TEXT
  5
115A
330
1F
100
AcDbEntity
  8
0
100
AcDbText
 10
-5.901588624049658
 20
2.191303177677875
 30
0.0
 40
0.0888620774192805
  1
DIG MODEL: 14-007, 500'
 50
180.0
 71
     4
210
0.0
220
0.0
230
-1.0
100
AcDbText
  0
TEXT
  5
115B
330
1F
100
AcDbEntity
  8
0
100
AcDbText
 10
-5.901588624049658
 20
2.334622690401007
 30
0.0
 40
0.0888620774192805
  1
1/2" POLY TUBING 
 50
180.0
 71
     4
210
0.0
220
0.0
230
-1.0
100
AcDbText
  0
TEXT
  5
115C
330
1F
100
AcDbEntity
  8
0
100
AcDbText
 10
-5.901588624049658
 20
2.02509478155301
 30
0.0
 40
0.0888620774192805
  1
14-008, 1000'
 50
180.0
 71
     4
210
0.0
220
0.0
230
-1.0
100
AcDbText
  0
VIEWPORT
  5
11C0
330
73
100
AcDbEntity
 67
     1
  8
0
100
AcDbViewport
 10
7.8
 20
4.5
 30
0.0
 40
15.64
 41
9.0
 68
     1
 69
     1
 12
6.0
 22
4.5
 13
0.0
 23
0.0
 14
0.5
 24
0.5
 15
0.5
 25
0.5
 16
0.0
 26
0.0
 36
1.0
 17
0.0
 27
0.0
 37
0.0
 42
50.0
 43
0.0
 44
0.0
 45
12.0
 50
0.0
 51
0.0
 72
   100
 90
   557168
  1

281
     0
 71
     0
 74
     0
110
0.0
120
0.0
130
0.0
111
1.0
121
0.0
131
0.0
112
0.0
122
1.0
132
0.0
 79
     0
146
0.0
  0
ENDSEC
  0
SECTION
  2
OBJECTS
  0
DICTIONARY
  5
C
330
0
100
AcDbDictionary
281
     1
  3
ACAD_COLOR
350
6C
  3
ACAD_GROUP
350
D
  3
ACAD_LAYOUT
350
1A
  3
ACAD_MATERIAL
350
6B
  3
ACAD_MLEADERSTYLE
350
1148
  3
ACAD_MLINESTYLE
350
17
  3
ACAD_PLOTSETTINGS
350
19
  3
ACAD_PLOTSTYLENAME
350
E
  3
ACAD_SCALELIST
350
99
  3
ACAD_TABLESTYLE
350
92
  3
ACDB_RECOMPOSE_DATA
350
1152
  3
ACDBHEADERROUNDTRIPXREC
350
121B
  3
AcDbVariableDictionary
350
59
  3
ASE_INDEX_DICTIONARY
350
10C1
  3
DWGPROPS
350
121E
  0
DICTIONARY
  5
1219
330
1F
100
AcDbDictionary
280
     1
281
     1
  0
DICTIONARY
  5
6C
102
{ACAD_REACTORS
330
C
102
}
330
C
100
AcDbDictionary
281
     1
  0
DICTIONARY
  5
D
102
{ACAD_REACTORS
330
C
102
}
330
C
100
AcDbDictionary
281
     1
  0
DICTIONARY
  5
1A
102
{ACAD_REACTORS
330
C
102
}
330
C
100
AcDbDictionary
281
     1
  3
Layout1
350
74
  3
Model
350
22
  0
DICTIONARY
  5
6B
102
{ACAD_REACTORS
330
C
102
}
330
C
100
AcDbDictionary
281
     1
  0
DICTIONARY
  5
1148
102
{ACAD_REACTORS
330
C
102
}
330
C
100
AcDbDictionary
281
     1
  0
DICTIONARY
  5
17
102
{ACAD_REACTORS
330
C
102
}
330
C
100
AcDbDictionary
281
     1
  3
Standard
350
18
  0
DICTIONARY
  5
19
102
{ACAD_REACTORS
330
C
102
}
330
C
100
AcDbDictionary
281
     1
  0
ACDBDICTIONARYWDFLT
  5
E
102
{ACAD_REACTORS
330
C
102
}
330
C
100
AcDbDictionary
281
     1
  3
Normal
350
F
100
AcDbDictionaryWithDefault
340
F
  0
DICTIONARY
  5
99
102
{ACAD_REACTORS
330
C
102
}
330
C
100
AcDbDictionary
281
     1
  3
A0
350
10CC
  3
A1
350
10CD
  3
A2
350
10CE
  3
A3
350
10CF
  3
A4
350
10D0
  3
A5
350
10D1
  3
A6
350
10D2
  3
A7
350
10D3
  3
A8
350
10D4
  3
A9
350
10D5
  3
B0
350
10D6
  3
B1
350
10D7
  3
B2
350
10D8
  3
B3
350
10D9
  3
B4
350
10DA
  3
B5
350
10DB
  3
B6
350
10DC
  3
B7
350
10DD
  3
B8
350
10DE
  3
B9
350
10DF
  3
C0
350
10E0
  3
C1
350
10E1
  3
C2
350
10E2
  3
C3
350
10E3
  3
C4
350
10E4
  3
C5
350
10E5
  3
C6
350
10E6
  3
C7
350
10E7
  3
C8
350
10E8
  3
C9
350
10E9
  3
D0
350
10EA
  3
D1
350
10EB
  3
D2
350
10EC
  0
DICTIONARY
  5
92
102
{ACAD_REACTORS
330
C
102
}
330
C
100
AcDbDictionary
281
     1
  3
Standard
350
115F
  0
XRECORD
  5
1152
102
{ACAD_REACTORS
330
C
102
}
330
C
100
AcDbXrecord
280
     1
 90
        1
  0
DICTIONARY
  5
121B
102
{ACAD_REACTORS
330
C
102
}
330
C
100
AcDbDictionary
281
     1
  3
COLORDICT
350
121C
  3
MATERIALDICT
350
121D
  0
DICTIONARY
  5
59
102
{ACAD_REACTORS
330
C
102
}
330
C
100
AcDbDictionary
281
     1
  3
CANNOSCALE
350
121A
  3
CTABLESTYLE
350
98
  3
DIMASSOC
350
10ED
  3
HIDETEXT
350
1161
  3
SORTENTS
350
238
  3
XCLIPFRAME
350
1149
  0
DICTIONARY
  5
10C1
102
{ACAD_REACTORS
330
C
102
}
330
C
100
AcDbDictionary
281
     1
  3
ASEBLOCKHIERARCHYINDEXRECORD
350
10C3
  0
XRECORD
  5
121E
102
{ACAD_REACTORS
330
C
102
}
330
C
100
AcDbXrecord
280
     1
  1
DWGPROPS COOKIE
  2

  3

  4

  6

  7

  8
craigb
  9

300
=
301
=
302
=
303
=
304
=
305
=
306
=
307
=
308
=
309
=
 40
0.0
 41
2453353.717125822
 42
2455755.987539769
  1

 90
        0
  0
LAYOUT
  5
74
102
{ACAD_REACTORS
330
1A
102
}
330
1A
100
AcDbPlotSettings
  1

  2
\\ADSCCNDC1\hq601xrx1
  4

  6

 40
0.0
 41
0.0
 42
0.0
 43
0.0
 44
0.0
 45
0.0
 46
0.0
 47
0.0
 48
0.0
 49
0.0
140
0.0
141
0.0
142
1.0
143
1.0
 70
   672
 72
     0
 73
     0
 74
     5
  7

 75
    16
147
1.0
148
0.0
149
0.0
100
AcDbLayout
  1
Layout1
 70
     1
 71
     1
 10
0.0
 20
0.0
 11
12.0
 21
9.0
 12
0.0
 22
0.0
 32
0.0
 14
1.000000000000000E+20
 24
1.000000000000000E+20
 34
1.000000000000000E+20
 15
-1.000000000000000E+20
 25
-1.000000000000000E+20
 35
-1.000000000000000E+20
146
0.0
 13
0.0
 23
0.0
 33
0.0
 16
1.0
 26
0.0
 36
0.0
 17
0.0
 27
1.0
 37
0.0
 76
     0
330
73
331
11C0
  0
LAYOUT
  5
22
102
{ACAD_REACTORS
330
1A
102
}
330
1A
100
AcDbPlotSettings
  1

  2
none_device
  4
Sun_Hi-Res_(1280.00_x_1600.00_Pixels)
  6

 40
7.143749713897705
 41
12.47775650024414
 42
7.14373779296875
 43
3.17498779296875
 44
1280.0
 45
1600.0
 46
0.508
 47
0.0
 48
0.0
 49
0.0
140
0.0
141
0.0
142
1.0
143
0.009375
 70
 11956
 72
     2
 73
     0
 74
     1
  7

 75
     0
147
0.994551364176408
148
0.009301598918082
149
0.0080919119009501
100
AcDbLayout
  1
Model
 70
     1
 71
     0
 10
0.0
 20
0.0
 11
12.0
 21
9.0
 12
0.0
 22
0.0
 32
0.0
 14
-0.0000000216829044
 24
0.000000007295446
 34
-0.0000000000000002
 15
7.939999978317097
 25
5.220000007295446
 35
0.0
146
0.0
 13
0.0
 23
0.0
 33
0.0
 16
1.0
 26
0.0
 36
0.0
 17
0.0
 27
1.0
 37
0.0
 76
     0
330
1F
331
97
  0
MLINESTYLE
  5
18
102
{ACAD_REACTORS
330
17
102
}
330
17
100
AcDbMlineStyle
  2
Standard
 70
     0
  3

 62
   256
 51
90.0
 52
90.0
 71
     2
 49
0.5
 62
   256
  6
BYLAYER
 49
-0.5
 62
   256
  6
BYLAYER
  0
ACDBPLACEHOLDER
  5
F
102
{ACAD_REACTORS
330
E
102
}
330
E
  0
SCALE
  5
10CC
102
{ACAD_REACTORS
330
99
102
}
330
99
100
AcDbScale
 70
     0
300
1:1
140
1.0
141
1.0
290
     1
  0
SCALE
  5
10CD
102
{ACAD_REACTORS
330
99
102
}
330
99
100
AcDbScale
 70
     0
300
1:2
140
1.0
141
2.0
290
     0
  0
SCALE
  5
10CE
102
{ACAD_REACTORS
330
99
102
}
330
99
100
AcDbScale
 70
     0
300
1:4
140
1.0
141
4.0
290
     0
  0
SCALE
  5
10CF
102
{ACAD_REACTORS
330
99
102
}
330
99
100
AcDbScale
 70
     0
300
1:5
140
1.0
141
5.0
290
     0
  0
SCALE
  5
10D0
102
{ACAD_REACTORS
330
99
102
}
330
99
100
AcDbScale
 70
     0
300
1:8
140
1.0
141
8.0
290
     0
  0
SCALE
  5
10D1
102
{ACAD_REACTORS
330
99
102
}
330
99
100
AcDbScale
 70
     0
300
1:10
140
1.0
141
10.0
290
     0
  0
SCALE
  5
10D2
102
{ACAD_REACTORS
330
99
102
}
330
99
100
AcDbScale
 70
     0
300
1:16
140
1.0
141
16.0
290
     0
  0
SCALE
  5
10D3
102
{ACAD_REACTORS
330
99
102
}
330
99
100
AcDbScale
 70
     0
300
1:20
140
1.0
141
20.0
290
     0
  0
SCALE
  5
10D4
102
{ACAD_REACTORS
330
99
102
}
330
99
100
AcDbScale
 70
     0
300
1:30
140
1.0
141
30.0
290
     0
  0
SCALE
  5
10D5
102
{ACAD_REACTORS
330
99
102
}
330
99
100
AcDbScale
 70
     0
300
1:40
140
1.0
141
40.0
290
     0
  0
SCALE
  5
10D6
102
{ACAD_REACTORS
330
99
102
}
330
99
100
AcDbScale
 70
     0
300
1:50
140
1.0
141
50.0
290
     0
  0
SCALE
  5
10D7
102
{ACAD_REACTORS
330
99
102
}
330
99
100
AcDbScale
 70
     0
300
1:100
140
1.0
141
100.0
290
     0
  0
SCALE
  5
10D8
102
{ACAD_REACTORS
330
99
102
}
330
99
100
AcDbScale
 70
     0
300
2:1
140
2.0
141
1.0
290
     0
  0
SCALE
  5
10D9
102
{ACAD_REACTORS
330
99
102
}
330
99
100
AcDbScale
 70
     0
300
4:1
140
4.0
141
1.0
290
     0
  0
SCALE
  5
10DA
102
{ACAD_REACTORS
330
99
102
}
330
99
100
AcDbScale
 70
     0
300
8:1
140
8.0
141
1.0
290
     0
  0
SCALE
  5
10DB
102
{ACAD_REACTORS
330
99
102
}
330
99
100
AcDbScale
 70
     0
300
10:1
140
10.0
141
1.0
290
     0
  0
SCALE
  5
10DC
102
{ACAD_REACTORS
330
99
102
}
330
99
100
AcDbScale
 70
     0
300
100:1
140
100.0
141
1.0
290
     0
  0
SCALE
  5
10DD
102
{ACAD_REACTORS
330
99
102
}
330
99
100
AcDbScale
 70
     0
300
1/128" = 1'-0"
140
0.0078125
141
12.0
290
     0
  0
SCALE
  5
10DE
102
{ACAD_REACTORS
330
99
102
}
330
99
100
AcDbScale
 70
     0
300
1/64" = 1'-0"
140
0.015625
141
12.0
290
     0
  0
SCALE
  5
10DF
102
{ACAD_REACTORS
330
99
102
}
330
99
100
AcDbScale
 70
     0
300
1/32" = 1'-0"
140
0.03125
141
12.0
290
     0
  0
SCALE
  5
10E0
102
{ACAD_REACTORS
330
99
102
}
330
99
100
AcDbScale
 70
     0
300
1/16" = 1'-0"
140
0.0625
141
12.0
290
     0
  0
SCALE
  5
10E1
102
{ACAD_REACTORS
330
99
102
}
330
99
100
AcDbScale
 70
     0
300
3/32" = 1'-0"
140
0.09375
141
12.0
290
     0
  0
SCALE
  5
10E2
102
{ACAD_REACTORS
330
99
102
}
330
99
100
AcDbScale
 70
     0
300
1/8" = 1'-0"
140
0.125
141
12.0
290
     0
  0
SCALE
  5
10E3
102
{ACAD_REACTORS
330
99
102
}
330
99
100
AcDbScale
 70
     0
300
3/16" = 1'-0"
140
0.1875
141
12.0
290
     0
  0
SCALE
  5
10E4
102
{ACAD_REACTORS
330
99
102
}
330
99
100
AcDbScale
 70
     0
300
1/4" = 1'-0"
140
0.25
141
12.0
290
     0
  0
SCALE
  5
10E5
102
{ACAD_REACTORS
330
99
102
}
330
99
100
AcDbScale
 70
     0
300
3/8" = 1'-0"
140
0.375
141
12.0
290
     0
  0
SCALE
  5
10E6
102
{ACAD_REACTORS
330
99
102
}
330
99
100
AcDbScale
 70
     0
300
1/2" = 1'-0"
140
0.5
141
12.0
290
     0
  0
SCALE
  5
10E7
102
{ACAD_REACTORS
330
99
102
}
330
99
100
AcDbScale
 70
     0
300
3/4" = 1'-0"
140
0.75
141
12.0
290
     0
  0
SCALE
  5
10E8
102
{ACAD_REACTORS
330
99
102
}
330
99
100
AcDbScale
 70
     0
300
1" = 1'-0"
140
1.0
141
12.0
290
     0
  0
SCALE
  5
10E9
102
{ACAD_REACTORS
330
99
102
}
330
99
100
AcDbScale
 70
     0
300
1-1/2" = 1'-0"
140
1.5
141
12.0
290
     0
  0
SCALE
  5
10EA
102
{ACAD_REACTORS
330
99
102
}
330
99
100
AcDbScale
 70
     0
300
3" = 1'-0"
140
3.0
141
12.0
290
     0
  0
SCALE
  5
10EB
102
{ACAD_REACTORS
330
99
102
}
330
99
100
AcDbScale
 70
     0
300
6" = 1'-0"
140
6.0
141
12.0
290
     0
  0
SCALE
  5
10EC
102
{ACAD_REACTORS
330
99
102
}
330
99
100
AcDbScale
 70
     0
300
1'-0" = 1'-0"
140
12.0
141
12.0
290
     0
  0
TABLESTYLE
  5
115F
102
{ACAD_REACTORS
330
92
102
}
330
92
100
AcDbTableStyle
  3
Standard
 70
     0
 71
     0
 40
0.06
 41
0.06
280
     0
281
     0
  7
Standard
140
0.18
170
     2
 62
     0
 63
   257
283
     0
274
    -2
284
     1
 64
     0
275
    -2
285
     1
 65
     0
276
    -2
286
     1
 66
     0
277
    -2
287
     1
 67
     0
278
    -2
288
     1
 68
     0
279
    -2
289
     1
 69
     0
  7
Standard
140
0.25
170
     5
 62
     0
 63
   257
283
     0
274
    -2
284
     1
 64
     0
275
    -2
285
     1
 65
     0
276
    -2
286
     1
 66
     0
277
    -2
287
     1
 67
     0
278
    -2
288
     1
 68
     0
279
    -2
289
     1
 69
     0
  7
Standard
140
0.18
170
     5
 62
     0
 63
   257
283
     0
274
    -2
284
     1
 64
     0
275
    -2
285
     1
 65
     0
276
    -2
286
     1
 66
     0
277
    -2
287
     1
 67
     0
278
    -2
288
     1
 68
     0
279
    -2
289
     1
 69
     0
  0
XRECORD
  5
121C
102
{ACAD_REACTORS
330
121B
102
}
330
121B
100
AcDbXrecord
280
     1
340
6C
  0
XRECORD
  5
121D
102
{ACAD_REACTORS
330
121B
102
}
330
121B
100
AcDbXrecord
280
     1
340
6B
  0
DICTIONARYVAR
  5
121A
102
{ACAD_REACTORS
330
59
102
}
330
59
100
DictionaryVariables
280
     0
  1
1:1
  0
DICTIONARYVAR
  5
98
102
{ACAD_REACTORS
330
59
102
}
330
59
100
DictionaryVariables
280
     0
  1

  0
DICTIONARYVAR
  5
10ED
102
{ACAD_REACTORS
330
59
102
}
330
59
100
DictionaryVariables
280
     0
  1
2
  0
DICTIONARYVAR
  5
1161
102
{ACAD_REACTORS
330
59
102
}
330
59
100
DictionaryVariables
280
     0
  1
1
  0
DICTIONARYVAR
  5
238
102
{ACAD_REACTORS
330
59
102
}
330
59
100
DictionaryVariables
280
     0
  1
127
  0
DICTIONARYVAR
  5
1149
102
{ACAD_REACTORS
330
59
102
}
330
59
100
DictionaryVariables
280
     0
  1
0
  0
XRECORD
  5
10C3
102
{ACAD_REACTORS
330
10C1
102
}
330
10C1
100
AcDbXrecord
280
     1
330
0
330
0
330
F29
330
F2A
330
29
330
2D
  0
ENDSEC
  0
EOF
