  0
SECTION
  2
HEADER
  9
$ACADVER
  1
AC1015
  9
$ACADMAINTVER
 70
     6
  9
$DWGCODEPAGE
  3
ANSI_1252
  9
$INSBASE
 10
0.0
 20
0.0
 30
0.0
  9
$EXTMIN
 10
0.0
 20
0.0
 30
0.0
  9
$EXTMAX
 10
8.500000000000002
 20
11.0
 30
9.014866294703786
  9
$LIMMIN
 10
0.0
 20
0.0
  9
$LIMMAX
 10
0.0
 20
0.0
  9
$ORTHOMODE
 70
     1
  9
$REGENMODE
 70
     1
  9
$FILLMODE
 70
     1
  9
$QTEXTMODE
 70
     0
  9
$MIRRTEXT
 70
     1
  9
$LTSCALE
 40
1.0
  9
$ATTMODE
 70
     1
  9
$TEXTSIZE
 40
0.125
  9
$TRACEWID
 40
0.05
  9
$TEXTSTYLE
  7
Standard
  9
$CLAYER
  8
0
  9
$CELTYPE
  6
Continuous
  9
$CECOLOR
 62
   256
  9
$CELTSCALE
 40
1.0
  9
$DISPSILH
 70
     0
  9
$DIMSCALE
 40
1.0
  9
$DIMASZ
 40
0.125
  9
$DIMEXO
 40
0.05
  9
$DIMDLI
 40
0.38
  9
$DIMRND
 40
0.0
  9
$DIMDLE
 40
0.125
  9
$DIMEXE
 40
0.18
  9
$DIMTP
 40
0.0
  9
$DIMTM
 40
0.0
  9
$DIMTXT
 40
0.1
  9
$DIMCEN
 40
0.09
  9
$DIMTSZ
 40
0.0
  9
$DIMTOL
 70
     0
  9
$DIMLIM
 70
     0
  9
$DIMTIH
 70
     1
  9
$DIMTOH
 70
     1
  9
$DIMSE1
 70
     0
  9
$DIMSE2
 70
     0
  9
$DIMTAD
 70
     0
  9
$DIMZIN
 70
     0
  9
$DIMBLK
  1

  9
$DIMASO
 70
     1
  9
$DIMSHO
 70
     1
  9
$DIMPOST
  1

  9
$DIMAPOST
  1

  9
$DIMALT
 70
     0
  9
$DIMALTD
 70
     2
  9
$DIMALTF
 40
25.4
  9
$DIMLFAC
 40
6.0
  9
$DIMTOFL
 70
     0
  9
$DIMTVP
 40
0.0
  9
$DIMTIX
 70
     0
  9
$DIMSOXD
 70
     0
  9
$DIMSAH
 70
     0
  9
$DIMBLK1
  1

  9
$DIMBLK2
  1

  9
$DIMSTYLE
  2
Standard
  9
$DIMCLRD
 70
     0
  9
$DIMCLRE
 70
     0
  9
$DIMCLRT
 70
     0
  9
$DIMTFAC
 40
1.0
  9
$DIMGAP
 40
0.05
  9
$DIMJUST
 70
     0
  9
$DIMSD1
 70
     0
  9
$DIMSD2
 70
     0
  9
$DIMTOLJ
 70
     1
  9
$DIMTZIN
 70
     0
  9
$DIMALTZ
 70
     0
  9
$DIMALTTZ
 70
     0
  9
$DIMUPT
 70
     0
  9
$DIMDEC
 70
     4
  9
$DIMTDEC
 70
     4
  9
$DIMALTU
 70
     2
  9
$DIMALTTD
 70
     2
  9
$DIMTXSTY
  7
Standard
  9
$DIMAUNIT
 70
     0
  9
$DIMADEC
 70
     0
  9
$DIMALTRND
 40
0.0
  9
$DIMAZIN
 70
     0
  9
$DIMDSEP
 70
    46
  9
$DIMATFIT
 70
     3
  9
$DIMFRAC
 70
     0
  9
$DIMLDRBLK
  1

  9
$DIMLUNIT
 70
     2
  9
$DIMLWD
 70
    -2
  9
$DIMLWE
 70
    -2
  9
$DIMTMOVE
 70
     0
  9
$LUNITS
 70
     2
  9
$LUPREC
 70
     3
  9
$SKETCHINC
 40
0.1
  9
$FILLETRAD
 40
0.1
  9
$AUNITS
 70
     0
  9
$AUPREC
 70
     2
  9
$MENU
  1
.
  9
$ELEVATION
 40
0.0
  9
$PELEVATION
 40
0.0
  9
$THICKNESS
 40
0.0
  9
$LIMCHECK
 70
     0
  9
$CHAMFERA
 40
0.0
  9
$CHAMFERB
 40
0.0
  9
$CHAMFERC
 40
0.0
  9
$CHAMFERD
 40
0.0
  9
$SKPOLY
 70
     0
  9
$TDCREATE
 40
2453353.383792488
  9
$TDUCREATE
 40
2453353.717125822
  9
$TDUPDATE
 40
2454510.428232685
  9
$TDUUPDATE
 40
2454510.761566019
  9
$TDINDWG
 40
0.2516985301
  9
$TDUSRTIMER
 40
0.2514901736
  9
$USRTIMER
 70
     1
  9
$ANGBASE
 50
0.0
  9
$ANGDIR
 70
     0
  9
$PDMODE
 70
     0
  9
$PDSIZE
 40
-1.0
  9
$PLINEWID
 40
0.0
  9
$SPLFRAME
 70
     0
  9
$SPLINETYPE
 70
     6
  9
$SPLINESEGS
 70
     8
  9
$HANDSEED
  5
C5E
  9
$SURFTAB1
 70
     6
  9
$SURFTAB2
 70
     6
  9
$SURFTYPE
 70
     6
  9
$SURFU
 70
     6
  9
$SURFV
 70
     6
  9
$UCSBASE
  2

  9
$UCSNAME
  2

  9
$UCSORG
 10
0.0
 20
0.0
 30
0.0
  9
$UCSXDIR
 10
1.0
 20
0.0
 30
0.0
  9
$UCSYDIR
 10
0.0
 20
1.0
 30
0.0
  9
$UCSORTHOREF
  2

  9
$UCSORTHOVIEW
 70
     0
  9
$UCSORGTOP
 10
0.0
 20
0.0
 30
0.0
  9
$UCSORGBOTTOM
 10
0.0
 20
0.0
 30
0.0
  9
$UCSORGLEFT
 10
0.0
 20
0.0
 30
0.0
  9
$UCSORGRIGHT
 10
0.0
 20
0.0
 30
0.0
  9
$UCSORGFRONT
 10
0.0
 20
0.0
 30
0.0
  9
$UCSORGBACK
 10
0.0
 20
0.0
 30
0.0
  9
$PUCSBASE
  2

  9
$PUCSNAME
  2

  9
$PUCSORG
 10
0.0
 20
0.0
 30
0.0
  9
$PUCSXDIR
 10
1.0
 20
0.0
 30
0.0
  9
$PUCSYDIR
 10
0.0
 20
1.0
 30
0.0
  9
$PUCSORTHOREF
  2

  9
$PUCSORTHOVIEW
 70
     0
  9
$PUCSORGTOP
 10
0.0
 20
0.0
 30
0.0
  9
$PUCSORGBOTTOM
 10
0.0
 20
0.0
 30
0.0
  9
$PUCSORGLEFT
 10
0.0
 20
0.0
 30
0.0
  9
$PUCSORGRIGHT
 10
0.0
 20
0.0
 30
0.0
  9
$PUCSORGFRONT
 10
0.0
 20
0.0
 30
0.0
  9
$PUCSORGBACK
 10
0.0
 20
0.0
 30
0.0
  9
$USERI1
 70
     0
  9
$USERI2
 70
     0
  9
$USERI3
 70
     0
  9
$USERI4
 70
     0
  9
$USERI5
 70
     0
  9
$USERR1
 40
0.0
  9
$USERR2
 40
0.0
  9
$USERR3
 40
0.0
  9
$USERR4
 40
0.0
  9
$USERR5
 40
0.0
  9
$WORLDVIEW
 70
     1
  9
$SHADEDGE
 70
     3
  9
$SHADEDIF
 70
    70
  9
$TILEMODE
 70
     1
  9
$MAXACTVP
 70
    16
  9
$PINSBASE
 10
0.0
 20
0.0
 30
0.0
  9
$PLIMCHECK
 70
     0
  9
$PEXTMIN
 10
1.000000000000000E+20
 20
1.000000000000000E+20
 30
1.000000000000000E+20
  9
$PEXTMAX
 10
-1.000000000000000E+20
 20
-1.000000000000000E+20
 30
-1.000000000000000E+20
  9
$PLIMMIN
 10
0.0
 20
0.0
  9
$PLIMMAX
 10
12.0
 20
9.0
  9
$UNITMODE
 70
     0
  9
$VISRETAIN
 70
     0
  9
$PLINEGEN
 70
     1
  9
$PSLTSCALE
 70
     1
  9
$TREEDEPTH
 70
  3020
  9
$CMLSTYLE
  2
Standard
  9
$CMLJUST
 70
     0
  9
$CMLSCALE
 40
1.0
  9
$PROXYGRAPHICS
 70
     1
  9
$MEASUREMENT
 70
     0
  9
$CELWEIGHT
370
    -1
  9
$ENDCAPS
280
     0
  9
$JOINSTYLE
280
     0
  9
$LWDISPLAY
290
     0
  9
$INSUNITS
 70
     0
  9
$HYPERLINKBASE
  1

  9
$STYLESHEET
  1

  9
$XEDIT
290
     0
  9
$CEPSNTYPE
380
     0
  9
$PSTYLEMODE
290
     1
  9
$FINGERPRINTGUID
  2
{56B7DC4F-F633-4F73-8795-60AD845FD596}
  9
$VERSIONGUID
  2
{2E5FC947-C9B1-4CB8-819C-03C7A64E8E38}
  9
$EXTNAMES
290
     1
  9
$PSVPSCALE
 40
0.0
  9
$OLESTARTUP
290
     0
  0
ENDSEC
  0
SECTION
  2
CLASSES
  0
CLASS
  1
ACDBDICTIONARYWDFLT
  2
AcDbDictionaryWithDefault
  3
ObjectDBX Classes
 90
        0
280
     0
281
     0
  0
CLASS
  1
ACDBPLACEHOLDER
  2
AcDbPlaceHolder
  3
ObjectDBX Classes
 90
        0
280
     0
281
     0
  0
CLASS
  1
LAYOUT
  2
AcDbLayout
  3
ObjectDBX Classes
 90
        0
280
     0
281
     0
  0
CLASS
  1
DICTIONARYVAR
  2
AcDbDictionaryVar
  3
ObjectDBX Classes
 90
        0
280
     0
281
     0
  0
CLASS
  1
TABLESTYLE
  2
AcDbTableStyle
  3
ObjectDBX Classes
 90
     4095
280
     0
281
     0
  0
ENDSEC
  0
SECTION
  2
TABLES
  0
TABLE
  2
VPORT
  5
8
330
0
100
AcDbSymbolTable
 70
     2
  0
VPORT
  5
97
330
8
100
AcDbSymbolTableRecord
100
AcDbViewportTableRecord
  2
*Active
 70
     0
 10
0.0
 20
0.0
 11
1.0
 21
1.0
 12
4.250000000000001
 22
5.5
 13
0.0
 23
0.0
 14
1.0
 24
1.0
 15
0.0
 25
0.0
 16
0.0
 26
0.0
 36
1.0
 17
0.0
 27
0.0
 37
0.0
 40
11.22
 41
1.704119850187266
 42
50.0
 43
0.0
 44
0.0
 50
0.0
 51
0.0
 71
    16
 72
  2000
 73
     1
 74
     1
 75
     0
 76
     0
 77
     0
 78
     0
281
     0
 65
     0
110
0.0
120
0.0
130
0.0
111
1.0
121
0.0
131
0.0
112
0.0
122
1.0
132
0.0
 79
     0
146
0.0
  0
ENDTAB
  0
TABLE
  2
LTYPE
  5
5
330
0
100
AcDbSymbolTable
 70
     6
  0
LTYPE
  5
14
330
5
100
AcDbSymbolTableRecord
100
AcDbLinetypeTableRecord
  2
ByBlock
 70
     0
  3

 72
    65
 73
     0
 40
0.0
  0
LTYPE
  5
15
330
5
100
AcDbSymbolTableRecord
100
AcDbLinetypeTableRecord
  2
ByLayer
 70
     0
  3

 72
    65
 73
     0
 40
0.0
  0
LTYPE
  5
16
330
5
100
AcDbSymbolTableRecord
100
AcDbLinetypeTableRecord
  2
Continuous
 70
     0
  3
Solid line
 72
    65
 73
     0
 40
0.0
  0
LTYPE
  5
C53
330
5
100
AcDbSymbolTableRecord
100
AcDbLinetypeTableRecord
  2
HIDDEN
 70
     0
  3
Hidden __ __ __ __ __ __ __ __ __ __ __ __ __ __
 72
    65
 73
     2
 40
0.075
 49
0.05
 74
     4
 75
     0
340
0
 46
1.0
 50
0.0
 44
0.0
 45
0.0
 49
-0.025
 74
     4
 75
     0
340
0
 46
1.0
 50
0.0
 44
0.0
 45
0.0
  0
LTYPE
  5
C54
330
5
100
AcDbSymbolTableRecord
100
AcDbLinetypeTableRecord
  2
PHANTOM
 70
     0
  3
Phantom ______  __  __  ______  __  __  ______
 72
    65
 73
     6
 40
0.4999999999999999
 49
0.25
 74
     4
 75
     0
340
0
 46
1.0
 50
0.0
 44
0.0
 45
0.0
 49
-0.05
 74
     4
 75
     0
340
0
 46
1.0
 50
0.0
 44
0.0
 45
0.0
 49
0.05
 74
     4
 75
     0
340
0
 46
1.0
 50
0.0
 44
0.0
 45
0.0
 49
-0.05
 74
     4
 75
     0
340
0
 46
1.0
 50
0.0
 44
0.0
 45
0.0
 49
0.05
 74
     4
 75
     0
340
0
 46
1.0
 50
0.0
 44
0.0
 45
0.0
 49
-0.05
 74
     4
 75
     0
340
0
 46
1.0
 50
0.0
 44
0.0
 45
0.0
  0
LTYPE
  5
C55
330
5
100
AcDbSymbolTableRecord
100
AcDbLinetypeTableRecord
  2
CENTER
 70
     0
  3
Center ____ _ ____ _ ____ _ ____ _ ____ _ ____
 72
    65
 73
     4
 40
0.4
 49
0.25
 74
     4
 75
     0
340
0
 46
1.0
 50
0.0
 44
0.0
 45
0.0
 49
-0.05
 74
     4
 75
     0
340
0
 46
1.0
 50
0.0
 44
0.0
 45
0.0
 49
0.05
 74
     4
 75
     0
340
0
 46
1.0
 50
0.0
 44
0.0
 45
0.0
 49
-0.05
 74
     4
 75
     0
340
0
 46
1.0
 50
0.0
 44
0.0
 45
0.0
  0
LTYPE
  5
C56
330
5
100
AcDbSymbolTableRecord
100
AcDbLinetypeTableRecord
  2
CENTERX2
 70
     0
  3
Center (2x) ________  __  ________  __  _____
 72
    65
 73
     4
 40
0.7999999999999999
 49
0.5
 74
     4
 75
     0
340
0
 46
1.0
 50
0.0
 44
0.0
 45
0.0
 49
-0.1
 74
     4
 75
     0
340
0
 46
1.0
 50
0.0
 44
0.0
 45
0.0
 49
0.1
 74
     4
 75
     0
340
0
 46
1.0
 50
0.0
 44
0.0
 45
0.0
 49
-0.1
 74
     4
 75
     0
340
0
 46
1.0
 50
0.0
 44
0.0
 45
0.0
  0
LTYPE
  5
C57
330
5
100
AcDbSymbolTableRecord
100
AcDbLinetypeTableRecord
  2
DOT2
 70
     0
  3
Dot (.5x) ........................................
 72
    65
 73
     2
 40
0.025
 49
0.0
 74
     4
 75
     0
340
0
 46
1.0
 50
0.0
 44
0.0
 45
0.0
 49
-0.025
 74
     4
 75
     0
340
0
 46
1.0
 50
0.0
 44
0.0
 45
0.0
  0
ENDTAB
  0
TABLE
  2
LAYER
  5
2
330
0
100
AcDbSymbolTable
 70
     3
  0
LAYER
  5
10
330
2
100
AcDbSymbolTableRecord
100
AcDbLayerTableRecord
  2
0
 70
     0
 62
     7
  6
Continuous
370
    -3
390
F
  0
LAYER
  5
26
330
2
100
AcDbSymbolTableRecord
100
AcDbLayerTableRecord
  2
DEFPOINTS
 70
     0
 62
     7
  6
Continuous
290
     0
370
    -3
390
F
  0
LAYER
  5
648
330
2
100
AcDbSymbolTableRecord
100
AcDbLayerTableRecord
  2
DET-IMAGE
 70
     0
 62
     5
  6
Continuous
370
    -3
390
F
  0
ENDTAB
  0
TABLE
  2
STYLE
  5
3
330
0
100
AcDbSymbolTable
 70
     2
  0
STYLE
  5
11
330
3
100
AcDbSymbolTableRecord
100
AcDbTextStyleTableRecord
  2
Standard
 70
     0
 40
0.125
 41
1.0
 50
0.0
 71
     0
 42
0.125
  3
ARIAL.TTF
  4

1001
ACAD
1000
Arial
1071
       34
  0
STYLE
  5
B99
330
3
100
AcDbSymbolTableRecord
100
AcDbTextStyleTableRecord
  2
SLDTEXTSTYLE0
 70
     0
 40
0.0
 41
0.75
 50
0.0
 71
     0
 42
0.2
  3
SIMPLEX
  4

  0
ENDTAB
  0
TABLE
  2
VIEW
  5
6
330
0
100
AcDbSymbolTable
 70
     0
  0
ENDTAB
  0
TABLE
  2
UCS
  5
7
330
0
100
AcDbSymbolTable
 70
     0
  0
ENDTAB
  0
TABLE
  2
APPID
  5
9
330
0
100
AcDbSymbolTable
 70
     2
  0
APPID
  5
12
330
9
100
AcDbSymbolTableRecord
100
AcDbRegAppTableRecord
  2
ACAD
 70
     0
  0
APPID
  5
C52
330
9
100
AcDbSymbolTableRecord
100
AcDbRegAppTableRecord
  2
DCO15
 70
     0
  0
ENDTAB
  0
TABLE
  2
DIMSTYLE
  5
A
330
0
100
AcDbSymbolTable
 70
     2
100
AcDbDimStyleTable
  0
DIMSTYLE
105
27
330
A
100
AcDbSymbolTableRecord
100
AcDbDimStyleTableRecord
  2
Standard
 70
     0
289
     0
340
11
  0
DIMSTYLE
105
BBE
330
A
100
AcDbSymbolTableRecord
100
AcDbDimStyleTableRecord
  2
SLDDIMSTYLE1
 70
     0
 41
0.09
 44
0.0
140
6.0
147
1.5
173
     1
271
     0
272
     0
289
     0
340
11
  0
ENDTAB
  0
TABLE
  2
BLOCK_RECORD
  5
1
330
0
100
AcDbSymbolTable
 70
     0
  0
BLOCK_RECORD
  5
1F
330
1
100
AcDbSymbolTableRecord
100
AcDbBlockTableRecord
  2
*Model_Space
340
22
  0
BLOCK_RECORD
  5
73
330
1
100
AcDbSymbolTableRecord
100
AcDbBlockTableRecord
  2
*Paper_Space
340
74
  0
ENDTAB
  0
ENDSEC
  0
SECTION
  2
BLOCKS
  0
BLOCK
  5
20
330
1F
100
AcDbEntity
  8
0
100
AcDbBlockBegin
  2
*Model_Space
 70
     0
 10
0.0
 20
0.0
 30
0.0
  3
*Model_Space
  1

  0
ENDBLK
  5
21
330
1F
100
AcDbEntity
  8
0
100
AcDbBlockEnd
  0
BLOCK
  5
75
330
73
100
AcDbEntity
 67
     1
  8
0
100
AcDbBlockBegin
  2
*Paper_Space
 70
     0
 10
0.0
 20
0.0
 30
0.0
  3
*Paper_Space
  1

  0
ENDBLK
  5
76
330
73
100
AcDbEntity
 67
     1
  8
0
100
AcDbBlockEnd
  0
ENDSEC
  0
SECTION
  2
ENTITIES
  0
LINE
  5
28
330
1F
100
AcDbEntity
  8
0
  6
Continuous
 62
     7
100
AcDbLine
 10
0.0
 20
11.0
 30
0.0
 11
8.500000000000002
 21
11.0
 31
0.0
  0
LINE
  5
29
330
1F
100
AcDbEntity
  8
0
  6
Continuous
 62
     7
100
AcDbLine
 10
0.0
 20
11.0
 30
0.0
 11
0.0
 21
0.0
 31
0.0
  0
LINE
  5
2A
330
1F
100
AcDbEntity
  8
0
  6
Continuous
 62
     7
100
AcDbLine
 10
8.500000000000002
 20
0.0000000000000016
 30
0.0
 11
0.0
 21
0.0
 31
0.0
  0
LINE
  5
2B
330
1F
100
AcDbEntity
  8
0
  6
Continuous
 62
     7
100
AcDbLine
 10
8.500000000000002
 20
0.0000000000000016
 30
0.0
 11
8.500000000000002
 21
11.0
 31
0.0
  0
LINE
  5
2C
330
1F
100
AcDbEntity
  8
0
  6
Continuous
 62
     7
100
AcDbLine
 10
8.499999999999996
 20
11.0
 30
0.0
 11
8.499999999999996
 21
10.75
 31
0.0
  0
LINE
  5
2D
330
1F
100
AcDbEntity
  8
0
  6
Continuous
 62
     7
100
AcDbLine
 10
2.995165677823374
 20
3.076510698256444
 30
0.0
 11
2.995165677823374
 21
8.399065399046775
 31
0.0
  0
LINE
  5
2E
330
1F
100
AcDbEntity
  8
0
  6
Continuous
 62
     7
100
AcDbLine
 10
2.995165677823374
 20
8.585215496361466
 30
0.0
 11
2.995165677823374
 21
8.613177364923109
 31
0.0
  0
LINE
  5
2F
330
1F
100
AcDbEntity
  8
0
  6
Continuous
 62
     7
100
AcDbLine
 10
2.678499011156707
 20
8.613177364923109
 30
0.0
 11
2.678499011156707
 21
8.585215496361466
 31
0.0
  0
LINE
  5
30
330
1F
100
AcDbEntity
  8
0
  6
Continuous
 62
     7
100
AcDbLine
 10
2.678499011156707
 20
8.399065399046775
 30
0.0
 11
2.678499011156707
 21
3.076510698256444
 31
0.0
  0
ARC
  5
31
330
1F
100
AcDbEntity
  8
0
  6
Continuous
 62
     7
100
AcDbCircle
 10
1.578499011156707
 20
3.076510698256444
 30
0.0
 40
1.1
100
AcDbArc
 50
270.0000000000008
 51
0.0
  0
ARC
  5
32
330
1F
100
AcDbEntity
  8
0
  6
Continuous
 62
     7
100
AcDbCircle
 10
1.578499011156707
 20
3.076510698256444
 30
0.0
 40
1.416666666666667
100
AcDbArc
 50
270.0000000000008
 51
0.0
  0
LINE
  5
33
330
1F
100
AcDbEntity
  8
0
  6
Continuous
 62
     7
100
AcDbLine
 10
1.015999011156707
 20
1.659844031589778
 30
0.0
 11
1.578499011156707
 21
1.659844031589778
 31
0.0
  0
LINE
  5
34
330
1F
100
AcDbEntity
  8
0
  6
Continuous
 62
     7
100
AcDbLine
 10
1.578499011156707
 20
1.976510698256444
 30
0.0
 11
1.015999011156707
 21
1.976510698256444
 31
0.0
  0
LINE
  5
B6
330
1F
100
AcDbEntity
  8
0
  6
Continuous
 62
     7
100
AcDbLine
 10
3.05333234449004
 20
10.19077736492311
 30
0.0
 11
2.619999011156707
 21
10.19077736492311
 31
0.0
  0
LINE
  5
B7
330
1F
100
AcDbEntity
  8
0
  6
Continuous
 62
     7
100
AcDbLine
 10
1.015999011156707
 20
1.818177364923111
 30
0.0
 11
1.015999011156707
 21
1.976510698256444
 31
0.0
  0
LINE
  5
B8
330
1F
100
AcDbEntity
  8
0
  6
Continuous
 62
     7
100
AcDbLine
 10
1.015999011156707
 20
1.659844031589778
 30
0.0
 11
1.015999011156707
 21
1.818177364923111
 31
0.0
  0
LINE
  5
403
330
1F
100
AcDbEntity
  8
0
  6
Continuous
 62
     7
100
AcDbLine
 10
2.386415677823373
 20
10.01984403158978
 30
0.0
 11
2.386415677823373
 21
10.02031069825644
 31
0.0
  0
LINE
  5
404
330
1F
100
AcDbEntity
  8
0
  6
Continuous
 62
     7
100
AcDbLine
 10
3.287249011156707
 20
10.02031069825644
 30
0.0
 11
3.287249011156707
 21
10.01984403158978
 31
0.0
  0
LWPOLYLINE
  5
405
330
1F
100
AcDbEntity
  8
0
  6
Continuous
 62
     7
100
AcDbPolyline
 90
        5
 70
   128
 43
0.0
 10
2.61125188725158
 20
8.616724488828236
 10
2.612830584846381
 20
8.615428878144003
 10
2.614631695024866
 20
8.614466148774554
 10
2.616585995443195
 20
8.613873301445457
 10
2.618618376173539
 20
8.613673121149079
  0
LINE
  5
40C
330
1F
100
AcDbEntity
  8
0
  6
Continuous
 62
     7
100
AcDbLine
 10
2.434609370938459
 20
8.793367005141357
 30
0.0
 11
2.61125188725158
 21
8.616724488828236
 31
0.0
  0
ARC
  5
40D
330
1F
100
AcDbEntity
  8
0
  6
Continuous
 62
     7
100
AcDbCircle
 10
2.620367878395971
 20
8.979125512598868
 30
0.0
 40
0.2627022005725972
100
AcDbArc
 50
180.0000000000004
 51
225.0000000000009
  0
LINE
  5
40E
330
1F
100
AcDbEntity
  8
0
  6
Continuous
 62
     7
100
AcDbLine
 10
2.357665677823374
 20
9.929677364923108
 30
0.0
 11
2.357665677823374
 21
9.929325281589776
 31
0.0
  0
ARC
  5
40F
330
1F
100
AcDbEntity
  8
0
  6
Continuous
 62
     7
100
AcDbCircle
 10
2.618541481242188
 20
9.929677364923108
 30
0.0
 40
0.2608758034188147
100
AcDbArc
 50
159.6704406420492
 51
160.2317177093612
  0
ARC
  5
410
330
1F
100
AcDbEntity
  8
0
  6
Continuous
 62
     7
100
AcDbCircle
 10
2.618541481242188
 20
9.929677364923108
 30
0.0
 40
0.2608758034188141
100
AcDbArc
 50
170.8878114779349
 51
180.0000000000004
  0
LINE
  5
411
330
1F
100
AcDbEntity
  8
0
  6
Continuous
 62
     7
100
AcDbLine
 10
3.315999011156706
 20
9.929325281589776
 30
0.0
 11
3.315999011156706
 21
9.929677364923108
 31
0.0
  0
ARC
  5
412
330
1F
100
AcDbEntity
  8
0
  6
Continuous
 62
     7
100
AcDbCircle
 10
3.055123207737892
 20
9.929677364923108
 30
0.0
 40
0.2608758034188138
100
AcDbArc
 50
0.0
 51
10.37056927985773
  0
ARC
  5
413
330
1F
100
AcDbEntity
  8
0
  6
Continuous
 62
     7
100
AcDbCircle
 10
3.055123207737892
 20
9.929677364923108
 30
0.0
 40
0.2608758034188139
100
AcDbArc
 50
19.74109820753078
 51
20.3295593579501
  0
LINE
  5
415
330
1F
100
AcDbEntity
  8
0
  6
Continuous
 62
     7
100
AcDbLine
 10
3.243165677823374
 20
9.047677364923109
 30
0.0
 11
3.243165677823374
 21
9.85692736492311
 31
0.0
  0
ARC
  5
416
330
1F
100
AcDbEntity
  8
0
  6
Continuous
 62
     7
100
AcDbCircle
 10
3.170249011156707
 20
9.85692736492311
 30
0.0
 40
0.072916666666667
100
AcDbArc
 50
0.0
 51
2.739523143955652
  0
LINE
  5
417
330
1F
100
AcDbEntity
  8
0
  6
Continuous
 62
     7
100
AcDbLine
 10
3.24308234449004
 20
9.860412452200839
 30
0.0
 11
3.24308234449004
 21
9.929210698256442
 31
0.0
  0
LINE
  5
418
330
1F
100
AcDbEntity
  8
0
  6
Continuous
 62
     7
100
AcDbLine
 10
3.315999011156707
 20
9.929210698256442
 30
0.0
 11
3.24308234449004
 21
9.929210698256442
 31
0.0
  0
LINE
  5
419
330
1F
100
AcDbEntity
  8
0
  6
Continuous
 62
     7
100
AcDbLine
 10
3.315999011156707
 20
9.929210698256442
 30
0.0
 11
3.315999011156707
 21
8.978658845932204
 31
0.0
  0
LINE
  5
41A
330
1F
100
AcDbEntity
  8
0
  6
Continuous
 62
     7
100
AcDbLine
 10
3.315999011156707
 20
8.978658845932204
 30
0.0
 11
3.24308234449004
 21
8.978658845932204
 31
0.0
  0
LINE
  5
41B
330
1F
100
AcDbEntity
  8
0
  6
Continuous
 62
     7
100
AcDbLine
 10
3.24308234449004
 20
8.978658845932204
 30
0.0
 11
3.24308234449004
 21
9.04129873849744
 31
0.0
  0
ARC
  5
41C
330
1F
100
AcDbEntity
  8
0
  6
Continuous
 62
     7
100
AcDbCircle
 10
2.999002760688016
 20
9.047677364923109
 30
0.0
 40
0.2441629171353581
100
AcDbArc
 50
358.5030079029598
 51
0.0
  0
LINE
  5
41D
330
1F
100
AcDbEntity
  8
0
  6
Continuous
 62
     7
100
AcDbLine
 10
2.430582344490041
 20
9.929210698256442
 30
0.0
 11
2.430582344490041
 21
9.86041245220084
 31
0.0
  0
ARC
  5
41E
330
1F
100
AcDbEntity
  8
0
  6
Continuous
 62
     7
100
AcDbCircle
 10
2.503415677823373
 20
9.85692736492311
 30
0.0
 40
0.0729166666666665
100
AcDbArc
 50
177.2604768560444
 51
180.0000000000004
  0
LINE
  5
41F
330
1F
100
AcDbEntity
  8
0
  6
Continuous
 62
     7
100
AcDbLine
 10
2.430499011156707
 20
9.85692736492311
 30
0.0
 11
2.430499011156707
 21
9.047677364923109
 31
0.0
  0
ARC
  5
420
330
1F
100
AcDbEntity
  8
0
  6
Continuous
 62
     7
100
AcDbCircle
 10
2.674661928292065
 20
9.047677364923109
 30
0.0
 40
0.2441629171353582
100
AcDbArc
 50
180.0000000000004
 51
181.4969920970391
  0
LINE
  5
421
330
1F
100
AcDbEntity
  8
0
  6
Continuous
 62
     7
100
AcDbLine
 10
2.43058234449004
 20
9.04129873849744
 30
0.0
 11
2.43058234449004
 21
8.978658845932202
 31
0.0
  0
LINE
  5
422
330
1F
100
AcDbEntity
  8
0
  6
Continuous
 62
     7
100
AcDbLine
 10
2.43058234449004
 20
8.978658845932202
 30
0.0
 11
2.357665677823374
 21
8.978658845932202
 31
0.0
  0
LINE
  5
423
330
1F
100
AcDbEntity
  8
0
  6
Continuous
 62
     7
100
AcDbLine
 10
2.357665677823374
 20
8.978658845932202
 30
0.0
 11
2.357665677823374
 21
9.929210698256442
 31
0.0
  0
LINE
  5
424
330
1F
100
AcDbEntity
  8
0
  6
Continuous
 62
     7
100
AcDbLine
 10
2.430582344490041
 20
9.929210698256442
 30
0.0
 11
2.357665677823374
 21
9.929210698256442
 31
0.0
  0
LWPOLYLINE
  5
425
330
1F
100
AcDbEntity
  8
0
  6
Continuous
 62
     7
100
AcDbPolyline
 90
        7
 70
   128
 43
0.0
 10
3.24308234449004
 20
9.929210698256442
 10
3.243843958317863
 20
9.937133804296918
 10
3.246128799801336
 20
9.946481698668714
 10
3.249414294265278
 20
9.956333549229043
 10
3.253338107552917
 20
9.967328876097154
 10
3.261929395558306
 20
9.994835466648432
 10
3.266998141519757
 20
10.01984403158978
  0
LINE
  5
42E
330
1F
100
AcDbEntity
  8
0
  6
Continuous
 62
     7
100
AcDbLine
 10
3.179838588832502
 20
9.929210698256442
 30
0.0
 11
3.24308234449004
 21
9.929210698256442
 31
0.0
  0
LINE
  5
42F
330
1F
100
AcDbEntity
  8
0
  6
Continuous
 62
     7
100
AcDbLine
 10
3.170249011156706
 20
9.929844031589775
 30
0.0
 11
3.179838588832502
 21
9.929210698256442
 31
0.0
  0
LINE
  5
430
330
1F
100
AcDbEntity
  8
0
  6
Continuous
 62
     7
100
AcDbLine
 10
2.503415677823374
 20
9.929844031589775
 30
0.0
 11
3.170249011156706
 21
9.929844031589775
 31
0.0
  0
LINE
  5
431
330
1F
100
AcDbEntity
  8
0
  6
Continuous
 62
     7
100
AcDbLine
 10
2.493826100147578
 20
9.929210698256442
 30
0.0
 11
2.503415677823374
 21
9.929844031589775
 31
0.0
  0
LINE
  5
432
330
1F
100
AcDbEntity
  8
0
  6
Continuous
 62
     7
100
AcDbLine
 10
2.430582344490041
 20
9.929210698256442
 30
0.0
 11
2.493826100147578
 21
9.929210698256442
 31
0.0
  0
LWPOLYLINE
  5
433
330
1F
100
AcDbEntity
  8
0
  6
Continuous
 62
     7
100
AcDbPolyline
 90
        7
 70
   128
 43
0.0
 10
2.406665377904665
 20
10.01984403158978
 10
2.409018288383865
 20
10.00627140864379
 10
2.412322456900972
 20
9.992586488983738
 10
2.415797066373217
 20
9.981008221101733
 10
2.420353124225127
 20
9.967563561189847
 10
2.427541561536846
 20
9.946599331989926
 10
2.430582344490041
 20
9.929210698256442
  0
LINE
  5
43C
330
1F
100
AcDbEntity
  8
0
  6
Continuous
 62
     7
100
AcDbLine
 10
3.266998141429319
 20
10.01984403158978
 30
0.0
 11
2.406665378010536
 21
10.01984403158978
 31
0.0
  0
ARC
  5
43D
330
1F
100
AcDbEntity
  8
0
  6
Continuous
 62
     7
100
AcDbCircle
 10
3.170249011156707
 20
9.85692736492311
 30
0.0
 40
0.0729166666666672
100
AcDbArc
 50
2.739523143959246
 51
82.44289862502531
  0
ARC
  5
43E
330
1F
100
AcDbEntity
  8
0
  6
Continuous
 62
     7
100
AcDbCircle
 10
2.503415677823373
 20
9.85692736492311
 30
0.0
 40
0.0729166666666671
100
AcDbArc
 50
97.55710137497434
 51
177.2604768560344
  0
LWPOLYLINE
  5
43F
330
1F
100
AcDbEntity
  8
0
  6
Continuous
 62
     7
100
AcDbPolyline
 90
        7
 70
   128
 43
0.0
 10
2.357665677823374
 20
9.929210698256442
 10
2.357893793269734
 20
9.940117923569318
 10
2.358732418574047
 20
9.952778383015739
 10
2.360496263166137
 20
9.967536280280655
 10
2.363604891790141
 20
9.98455977384014
 10
2.367940159322891
 20
10.00170319622494
 10
2.373915677823374
 20
10.01984403158978
  0
LINE
  5
448
330
1F
100
AcDbEntity
  8
0
  6
Continuous
 62
     7
100
AcDbLine
 10
2.373919224855891
 20
10.01984403158978
 30
0.0
 11
2.406665378010536
 21
10.01984403158978
 31
0.0
  0
LWPOLYLINE
  5
449
330
1F
100
AcDbEntity
  8
0
  6
Continuous
 62
     7
100
AcDbPolyline
 90
        7
 70
   128
 43
0.0
 10
3.299749011156857
 20
10.01984403158937
 10
3.304353398985327
 20
10.00628531522064
 10
3.308200887995114
 20
9.992518458957917
 10
3.310881088193513
 20
9.980631427483674
 10
3.313203106062349
 20
9.9673020475401
 10
3.315427917791701
 20
9.946463023700112
 10
3.315999011156706
 20
9.929210698256442
  0
LINE
  5
452
330
1F
100
AcDbEntity
  8
0
  6
Continuous
 62
     7
100
AcDbLine
 10
3.266998141429319
 20
10.01984403158978
 30
0.0
 11
3.29974577183827
 21
10.01984403158978
 31
0.0
  0
LINE
  5
453
330
1F
100
AcDbEntity
  8
0
  6
Continuous
 62
     7
100
AcDbLine
 10
2.527118750079745
 20
8.803510698256442
 30
0.0
 11
2.475558880618226
 21
8.751950828794923
 31
0.0
  0
LINE
  5
454
330
1F
100
AcDbEntity
  8
0
  6
Continuous
 62
     7
100
AcDbLine
 10
2.527118750079745
 20
8.803510698256442
 30
0.0
 11
2.662450959013714
 21
8.616163288634326
 31
0.0
  0
LWPOLYLINE
  5
455
330
1F
100
AcDbEntity
  8
0
  6
Continuous
 62
     7
100
AcDbPolyline
 90
        6
 70
   128
 43
0.0
 10
2.611281373460733
 20
8.616228335952416
 10
2.615669364914135
 20
8.615410358959881
 10
2.624218330247451
 20
8.615185848151652
 10
2.636956183422886
 20
8.615335542083
 10
2.651935865574664
 20
8.615769624290765
 10
2.662450959013714
 20
8.616163288634326
  0
LINE
  5
45D
330
1F
100
AcDbEntity
  8
0
  6
Continuous
 62
     7
100
AcDbLine
 10
2.611281373460733
 20
8.616228335952416
 30
0.0
 11
2.475558880618226
 21
8.751950828794923
 31
0.0
  0
LINE
  5
45E
330
1F
100
AcDbEntity
  8
0
  6
Continuous
 62
     7
100
AcDbLine
 10
2.527118750079745
 20
8.803510698256442
 30
0.0
 11
3.146545938900335
 21
8.803510698256442
 31
0.0
  0
LINE
  5
45F
330
1F
100
AcDbEntity
  8
0
  6
Continuous
 62
     7
100
AcDbLine
 10
3.011213729966367
 20
8.616163288634326
 30
0.0
 11
3.146545938900336
 21
8.803510698256442
 31
0.0
  0
LINE
  5
460
330
1F
100
AcDbEntity
  8
0
  6
Continuous
 62
     7
100
AcDbLine
 10
2.662450959013714
 20
8.616163288634326
 30
0.0
 11
3.011213729966367
 21
8.616163288634326
 31
0.0
  0
LINE
  5
461
330
1F
100
AcDbEntity
  8
0
  6
Continuous
 62
     7
100
AcDbLine
 10
2.486169240399978
 20
8.844460207936208
 30
0.0
 11
2.527118750079745
 21
8.803510698256442
 31
0.0
  0
LINE
  5
462
330
1F
100
AcDbEntity
  8
0
  6
Continuous
 62
     7
100
AcDbLine
 10
2.475558880618226
 20
8.751950828794923
 30
0.0
 11
2.434609370938459
 21
8.79290033847469
 31
0.0
  0
LINE
  5
463
330
1F
100
AcDbEntity
  8
0
  6
Continuous
 62
     7
100
AcDbLine
 10
2.486169240399978
 20
8.844460207936208
 30
0.0
 11
2.434609370938459
 21
8.79290033847469
 31
0.0
  0
LINE
  5
464
330
1F
100
AcDbEntity
  8
0
  6
Continuous
 62
     7
100
AcDbLine
 10
3.239055318041621
 20
8.79290033847469
 30
0.0
 11
3.198105808361855
 21
8.751950828794923
 31
0.0
  0
LINE
  5
465
330
1F
100
AcDbEntity
  8
0
  6
Continuous
 62
     7
100
AcDbLine
 10
3.198105808361855
 20
8.751950828794923
 30
0.0
 11
3.146545938900335
 21
8.803510698256442
 31
0.0
  0
LINE
  5
466
330
1F
100
AcDbEntity
  8
0
  6
Continuous
 62
     7
100
AcDbLine
 10
3.146545938900335
 20
8.803510698256442
 30
0.0
 11
3.187495448580102
 21
8.844460207936208
 31
0.0
  0
LINE
  5
467
330
1F
100
AcDbEntity
  8
0
  6
Continuous
 62
     7
100
AcDbLine
 10
3.239055318041621
 20
8.79290033847469
 30
0.0
 11
3.187495448580102
 21
8.844460207936208
 31
0.0
  0
ARC
  5
468
330
1F
100
AcDbEntity
  8
0
  6
Continuous
 62
     7
100
AcDbCircle
 10
2.674661928292065
 20
9.047677364923109
 30
0.0
 40
0.2441629171353582
100
AcDbArc
 50
181.4969920970391
 51
246.8484371845841
  0
LINE
  5
469
330
1F
100
AcDbEntity
  8
0
  6
Continuous
 62
     7
100
AcDbLine
 10
2.578665677823373
 20
8.82317736492311
 30
0.0
 11
3.094999011156707
 21
8.82317736492311
 31
0.0
  0
ARC
  5
46A
330
1F
100
AcDbEntity
  8
0
  6
Continuous
 62
     7
100
AcDbCircle
 10
2.999002760688016
 20
9.047677364923109
 30
0.0
 40
0.2441629171353578
100
AcDbArc
 50
293.1515628154176
 51
358.5030079029625
  0
ARC
  5
46B
330
1F
100
AcDbEntity
  8
0
  6
Continuous
 62
     7
100
AcDbCircle
 10
3.05329681058411
 20
8.978658845932204
 30
0.0
 40
0.1897855339059319
100
AcDbArc
 50
315.0000000000002
 51
0.0
  0
ARC
  5
46C
330
1F
100
AcDbEntity
  8
0
  6
Continuous
 62
     7
100
AcDbCircle
 10
2.620367878395971
 20
8.978658845932202
 30
0.0
 40
0.1897855339059309
100
AcDbArc
 50
180.0000000000004
 51
225.0000000000009
  0
LINE
  5
46D
330
1F
100
AcDbEntity
  8
0
  6
Continuous
 62
     7
100
AcDbLine
 10
3.198105808361855
 20
8.751950828794923
 30
0.0
 11
3.062383315519347
 21
8.616228335952416
 31
0.0
  0
LWPOLYLINE
  5
46E
330
1F
100
AcDbEntity
  8
0
  6
Continuous
 62
     7
100
AcDbPolyline
 90
        6
 70
   128
 43
0.0
 10
3.011213729966367
 20
8.616163288634326
 10
3.031870641680993
 20
8.615454816914045
 10
3.045639167801177
 20
8.61519611784279
 10
3.05569730349771
 20
8.615294049797907
 10
3.061068741090202
 20
8.615753529484474
 10
3.062383315519347
 20
8.616228335952416
  0
ARC
  5
476
330
1F
100
AcDbEntity
  8
0
  6
Continuous
 62
     7
100
AcDbCircle
 10
2.620367878395971
 20
8.978658845932202
 30
0.0
 40
0.2627022005725973
100
AcDbArc
 50
180.0000000000004
 51
225.0000000000009
  0
ARC
  5
477
330
1F
100
AcDbEntity
  8
0
  6
Continuous
 62
     7
100
AcDbCircle
 10
3.05329681058411
 20
8.978658845932204
 30
0.0
 40
0.2627022005725983
100
AcDbArc
 50
315.0000000000004
 51
0.0
  0
LINE
  5
478
330
1F
100
AcDbEntity
  8
0
  6
Continuous
 62
     7
100
AcDbLine
 10
2.71183234449004
 20
8.826510698256442
 30
0.0
 11
2.71183234449004
 21
8.82317736492311
 31
0.0
  0
LINE
  5
479
330
1F
100
AcDbEntity
  8
0
  6
Continuous
 62
     7
100
AcDbLine
 10
2.96183234449004
 20
8.82317736492311
 30
0.0
 11
2.96183234449004
 21
8.826510698256442
 31
0.0
  0
LINE
  5
47A
330
1F
100
AcDbEntity
  8
0
  6
Continuous
 62
     7
100
AcDbLine
 10
3.055017619881987
 20
8.613177364923109
 30
0.0
 11
3.011213729966367
 21
8.613177364923109
 31
0.0
  0
LINE
  5
47B
330
1F
100
AcDbEntity
  8
0
  6
Continuous
 62
     7
100
AcDbLine
 10
3.011213729966367
 20
8.613177364923109
 30
0.0
 11
3.011213729966367
 21
8.616163288634326
 31
0.0
  0
ARC
  5
47C
330
1F
100
AcDbEntity
  8
0
  6
Continuous
 62
     7
100
AcDbCircle
 10
3.055017619881987
 20
8.623594031589775
 30
0.0
 40
0.0104166666666665
100
AcDbArc
 50
270.0000000000008
 51
315.0000000000043
  0
LINE
  5
47D
330
1F
100
AcDbEntity
  8
0
  6
Continuous
 62
     7
100
AcDbLine
 10
2.662450959013714
 20
8.613177364923109
 30
0.0
 11
2.618647069098093
 21
8.613177364923109
 31
0.0
  0
ARC
  5
47E
330
1F
100
AcDbEntity
  8
0
  6
Continuous
 62
     7
100
AcDbCircle
 10
2.618647069098093
 20
8.623594031589775
 30
0.0
 40
0.0104166666666662
100
AcDbArc
 50
224.9999999999991
 51
270.0000000000008
  0
LINE
  5
47F
330
1F
100
AcDbEntity
  8
0
  6
Continuous
 62
     7
100
AcDbLine
 10
2.662450959013714
 20
8.613177364923109
 30
0.0
 11
2.662450959013714
 21
8.616163288634326
 31
0.0
  0
LINE
  5
480
330
1F
100
AcDbEntity
  8
0
  6
Continuous
 62
     7
100
AcDbLine
 10
3.011213729966367
 20
8.613177364923109
 30
0.0
 11
2.662450959013714
 21
8.613177364923109
 31
0.0
  0
LWPOLYLINE
  5
481
330
1F
100
AcDbEntity
  8
0
  6
Continuous
 62
     7
100
AcDbPolyline
 90
       15
 70
   128
 43
0.0
 10
2.374165677823374
 20
10.02032204006634
 10
2.383049122295118
 20
10.04124196189261
 10
2.393708871965391
 20
10.0613150396802
 10
2.406065015554867
 20
10.08039079472413
 10
2.420024924693063
 20
10.09832622479295
 10
2.435483948310961
 20
10.11498687615119
 10
2.452326197162321
 20
10.13024785149777
 10
2.470425412592483
 20
10.14399474626395
 10
2.48964591304189
 20
10.15612450625227
 10
2.509843611188825
 20
10.1665462001868
 10
2.530867094106325
 20
10.17518170138345
 10
2.552558758335798
 20
10.18196627343007
 10
2.574755991368241
 20
10.18684905548575
 10
2.597292390676023
 20
10.1897934435614
 10
2.619999011156707
 20
10.19077736492311
  0
LWPOLYLINE
  5
492
330
1F
100
AcDbEntity
  8
0
  6
Continuous
 62
     7
100
AcDbPolyline
 90
       15
 70
   128
 43
0.0
 10
2.619999011156707
 20
10.19077736492311
 10
2.602049968300547
 20
10.1897934435614
 10
2.584235481228681
 20
10.18684905548575
 10
2.566689097022083
 20
10.18196627343007
 10
2.549542352916881
 20
10.17518170138345
 10
2.532923790229715
 20
10.1665462001868
 10
2.516957990742137
 20
10.15612450625227
 10
2.501764642767844
 20
10.14399474626395
 10
2.487457643904002
 20
10.13024785149777
 10
2.474144247192926
 20
10.11498687615119
 10
2.46192425709497
 20
10.09832622479295
 10
2.450889281300014
 20
10.08039079472413
 10
2.441122043986428
 20
10.0613150396802
 10
2.432695765675642
 20
10.04124196189261
 10
2.42567361433131
 20
10.02032204006634
  0
LINE
  5
4A3
330
1F
100
AcDbEntity
  8
0
  6
Continuous
 62
     7
100
AcDbLine
 10
2.42567361433131
 20
10.02032204006634
 30
0.0
 11
2.424977967942776
 21
10.02031069825644
 31
0.0
  0
LINE
  5
4A4
330
1F
100
AcDbEntity
  8
0
  6
Continuous
 62
     7
100
AcDbLine
 10
2.424977967942776
 20
10.02031069825644
 30
0.0
 11
2.406509611692187
 21
10.02031069825644
 31
0.0
  0
LINE
  5
4A5
330
1F
100
AcDbEntity
  8
0
  6
Continuous
 62
     7
100
AcDbLine
 10
3.248353387703969
 20
10.02031069825644
 30
0.0
 11
3.247657741315437
 21
10.02032204006634
 31
0.0
  0
LWPOLYLINE
  5
4A6
330
1F
100
AcDbEntity
  8
0
  6
Continuous
 62
     7
100
AcDbPolyline
 90
       15
 70
   128
 43
0.0
 10
3.247657741315436
 20
10.02032204006634
 10
3.240635589971105
 20
10.04124196189261
 10
3.232209311660319
 20
10.0613150396802
 10
3.222442074346732
 20
10.08039079472413
 10
3.211407098551777
 20
10.09832622479295
 10
3.19918710845382
 20
10.11498687615119
 10
3.185873711742744
 20
10.13024785149777
 10
3.171566712878902
 20
10.14399474626395
 10
3.15637336490461
 20
10.15612450625227
 10
3.140407565417032
 20
10.1665462001868
 10
3.123789002729866
 20
10.17518170138345
 10
3.106642258624663
 20
10.18196627343007
 10
3.089095874418066
 20
10.18684905548575
 10
3.071281387346199
 20
10.1897934435614
 10
3.05333234449004
 20
10.19077736492311
  0
LWPOLYLINE
  5
4B7
330
1F
100
AcDbEntity
  8
0
  6
Continuous
 62
     7
100
AcDbPolyline
 90
       15
 70
   128
 43
0.0
 10
3.05333234449004
 20
10.19077736492311
 10
3.076038964970723
 20
10.1897934435614
 10
3.098575364278506
 20
10.18684905548575
 10
3.120772597310949
 20
10.18196627343007
 10
3.142464261540422
 20
10.17518170138345
 10
3.163487744457921
 20
10.1665462001868
 10
3.183685442604857
 20
10.15612450625227
 10
3.202905943054263
 20
10.14399474626395
 10
3.221005158484426
 20
10.13024785149777
 10
3.237847407335785
 20
10.11498687615119
 10
3.253306430953683
 20
10.09832622479295
 10
3.267266340091879
 20
10.08039079472413
 10
3.279622483681356
 20
10.0613150396802
 10
3.290282233351628
 20
10.04124196189261
 10
3.299165677823374
 20
10.02032204006634
  0
LINE
  5
4C8
330
1F
100
AcDbEntity
  8
0
  6
Continuous
 62
     7
100
AcDbLine
 10
3.267092725706717
 20
10.02031069825644
 30
0.0
 11
3.248353387703969
 21
10.02031069825644
 31
0.0
  0
LINE
  5
4C9
330
1F
100
AcDbEntity
  8
0
  6
Continuous
 62
     7
100
AcDbLine
 10
3.247657741315436
 20
10.02032204006634
 30
0.0
 11
2.42567361433131
 21
10.02032204006634
 31
0.0
  0
LINE
  5
4CA
330
1F
100
AcDbEntity
  8
0
  6
Continuous
 62
     7
100
AcDbLine
 10
2.424977967942776
 20
10.02031069825644
 30
0.0
 11
3.248353387703969
 21
10.02031069825644
 31
0.0
  0
LINE
  5
4CB
330
1F
100
AcDbEntity
  8
0
  6
Continuous
 62
     7
100
AcDbLine
 10
2.409165677823373
 20
10.01984403158978
 30
0.0
 11
2.409165677823373
 21
10.02031069825644
 31
0.0
  0
LINE
  5
4CC
330
1F
100
AcDbEntity
  8
0
  6
Continuous
 62
     7
100
AcDbLine
 10
3.264165677823373
 20
10.02031069825644
 30
0.0
 11
3.264165677823373
 21
10.01984403158978
 31
0.0
  0
CIRCLE
  5
4CD
330
1F
100
AcDbEntity
  8
0
  6
Continuous
 62
     7
100
AcDbCircle
 10
2.836832344490041
 20
9.741510698256443
 30
0.0
 40
0.0829166666666676
  0
CIRCLE
  5
4CE
330
1F
100
AcDbEntity
  8
0
  6
Continuous
 62
     7
100
AcDbCircle
 10
2.836832344490041
 20
9.741510698256443
 30
0.0
 40
0.0775833333333331
  0
LINE
  5
4CF
330
1F
100
AcDbEntity
  8
0
  6
Continuous
 62
     7
100
AcDbLine
 10
3.238499011156707
 20
9.048510698256441
 30
0.0
 11
3.238499011156707
 21
9.854844031589774
 31
0.0
  0
ARC
  5
4D0
330
1F
100
AcDbEntity
  8
0
  6
Continuous
 62
     7
100
AcDbCircle
 10
2.998499011156707
 20
9.048510698256441
 30
0.0
 40
0.2400000000000002
100
AcDbArc
 50
292.3316450092223
 51
0.0
  0
LINE
  5
4D1
330
1F
100
AcDbEntity
  8
0
  6
Continuous
 62
     7
100
AcDbLine
 10
2.58397357290195
 20
8.826510698256442
 30
0.0
 11
3.089691116078131
 21
8.826510698256442
 31
0.0
  0
ARC
  5
4D2
330
1F
100
AcDbEntity
  8
0
  6
Continuous
 62
     7
100
AcDbCircle
 10
2.675165677823374
 20
9.048510698256441
 30
0.0
 40
0.2399999999999998
100
AcDbArc
 50
180.0000000000004
 51
247.6683549907793
  0
LINE
  5
4D3
330
1F
100
AcDbEntity
  8
0
  6
Continuous
 62
     7
100
AcDbLine
 10
2.435165677823374
 20
9.854844031589774
 30
0.0
 11
2.435165677823374
 21
9.048510698256441
 31
0.0
  0
ARC
  5
4D4
330
1F
100
AcDbEntity
  8
0
  6
Continuous
 62
     7
100
AcDbCircle
 10
3.168499011156707
 20
9.854844031589774
 30
0.0
 40
0.0700000000000003
100
AcDbArc
 50
0.0
 51
90.0
  0
LINE
  5
4D5
330
1F
100
AcDbEntity
  8
0
  6
Continuous
 62
     7
100
AcDbLine
 10
3.168499011156707
 20
9.924844031589775
 30
0.0
 11
2.505165677823375
 21
9.924844031589775
 31
0.0
  0
ARC
  5
4D6
330
1F
100
AcDbEntity
  8
0
  6
Continuous
 62
     7
100
AcDbCircle
 10
2.505165677823374
 20
9.854844031589774
 30
0.0
 40
0.0700000000000003
100
AcDbArc
 50
89.99999999999928
 51
180.0000000000004
  0
LINE
  5
4D7
330
1F
100
AcDbEntity
  8
0
  6
Continuous
 62
     7
100
AcDbLine
 10
2.753499011156707
 20
8.826510698256442
 30
0.0
 11
2.753499011156707
 21
8.82317736492311
 31
0.0
  0
LINE
  5
4D8
330
1F
100
AcDbEntity
  8
0
  6
Continuous
 62
     7
100
AcDbLine
 10
2.920165677823374
 20
8.826510698256442
 30
0.0
 11
2.920165677823374
 21
8.82317736492311
 31
0.0
  0
CIRCLE
  5
4D9
330
1F
100
AcDbEntity
  8
0
  6
Continuous
 62
     7
100
AcDbCircle
 10
2.836832344490041
 20
9.741510698256443
 30
0.0
 40
0.0521707423729203
  0
CIRCLE
  5
4DA
330
1F
100
AcDbEntity
  8
0
  6
Continuous
 62
     7
100
AcDbCircle
 10
2.836832344490041
 20
9.741510698256443
 30
0.0
 40
0.0735833333333331
  0
LINE
  5
4DB
330
1F
100
AcDbEntity
  8
0
  6
Continuous
 62
     7
100
AcDbLine
 10
2.82933234449004
 20
9.695525583106658
 30
0.0
 11
2.844332344490041
 21
9.695525583106658
 31
0.0
  0
LINE
  5
4DC
330
1F
100
AcDbEntity
  8
0
  6
Continuous
 62
     7
100
AcDbLine
 10
2.844332344490041
 20
9.695525583106658
 30
0.0
 11
2.844332344490041
 21
9.760991158172814
 31
0.0
  0
LINE
  5
4DD
330
1F
100
AcDbEntity
  8
0
  6
Continuous
 62
     7
100
AcDbLine
 10
2.844332344490041
 20
9.760991158172814
 30
0.0
 11
2.82933234449004
 21
9.760991158172814
 31
0.0
  0
LINE
  5
4DE
330
1F
100
AcDbEntity
  8
0
  6
Continuous
 62
     7
100
AcDbLine
 10
2.82933234449004
 20
9.760991158172814
 30
0.0
 11
2.82933234449004
 21
9.695525583106658
 31
0.0
  0
LINE
  5
624
330
1F
100
AcDbEntity
  8
0
  6
Continuous
 62
     7
100
AcDbLine
 10
2.422499011156707
 20
10.02031069825644
 30
0.0
 11
2.422499011156707
 21
10.01984403158978
 31
0.0
  0
LINE
  5
625
330
1F
100
AcDbEntity
  8
0
  6
Continuous
 62
     7
100
AcDbLine
 10
3.25083234449004
 20
10.01984403158978
 30
0.0
 11
3.25083234449004
 21
10.02031069825644
 31
0.0
  0
LINE
  5
633
330
1F
100
AcDbEntity
  8
0
  6
Continuous
100
AcDbLine
 10
3.394977187622752
 20
1.483758707859717
 30
0.0
 11
1.298485705620381
 21
1.483758707859717
 31
0.0
  0
LINE
  5
634
330
1F
100
AcDbEntity
  8
0
  6
Continuous
100
AcDbLine
 10
1.398485705620381
 20
1.483758707859717
 30
0.0
 11
1.398485705620381
 21
1.483758707859717
 31
0.0
  0
LINE
  5
636
330
1F
100
AcDbEntity
  8
0
  6
Continuous
100
AcDbLine
 10
1.398485705620381
 20
3.433308676632805
 30
0.0
 11
1.474123089642369
 21
3.49948369374489
 31
0.0
  0
LINE
  5
637
330
1F
100
AcDbEntity
  8
0
  6
Continuous
100
AcDbLine
 10
1.53996921436629
 20
3.524222230439678
 30
0.0
 11
3.153493678876842
 21
3.524222230439678
 31
0.0
  0
LINE
  5
63A
330
1F
100
AcDbEntity
  8
0
  6
Continuous
100
AcDbLine
 10
3.294977187622752
 20
3.433308676632805
 30
0.0
 11
3.219339803600763
 21
3.49948369374489
 31
0.0
  0
ARC
  5
63C
330
1F
100
AcDbEntity
  8
0
  6
Continuous
100
AcDbCircle
 10
3.153493678876842
 20
3.424222230439677
 30
0.0
 40
0.1
100
AcDbArc
 50
48.81737591769368
 51
90.0
  0
ARC
  5
63D
330
1F
100
AcDbEntity
  8
0
  6
Continuous
100
AcDbCircle
 10
1.53996921436629
 20
3.424222230439677
 30
0.0
 40
0.1
100
AcDbArc
 50
90.0
 51
131.1826240823063
  0
LINE
  5
63F
330
1F
100
AcDbEntity
  8
0
  6
Continuous
100
AcDbLine
 10
1.298485705620381
 20
1.483758707859717
 30
0.0
 11
1.298485705620381
 21
3.433308676632805
 31
0.0
  0
LINE
  5
640
330
1F
100
AcDbEntity
  8
0
  6
Continuous
100
AcDbLine
 10
3.394977187622751
 20
3.433308676632805
 30
0.0
 11
3.394977187622751
 21
1.483758707859717
 31
0.0
  0
LINE
  5
641
330
1F
100
AcDbEntity
  8
0
  6
Continuous
100
AcDbLine
 10
1.398485705620381
 20
3.433308676632805
 30
0.0
 11
1.298485705620381
 21
3.433308676632805
 31
0.0
  0
LINE
  5
642
330
1F
100
AcDbEntity
  8
0
  6
Continuous
100
AcDbLine
 10
3.294977187622752
 20
3.433308676632805
 30
0.0
 11
3.394977187622751
 21
3.433308676632805
 31
0.0
  0
LINE
  5
6DB
330
1F
100
AcDbEntity
  8
DET-IMAGE
 62
     0
100
AcDbLine
 10
0.4430998751197297
 20
3.494492785659483
 30
0.0
 11
0.3916300428203972
 21
3.446863027213569
 31
0.0
  0
LINE
  5
6DC
330
1F
100
AcDbEntity
  8
DET-IMAGE
 62
     0
100
AcDbLine
 10
0.3770183217733649
 20
3.446863027213569
 30
0.0
 11
0.4343670320546256
 21
3.511958823241921
 31
0.0
  0
LINE
  5
6DD
330
1F
100
AcDbEntity
  8
DET-IMAGE
 62
     0
100
AcDbLine
 10
0.4035837602501591
 20
3.529643186294146
 30
0.0
 11
0.3770183217733649
 21
3.446863027213569
 31
0.0
  0
LINE
  5
6DE
330
1F
100
AcDbEntity
  8
DET-IMAGE
 62
     0
100
AcDbLine
 10
0.3948509171850692
 20
3.6195932798437
 30
0.0
 11
0.4035837602501591
 21
3.529643186294146
 31
0.0
  0
LINE
  5
6DF
330
1F
100
AcDbEntity
  8
DET-IMAGE
 62
     0
100
AcDbLine
 10
0.3634524976889129
 20
3.446863027213569
 30
0.0
 11
0.3948509171850692
 21
3.553877313439779
 31
0.0
  0
LINE
  5
6E0
330
1F
100
AcDbEntity
  8
DET-IMAGE
 62
     0
100
AcDbLine
 10
0.2894070468519647
 20
3.55213070968153
 30
0.0
 11
0.2894070468519647
 21
3.497331016766639
 31
0.0
  0
LINE
  5
6E1
330
1F
100
AcDbEntity
  8
DET-IMAGE
 62
     0
100
AcDbLine
 10
0.30206966929636
 20
3.493182832840811
 30
0.0
 11
0.295083394844271
 21
3.547982525755709
 31
0.0
  0
LINE
  5
6E2
330
1F
100
AcDbEntity
  8
DET-IMAGE
 62
     0
100
AcDbLine
 10
0.3271765931085202
 20
3.563265308640335
 30
0.0
 11
0.3398392155529013
 21
3.504317431799608
 31
0.0
  0
LINE
  5
6E3
330
1F
100
AcDbEntity
  8
DET-IMAGE
 62
     0
100
AcDbLine
 10
0.3511919115375282
 20
3.512832125121046
 30
0.0
 11
0.3398392155529013
 21
3.567631818035943
 31
0.0
  0
LINE
  5
6E4
330
1F
100
AcDbEntity
  8
DET-IMAGE
 62
     0
100
AcDbLine
 10
0.2894070468519647
 20
3.497331016766639
 30
0.0
 11
0.3297457008378917
 21
3.446863027213569
 31
0.0
  0
LINE
  5
6E5
330
1F
100
AcDbEntity
  8
DET-IMAGE
 62
     0
100
AcDbLine
 10
0.3435905719065051
 20
3.446863027213569
 30
0.0
 11
0.30206966929636
 21
3.493182832840811
 31
0.0
  0
LINE
  5
6E6
330
1F
100
AcDbEntity
  8
DET-IMAGE
 62
     0
100
AcDbLine
 10
0.3398392155529013
 20
3.504317431799608
 30
0.0
 11
0.34914628384354
 21
3.446863027213569
 31
0.0
  0
LINE
  5
6E7
330
1F
100
AcDbEntity
  8
DET-IMAGE
 62
     0
100
AcDbLine
 10
0.3622187822620777
 20
3.446863027213569
 30
0.0
 11
0.3511919115375282
 21
3.512832125121046
 31
0.0
  0
LINE
  5
6E8
330
1F
100
AcDbEntity
  8
DET-IMAGE
 62
     0
100
AcDbLine
 10
0.3948509171850692
 20
3.553877313439779
 30
0.0
 11
0.3948509171850692
 21
3.6195932798437
 31
0.0
  0
LINE
  5
6E9
330
1F
100
AcDbEntity
  8
DET-IMAGE
 62
     0
100
AcDbLine
 10
0.30206966929636
 20
3.571780001961779
 30
0.0
 11
0.2894070468519647
 21
3.55213070968153
 31
0.0
  0
LINE
  5
6EA
330
1F
100
AcDbEntity
  8
DET-IMAGE
 62
     0
100
AcDbLine
 10
0.295083394844271
 20
3.547982525755709
 30
0.0
 11
0.30206966929636
 21
3.571780001961779
 31
0.0
  0
LINE
  5
6EB
330
1F
100
AcDbEntity
  8
DET-IMAGE
 62
     0
100
AcDbLine
 10
0.30206966929636
 20
3.61806500155524
 30
0.0
 11
0.3271765931085202
 21
3.563265308640335
 31
0.0
  0
LINE
  5
6EC
330
1F
100
AcDbEntity
  8
DET-IMAGE
 62
     0
100
AcDbLine
 10
0.295083394844271
 20
3.6643500011487
 30
0.0
 11
0.30206966929636
 21
3.61806500155524
 31
0.0
  0
LINE
  5
6ED
330
1F
100
AcDbEntity
  8
DET-IMAGE
 62
     0
100
AcDbLine
 10
0.3075276962120501
 20
3.620903232662381
 30
0.0
 11
0.295083394844271
 21
3.6643500011487
 31
0.0
  0
LINE
  5
6EE
330
1F
100
AcDbEntity
  8
DET-IMAGE
 62
     0
100
AcDbLine
 10
0.3398392155529013
 20
3.567631818035943
 30
0.0
 11
0.3075276962120501
 21
3.620903232662381
 31
0.0
  0
LINE
  5
6EF
330
1F
100
AcDbEntity
  8
DET-IMAGE
 62
     0
100
AcDbLine
 10
1.228205483778448
 20
3.570133851542332
 30
0.0
 11
1.222765873859836
 21
3.517398794250286
 31
0.0
  0
LINE
  5
6F0
330
1F
100
AcDbEntity
  8
DET-IMAGE
 62
     0
100
AcDbLine
 10
1.212868805813494
 20
3.527296061449797
 30
0.0
 11
1.218383965869856
 21
3.578897843871674
 31
0.0
  0
LINE
  5
6F1
330
1F
100
AcDbEntity
  8
DET-IMAGE
 62
     0
100
AcDbLine
 10
1.178795693684501
 20
3.536060053779134
 30
0.0
 11
1.170264321281034
 21
3.444231983958831
 31
0.0
  0
LINE
  5
6F2
330
1F
100
AcDbEntity
  8
DET-IMAGE
 62
     0
100
AcDbLine
 10
1.159355108452568
 20
3.444231983958831
 30
0.0
 11
1.168898625638159
 21
3.536060053779134
 31
0.0
  0
LINE
  5
6F3
330
1F
100
AcDbEntity
  8
DET-IMAGE
 62
     0
100
AcDbLine
 10
1.105209859507875
 20
3.563560857295324
 30
0.0
 11
1.159355108452568
 21
3.444231983958831
 31
0.0
  0
LINE
  5
6F4
330
1F
100
AcDbEntity
  8
DET-IMAGE
 62
     0
100
AcDbLine
 10
1.146027492218062
 20
3.444231983958831
 30
0.0
 11
1.095388341599297
 21
3.56023658434282
 31
0.0
  0
LINE
  5
6F5
330
1F
100
AcDbEntity
  8
DET-IMAGE
 62
     0
100
AcDbLine
 10
1.247999619871131
 20
3.56023658434282
 30
0.0
 11
1.247999619871131
 21
3.517398794250286
 31
0.0
  0
LINE
  5
6F6
330
1F
100
AcDbEntity
  8
DET-IMAGE
 62
     0
100
AcDbLine
 10
1.242484459814771
 20
3.527296061449797
 30
0.0
 11
1.247999619871131
 21
3.56023658434282
 31
0.0
  0
LINE
  5
6F7
330
1F
100
AcDbEntity
  8
DET-IMAGE
 62
     0
100
AcDbLine
 10
1.300733616026443
 20
3.542708599684149
 30
0.0
 11
1.276557571943778
 21
3.491031265604258
 31
0.0
  0
LINE
  5
6F8
330
1F
100
AcDbEntity
  8
DET-IMAGE
 62
     0
100
AcDbLine
 10
1.286454639990121
 20
3.491031265604258
 30
0.0
 11
1.300733616026443
 21
3.542708599684149
 31
0.0
  0
LINE
  5
6F9
330
1F
100
AcDbEntity
  8
DET-IMAGE
 62
     0
100
AcDbLine
 10
0.6978323358659484
 20
3.604207649305537
 30
0.0
 11
0.7362118058471854
 21
3.523971788497294
 31
0.0
  0
LINE
  5
6FA
330
1F
100
AcDbEntity
  8
DET-IMAGE
 62
     0
100
AcDbLine
 10
0.7318298978571907
 20
3.515207796167958
 30
0.0
 11
0.687935267819606
 21
3.604207649305537
 31
0.0
  0
LINE
  5
6FB
330
1F
100
AcDbEntity
  8
DET-IMAGE
 62
     0
100
AcDbLine
 10
0.7812396879511514
 20
3.563560857295331
 30
0.0
 11
0.8353849368958439
 21
3.444231983958839
 31
0.0
  0
LINE
  5
6FC
330
1F
100
AcDbEntity
  8
DET-IMAGE
 62
     0
100
AcDbLine
 10
0.8220573206613233
 20
3.444231983958839
 30
0.0
 11
0.7714181700425602
 21
3.560236584342826
 31
0.0
  0
LINE
  5
6FD
330
1F
100
AcDbEntity
  8
DET-IMAGE
 62
     0
100
AcDbLine
 10
0.8548255221277632
 20
3.53606005377914
 30
0.0
 11
0.8462941497242955
 21
3.444231983958839
 31
0.0
  0
LINE
  5
6FE
330
1F
100
AcDbEntity
  8
DET-IMAGE
 62
     0
100
AcDbLine
 10
0.8353849368958439
 20
3.444231983958839
 30
0.0
 11
0.8449284540814208
 21
3.53606005377914
 31
0.0
  0
LINE
  5
6FF
330
1F
100
AcDbEntity
  8
DET-IMAGE
 62
     0
100
AcDbLine
 10
0.9042353122217097
 20
3.570133851542339
 30
0.0
 11
0.8987957023031132
 21
3.517398794250292
 31
0.0
  0
LINE
  5
700
330
1F
100
AcDbEntity
  8
DET-IMAGE
 62
     0
100
AcDbLine
 10
0.8888986342567708
 20
3.527296061449805
 30
0.0
 11
0.8944137943131327
 21
3.578897843871682
 31
0.0
  0
LINE
  5
701
330
1F
100
AcDbEntity
  8
DET-IMAGE
 62
     0
100
AcDbLine
 10
0.9767634444697197
 20
3.542708599684156
 30
0.0
 11
0.9525874003870394
 21
3.491031265604266
 31
0.0
  0
LINE
  5
702
330
1F
100
AcDbEntity
  8
DET-IMAGE
 62
     0
100
AcDbLine
 10
0.9624844684333826
 20
3.491031265604266
 30
0.0
 11
0.9767634444697197
 21
3.542708599684156
 31
0.0
  0
LINE
  5
703
330
1F
100
AcDbEntity
  8
DET-IMAGE
 62
     0
100
AcDbLine
 10
0.9240294483143945
 20
3.560236584342826
 30
0.0
 11
0.9240294483143945
 21
3.517398794250292
 31
0.0
  0
LINE
  5
704
330
1F
100
AcDbEntity
  8
DET-IMAGE
 62
     0
100
AcDbLine
 10
0.9185142882580326
 20
3.527296061449805
 30
0.0
 11
0.9240294483143945
 21
3.560236584342826
 31
0.0
  0
LINE
  5
705
330
1F
100
AcDbEntity
  8
DET-IMAGE
 62
     0
100
AcDbLine
 10
1.021802507422672
 20
3.604207649305531
 30
0.0
 11
1.060181977403909
 21
3.523971788497287
 31
0.0
  0
LINE
  5
706
330
1F
100
AcDbEntity
  8
DET-IMAGE
 62
     0
100
AcDbLine
 10
1.055800069413928
 20
3.515207796167951
 30
0.0
 11
1.01190543937633
 21
3.604207649305531
 31
0.0
  0
LINE
  5
707
330
1F
100
AcDbEntity
  8
DET-IMAGE
 62
     0
100
AcDbLine
 10
0.4343670320546256
 20
3.571343351022216
 30
0.0
 11
0.4430998751197297
 21
3.494492785659483
 31
0.0
  0
LINE
  5
708
330
1F
100
AcDbEntity
  8
DET-IMAGE
 62
     0
100
AcDbLine
 10
0.4343670320546256
 20
3.511958823241921
 30
0.0
 11
0.4343670320546256
 21
3.571343351022216
 31
0.0
  0
LINE
  5
709
330
1F
100
AcDbEntity
  8
DET-IMAGE
 62
     0
100
AcDbLine
 10
0.4252688361135117
 20
3.604207649305537
 30
0.0
 11
0.4636483060947487
 21
3.523971788497294
 31
0.0
  0
LINE
  5
70A
330
1F
100
AcDbEntity
  8
DET-IMAGE
 62
     0
100
AcDbLine
 10
0.459266398104754
 20
3.515207796167958
 30
0.0
 11
0.4153717680671694
 21
3.604207649305537
 31
0.0
  0
LINE
  5
70B
330
1F
100
AcDbEntity
  8
DET-IMAGE
 62
     0
100
AcDbLine
 10
0.5086761881987147
 20
3.563560857295331
 30
0.0
 11
0.5628214371434073
 21
3.444231983958839
 31
0.0
  0
LINE
  5
70C
330
1F
100
AcDbEntity
  8
DET-IMAGE
 62
     0
100
AcDbLine
 10
0.5494938209088875
 20
3.444231983958839
 30
0.0
 11
0.4988546702901235
 21
3.560236584342826
 31
0.0
  0
LINE
  5
70D
330
1F
100
AcDbEntity
  8
DET-IMAGE
 62
     0
100
AcDbLine
 10
0.5822620223753265
 20
3.53606005377914
 30
0.0
 11
0.5737306499718589
 21
3.444231983958839
 31
0.0
  0
LINE
  5
70E
330
1F
100
AcDbEntity
  8
DET-IMAGE
 62
     0
100
AcDbLine
 10
0.5628214371434073
 20
3.444231983958839
 30
0.0
 11
0.5723649543289842
 21
3.53606005377914
 31
0.0
  0
LINE
  5
70F
330
1F
100
AcDbEntity
  8
DET-IMAGE
 62
     0
100
AcDbLine
 10
0.6316718124692731
 20
3.570133851542339
 30
0.0
 11
0.6262322025506766
 21
3.517398794250292
 31
0.0
  0
LINE
  5
710
330
1F
100
AcDbEntity
  8
DET-IMAGE
 62
     0
100
AcDbLine
 10
0.6163351345043342
 20
3.527296061449805
 30
0.0
 11
0.6218502945606961
 21
3.578897843871682
 31
0.0
  0
LINE
  5
711
330
1F
100
AcDbEntity
  8
DET-IMAGE
 62
     0
100
AcDbLine
 10
0.7041999447172831
 20
3.542708599684156
 30
0.0
 11
0.6800239006346036
 21
3.491031265604266
 31
0.0
  0
LINE
  5
712
330
1F
100
AcDbEntity
  8
DET-IMAGE
 62
     0
100
AcDbLine
 10
0.689920968680946
 20
3.491031265604266
 30
0.0
 11
0.7041999447172831
 21
3.542708599684156
 31
0.0
  0
LINE
  5
713
330
1F
100
AcDbEntity
  8
DET-IMAGE
 62
     0
100
AcDbLine
 10
0.6514659485619578
 20
3.560236584342826
 30
0.0
 11
0.6514659485619578
 21
3.517398794250292
 31
0.0
  0
LINE
  5
714
330
1F
100
AcDbEntity
  8
DET-IMAGE
 62
     0
100
AcDbLine
 10
0.645950788505596
 20
3.527296061449805
 30
0.0
 11
0.6514659485619578
 21
3.560236584342826
 31
0.0
  0
LINE
  5
715
330
1F
100
AcDbEntity
  8
DET-IMAGE
 62
     0
100
AcDbLine
 10
0.8987957023031132
 20
3.517398794250292
 30
0.0
 11
0.861978267415461
 21
3.457343340686978
 31
0.0
  0
LINE
  5
716
330
1F
100
AcDbEntity
  8
DET-IMAGE
 62
     0
100
AcDbLine
 10
0.8462941497242955
 20
3.444231983958839
 30
0.0
 11
0.8888986342567708
 21
3.527296061449805
 31
0.0
  0
LINE
  5
717
330
1F
100
AcDbEntity
  8
DET-IMAGE
 62
     0
100
AcDbLine
 10
0.928411356304375
 20
3.463606013746082
 30
0.0
 11
0.8462941497242955
 21
3.444231983958839
 31
0.0
  0
LINE
  5
718
330
1F
100
AcDbEntity
  8
DET-IMAGE
 62
     0
100
AcDbLine
 10
0.8625453787631816
 20
3.444231983958839
 30
0.0
 11
0.9339265163607369
 21
3.453708746546576
 31
0.0
  0
LINE
  5
719
330
1F
100
AcDbEntity
  8
DET-IMAGE
 62
     0
100
AcDbLine
 10
0.9042353122217097
 20
3.479018551980433
 30
0.0
 11
0.8689518985460527
 21
3.449577658986842
 31
0.0
  0
LINE
  5
71A
330
1F
100
AcDbEntity
  8
DET-IMAGE
 62
     0
100
AcDbLine
 10
0.8462941497242955
 20
3.444231983958839
 30
0.0
 11
0.8944137943131327
 21
3.484458271357264
 31
0.0
  0
LINE
  5
71B
330
1F
100
AcDbEntity
  8
DET-IMAGE
 62
     0
100
AcDbLine
 10
0.6558478565519383
 20
3.463606013746082
 30
0.0
 11
0.5737306499718589
 21
3.444231983958839
 31
0.0
  0
LINE
  5
71C
330
1F
100
AcDbEntity
  8
DET-IMAGE
 62
     0
100
AcDbLine
 10
0.589981879010745
 20
3.444231983958839
 30
0.0
 11
0.6613630166083002
 21
3.453708746546576
 31
0.0
  0
LINE
  5
71D
330
1F
100
AcDbEntity
  8
DET-IMAGE
 62
     0
100
AcDbLine
 10
0.6514659485619578
 20
3.517398794250292
 30
0.0
 11
0.6316718124692731
 21
3.479018551980433
 31
0.0
  0
LINE
  5
71E
330
1F
100
AcDbEntity
  8
DET-IMAGE
 62
     0
100
AcDbLine
 10
0.6218502945606961
 20
3.484458271357264
 30
0.0
 11
0.645950788505596
 21
3.527296061449805
 31
0.0
  0
LINE
  5
71F
330
1F
100
AcDbEntity
  8
DET-IMAGE
 62
     0
100
AcDbLine
 10
0.4636483060947487
 20
3.523971788497294
 30
0.0
 11
0.5494938209088875
 21
3.444231983958839
 31
0.0
  0
LINE
  5
720
330
1F
100
AcDbEntity
  8
DET-IMAGE
 62
     0
100
AcDbLine
 10
0.5359708241495529
 20
3.444231983958839
 30
0.0
 11
0.459266398104754
 21
3.515207796167958
 31
0.0
  0
LINE
  5
721
330
1F
100
AcDbEntity
  8
DET-IMAGE
 62
     0
100
AcDbLine
 10
0.5359708241495529
 20
3.444231983958839
 30
0.0
 11
0.4889576022437812
 21
3.460281740793571
 31
0.0
  0
LINE
  5
722
330
1F
100
AcDbEntity
  8
DET-IMAGE
 62
     0
100
AcDbLine
 10
0.4889576022437812
 20
3.448269027169746
 30
0.0
 11
0.5069220830431025
 21
3.444231983958839
 31
0.0
  0
LINE
  5
723
330
1F
100
AcDbEntity
  8
DET-IMAGE
 62
     0
100
AcDbLine
 10
0.4636483060947487
 20
3.469121284780921
 30
0.0
 11
0.4889576022437812
 21
3.448269027169746
 31
0.0
  0
LINE
  5
724
330
1F
100
AcDbEntity
  8
DET-IMAGE
 62
     0
100
AcDbLine
 10
0.4449874220684453
 20
3.497679811509288
 30
0.0
 11
0.4636483060947487
 21
3.469121284780921
 31
0.0
  0
LINE
  5
725
330
1F
100
AcDbEntity
  8
DET-IMAGE
 62
     0
100
AcDbLine
 10
0.4636483060947487
 20
3.479018551980433
 30
0.0
 11
0.4449874220684453
 21
3.497679811509288
 31
0.0
  0
LINE
  5
726
330
1F
100
AcDbEntity
  8
DET-IMAGE
 62
     0
100
AcDbLine
 10
0.4889576022437812
 20
3.460281740793571
 30
0.0
 11
0.4636483060947487
 21
3.479018551980433
 31
0.0
  0
LINE
  5
727
330
1F
100
AcDbEntity
  8
DET-IMAGE
 62
     0
100
AcDbLine
 10
0.6262322025506766
 20
3.517398794250292
 30
0.0
 11
0.5894147676630244
 21
3.457343340686978
 31
0.0
  0
LINE
  5
728
330
1F
100
AcDbEntity
  8
DET-IMAGE
 62
     0
100
AcDbLine
 10
0.5737306499718589
 20
3.444231983958839
 30
0.0
 11
0.6163351345043342
 21
3.527296061449805
 31
0.0
  0
LINE
  5
729
330
1F
100
AcDbEntity
  8
DET-IMAGE
 62
     0
100
AcDbLine
 10
0.6316718124692731
 20
3.479018551980433
 30
0.0
 11
0.596388398793616
 21
3.449577658986842
 31
0.0
  0
LINE
  5
72A
330
1F
100
AcDbEntity
  8
DET-IMAGE
 62
     0
100
AcDbLine
 10
0.5737306499718589
 20
3.444231983958839
 30
0.0
 11
0.6218502945606961
 21
3.484458271357264
 31
0.0
  0
LINE
  5
72B
330
1F
100
AcDbEntity
  8
DET-IMAGE
 62
     0
100
AcDbLine
 10
0.7362118058471854
 20
3.523971788497294
 30
0.0
 11
0.8220573206613233
 21
3.444231983958839
 31
0.0
  0
LINE
  5
72C
330
1F
100
AcDbEntity
  8
DET-IMAGE
 62
     0
100
AcDbLine
 10
0.8085343239019895
 20
3.444231983958839
 30
0.0
 11
0.7318298978571907
 21
3.515207796167958
 31
0.0
  0
LINE
  5
72D
330
1F
100
AcDbEntity
  8
DET-IMAGE
 62
     0
100
AcDbLine
 10
0.7615211019962178
 20
3.448269027169746
 30
0.0
 11
0.7794855827955391
 21
3.444231983958839
 31
0.0
  0
LINE
  5
72E
330
1F
100
AcDbEntity
  8
DET-IMAGE
 62
     0
100
AcDbLine
 10
0.8085343239019895
 20
3.444231983958839
 30
0.0
 11
0.7615211019962178
 21
3.460281740793571
 31
0.0
  0
LINE
  5
72F
330
1F
100
AcDbEntity
  8
DET-IMAGE
 62
     0
100
AcDbLine
 10
0.7362118058471854
 20
3.469121284780921
 30
0.0
 11
0.7615211019962178
 21
3.448269027169746
 31
0.0
  0
LINE
  5
730
330
1F
100
AcDbEntity
  8
DET-IMAGE
 62
     0
100
AcDbLine
 10
0.717550921820882
 20
3.497679811509288
 30
0.0
 11
0.7362118058471854
 21
3.469121284780921
 31
0.0
  0
LINE
  5
731
330
1F
100
AcDbEntity
  8
DET-IMAGE
 62
     0
100
AcDbLine
 10
0.7362118058471854
 20
3.479018551980433
 30
0.0
 11
0.717550921820882
 21
3.497679811509288
 31
0.0
  0
LINE
  5
732
330
1F
100
AcDbEntity
  8
DET-IMAGE
 62
     0
100
AcDbLine
 10
0.7615211019962178
 20
3.460281740793571
 30
0.0
 11
0.7362118058471854
 21
3.479018551980433
 31
0.0
  0
LINE
  5
733
330
1F
100
AcDbEntity
  8
DET-IMAGE
 62
     0
100
AcDbLine
 10
0.6800239006346036
 20
3.491031265604266
 30
0.0
 11
0.6558478565519383
 21
3.463606013746082
 31
0.0
  0
LINE
  5
734
330
1F
100
AcDbEntity
  8
DET-IMAGE
 62
     0
100
AcDbLine
 10
0.6613630166083002
 20
3.453708746546576
 30
0.0
 11
0.689920968680946
 21
3.491031265604266
 31
0.0
  0
LINE
  5
735
330
1F
100
AcDbEntity
  8
DET-IMAGE
 62
     0
100
AcDbLine
 10
1.132504495458712
 20
3.444231983958831
 30
0.0
 11
1.085491273552956
 21
3.460281740793564
 31
0.0
  0
LINE
  5
736
330
1F
100
AcDbEntity
  8
DET-IMAGE
 62
     0
100
AcDbLine
 10
1.060181977403909
 20
3.523971788497287
 30
0.0
 11
1.146027492218062
 21
3.444231983958831
 31
0.0
  0
LINE
  5
737
330
1F
100
AcDbEntity
  8
DET-IMAGE
 62
     0
100
AcDbLine
 10
1.132504495458712
 20
3.444231983958831
 30
0.0
 11
1.055800069413928
 21
3.515207796167951
 31
0.0
  0
LINE
  5
738
330
1F
100
AcDbEntity
  8
DET-IMAGE
 62
     0
100
AcDbLine
 10
0.9525874003870394
 20
3.491031265604266
 30
0.0
 11
0.928411356304375
 21
3.463606013746082
 31
0.0
  0
LINE
  5
739
330
1F
100
AcDbEntity
  8
DET-IMAGE
 62
     0
100
AcDbLine
 10
0.9339265163607369
 20
3.453708746546576
 30
0.0
 11
0.9624844684333826
 21
3.491031265604266
 31
0.0
  0
LINE
  5
73A
330
1F
100
AcDbEntity
  8
DET-IMAGE
 62
     0
100
AcDbLine
 10
0.9240294483143945
 20
3.517398794250292
 30
0.0
 11
0.9042353122217097
 21
3.479018551980433
 31
0.0
  0
LINE
  5
73B
330
1F
100
AcDbEntity
  8
DET-IMAGE
 62
     0
100
AcDbLine
 10
0.8944137943131327
 20
3.484458271357264
 30
0.0
 11
0.9185142882580326
 21
3.527296061449805
 31
0.0
  0
LINE
  5
73C
330
1F
100
AcDbEntity
  8
DET-IMAGE
 62
     0
100
AcDbLine
 10
1.085491273552956
 20
3.448269027169738
 30
0.0
 11
1.103455754352277
 21
3.444231983958831
 31
0.0
  0
LINE
  5
73D
330
1F
100
AcDbEntity
  8
DET-IMAGE
 62
     0
100
AcDbLine
 10
1.060181977403909
 20
3.469121284780913
 30
0.0
 11
1.085491273552956
 21
3.448269027169738
 31
0.0
  0
LINE
  5
73E
330
1F
100
AcDbEntity
  8
DET-IMAGE
 62
     0
100
AcDbLine
 10
1.041521093377606
 20
3.497679811509281
 30
0.0
 11
1.060181977403909
 21
3.469121284780913
 31
0.0
  0
LINE
  5
73F
330
1F
100
AcDbEntity
  8
DET-IMAGE
 62
     0
100
AcDbLine
 10
1.060181977403909
 20
3.479018551980426
 30
0.0
 11
1.041521093377606
 21
3.497679811509281
 31
0.0
  0
LINE
  5
740
330
1F
100
AcDbEntity
  8
DET-IMAGE
 62
     0
100
AcDbLine
 10
1.085491273552956
 20
3.460281740793564
 30
0.0
 11
1.060181977403909
 21
3.479018551980426
 31
0.0
  0
LINE
  5
741
330
1F
100
AcDbEntity
  8
DET-IMAGE
 62
     0
100
AcDbLine
 10
1.247999619871131
 20
3.517398794250286
 30
0.0
 11
1.228205483778448
 21
3.479018551980426
 31
0.0
  0
LINE
  5
742
330
1F
100
AcDbEntity
  8
DET-IMAGE
 62
     0
100
AcDbLine
 10
1.252381527861113
 20
3.463606013746075
 30
0.0
 11
1.170264321281034
 21
3.444231983958831
 31
0.0
  0
LINE
  5
743
330
1F
100
AcDbEntity
  8
DET-IMAGE
 62
     0
100
AcDbLine
 10
1.186515550319919
 20
3.444231983958831
 30
0.0
 11
1.257896687917475
 21
3.45370874654657
 31
0.0
  0
LINE
  5
744
330
1F
100
AcDbEntity
  8
DET-IMAGE
 62
     0
100
AcDbLine
 10
1.222765873859836
 20
3.517398794250286
 30
0.0
 11
1.185948438972184
 21
3.45734334068697
 31
0.0
  0
LINE
  5
745
330
1F
100
AcDbEntity
  8
DET-IMAGE
 62
     0
100
AcDbLine
 10
1.170264321281034
 20
3.444231983958831
 30
0.0
 11
1.212868805813494
 21
3.527296061449797
 31
0.0
  0
LINE
  5
746
330
1F
100
AcDbEntity
  8
DET-IMAGE
 62
     0
100
AcDbLine
 10
1.228205483778448
 20
3.479018551980426
 30
0.0
 11
1.19292207010279
 21
3.449577658986834
 31
0.0
  0
LINE
  5
747
330
1F
100
AcDbEntity
  8
DET-IMAGE
 62
     0
100
AcDbLine
 10
1.218383965869856
 20
3.484458271357257
 30
0.0
 11
1.242484459814771
 21
3.527296061449797
 31
0.0
  0
LINE
  5
748
330
1F
100
AcDbEntity
  8
DET-IMAGE
 62
     0
100
AcDbLine
 10
1.170264321281034
 20
3.444231983958831
 30
0.0
 11
1.218383965869856
 21
3.484458271357257
 31
0.0
  0
LINE
  5
749
330
1F
100
AcDbEntity
  8
DET-IMAGE
 62
     0
100
AcDbLine
 10
1.276557571943778
 20
3.491031265604258
 30
0.0
 11
1.252381527861113
 21
3.463606013746075
 31
0.0
  0
LINE
  5
74A
330
1F
100
AcDbEntity
  8
DET-IMAGE
 62
     0
100
AcDbLine
 10
1.257896687917475
 20
3.45370874654657
 30
0.0
 11
1.286454639990121
 21
3.491031265604258
 31
0.0
  0
LINE
  5
74B
330
1F
100
AcDbEntity
  8
DET-IMAGE
 62
     0
100
AcDbLine
 10
0.405474700020827
 20
3.659058153021912
 30
0.0
 11
0.4252688361135117
 21
3.604207649305537
 31
0.0
  0
LINE
  5
74C
330
1F
100
AcDbEntity
  8
DET-IMAGE
 62
     0
100
AcDbLine
 10
0.4153717680671694
 20
3.604207649305537
 30
0.0
 11
0.405474700020827
 21
3.659058153021912
 31
0.0
  0
LINE
  5
74D
330
1F
100
AcDbEntity
  8
DET-IMAGE
 62
     0
100
AcDbLine
 10
0.4988546702901235
 20
3.640396893493057
 30
0.0
 11
0.5086761881987147
 21
3.563560857295331
 31
0.0
  0
LINE
  5
74E
330
1F
100
AcDbEntity
  8
DET-IMAGE
 62
     0
100
AcDbLine
 10
0.4988546702901235
 20
3.560236584342826
 30
0.0
 11
0.4988546702901235
 21
3.640396893493057
 31
0.0
  0
LINE
  5
74F
330
1F
100
AcDbEntity
  8
DET-IMAGE
 62
     0
100
AcDbLine
 10
0.577880114385346
 20
3.637148172198559
 30
0.0
 11
0.5822620223753265
 21
3.53606005377914
 31
0.0
  0
LINE
  5
750
330
1F
100
AcDbEntity
  8
DET-IMAGE
 62
     0
100
AcDbLine
 10
0.5625434364204072
 20
3.686558956538101
 30
0.0
 11
0.577880114385346
 21
3.637148172198559
 31
0.0
  0
LINE
  5
751
330
1F
100
AcDbEntity
  8
DET-IMAGE
 62
     0
100
AcDbLine
 10
0.5679830463390036
 20
3.640396893493057
 30
0.0
 11
0.5625434364204072
 21
3.686558956538101
 31
0.0
  0
LINE
  5
752
330
1F
100
AcDbEntity
  8
DET-IMAGE
 62
     0
100
AcDbLine
 10
0.5723649543289842
 20
3.53606005377914
 30
0.0
 11
0.5679830463390036
 21
3.640396893493057
 31
0.0
  0
LINE
  5
753
330
1F
100
AcDbEntity
  8
DET-IMAGE
 62
     0
100
AcDbLine
 10
0.6218502945606961
 20
3.646969887740065
 30
0.0
 11
0.6316718124692731
 21
3.570133851542339
 31
0.0
  0
LINE
  5
754
330
1F
100
AcDbEntity
  8
DET-IMAGE
 62
     0
100
AcDbLine
 10
0.6218502945606961
 20
3.578897843871682
 30
0.0
 11
0.6218502945606961
 21
3.646969887740065
 31
0.0
  0
LINE
  5
755
330
1F
100
AcDbEntity
  8
DET-IMAGE
 62
     0
100
AcDbLine
 10
0.6780381997732636
 20
3.659058153021912
 30
0.0
 11
0.6978323358659484
 21
3.604207649305537
 31
0.0
  0
LINE
  5
756
330
1F
100
AcDbEntity
  8
DET-IMAGE
 62
     0
100
AcDbLine
 10
0.687935267819606
 20
3.604207649305537
 30
0.0
 11
0.6780381997732636
 21
3.659058153021912
 31
0.0
  0
LINE
  5
757
330
1F
100
AcDbEntity
  8
DET-IMAGE
 62
     0
100
AcDbLine
 10
0.7714181700425602
 20
3.640396893493057
 30
0.0
 11
0.7812396879511514
 21
3.563560857295331
 31
0.0
  0
LINE
  5
758
330
1F
100
AcDbEntity
  8
DET-IMAGE
 62
     0
100
AcDbLine
 10
0.7714181700425602
 20
3.560236584342826
 30
0.0
 11
0.7714181700425602
 21
3.640396893493057
 31
0.0
  0
LINE
  5
759
330
1F
100
AcDbEntity
  8
DET-IMAGE
 62
     0
100
AcDbLine
 10
0.8504436141377827
 20
3.637148172198559
 30
0.0
 11
0.8548255221277632
 21
3.53606005377914
 31
0.0
  0
LINE
  5
75A
330
1F
100
AcDbEntity
  8
DET-IMAGE
 62
     0
100
AcDbLine
 10
0.8351069361728438
 20
3.686558956538101
 30
0.0
 11
0.8504436141377827
 21
3.637148172198559
 31
0.0
  0
LINE
  5
75B
330
1F
100
AcDbEntity
  8
DET-IMAGE
 62
     0
100
AcDbLine
 10
0.8405465460914403
 20
3.640396893493057
 30
0.0
 11
0.8351069361728438
 21
3.686558956538101
 31
0.0
  0
LINE
  5
75C
330
1F
100
AcDbEntity
  8
DET-IMAGE
 62
     0
100
AcDbLine
 10
0.8449284540814208
 20
3.53606005377914
 30
0.0
 11
0.8405465460914403
 21
3.640396893493057
 31
0.0
  0
LINE
  5
75D
330
1F
100
AcDbEntity
  8
DET-IMAGE
 62
     0
100
AcDbLine
 10
1.002008371330001
 20
3.659058153021905
 30
0.0
 11
1.021802507422672
 21
3.604207649305531
 31
0.0
  0
LINE
  5
75E
330
1F
100
AcDbEntity
  8
DET-IMAGE
 62
     0
100
AcDbLine
 10
1.01190543937633
 20
3.604207649305531
 30
0.0
 11
1.002008371330001
 21
3.659058153021905
 31
0.0
  0
LINE
  5
75F
330
1F
100
AcDbEntity
  8
DET-IMAGE
 62
     0
100
AcDbLine
 10
0.8944137943131327
 20
3.646969887740065
 30
0.0
 11
0.9042353122217097
 21
3.570133851542339
 31
0.0
  0
LINE
  5
760
330
1F
100
AcDbEntity
  8
DET-IMAGE
 62
     0
100
AcDbLine
 10
0.8944137943131327
 20
3.578897843871682
 30
0.0
 11
0.8944137943131327
 21
3.646969887740065
 31
0.0
  0
LINE
  5
761
330
1F
100
AcDbEntity
  8
DET-IMAGE
 62
     0
100
AcDbLine
 10
1.095388341599297
 20
3.640396893493049
 30
0.0
 11
1.105209859507875
 21
3.563560857295324
 31
0.0
  0
LINE
  5
762
330
1F
100
AcDbEntity
  8
DET-IMAGE
 62
     0
100
AcDbLine
 10
1.095388341599297
 20
3.56023658434282
 30
0.0
 11
1.095388341599297
 21
3.640396893493049
 31
0.0
  0
LINE
  5
763
330
1F
100
AcDbEntity
  8
DET-IMAGE
 62
     0
100
AcDbLine
 10
1.218383965869856
 20
3.646969887740057
 30
0.0
 11
1.228205483778448
 21
3.570133851542332
 31
0.0
  0
LINE
  5
764
330
1F
100
AcDbEntity
  8
DET-IMAGE
 62
     0
100
AcDbLine
 10
1.218383965869856
 20
3.578897843871674
 30
0.0
 11
1.218383965869856
 21
3.646969887740057
 31
0.0
  0
LINE
  5
765
330
1F
100
AcDbEntity
  8
DET-IMAGE
 62
     0
100
AcDbLine
 10
1.174413785694506
 20
3.637148172198552
 30
0.0
 11
1.178795693684501
 21
3.536060053779134
 31
0.0
  0
LINE
  5
766
330
1F
100
AcDbEntity
  8
DET-IMAGE
 62
     0
100
AcDbLine
 10
1.159077107729567
 20
3.686558956538095
 30
0.0
 11
1.174413785694506
 21
3.637148172198552
 31
0.0
  0
LINE
  5
767
330
1F
100
AcDbEntity
  8
DET-IMAGE
 62
     0
100
AcDbLine
 10
1.164516717648164
 20
3.640396893493049
 30
0.0
 11
1.159077107729567
 21
3.686558956538095
 31
0.0
  0
LINE
  5
768
330
1F
100
AcDbEntity
  8
DET-IMAGE
 62
     0
100
AcDbLine
 10
1.168898625638159
 20
3.536060053779134
 30
0.0
 11
1.164516717648164
 21
3.640396893493049
 31
0.0
  0
LINE
  5
769
330
1F
100
AcDbEntity
  8
0
  6
Continuous
100
AcDbLine
 10
1.298485705620381
 20
3.433308676632805
 30
0.0
 11
0.1847722782464061
 21
3.433308676632805
 31
0.0
  0
LINE
  5
76A
330
1F
100
AcDbEntity
  8
0
  6
Continuous
100
AcDbLine
 10
3.394977187622751
 20
3.433308676632805
 30
0.0
 11
4.539514737623477
 21
3.433308676632805
 31
0.0
  0
LINE
  5
806
330
1F
100
AcDbEntity
  8
DET-IMAGE
 62
     0
100
AcDbLine
 10
4.024222993262898
 20
3.536806382750639
 30
0.0
 11
4.015691620859429
 21
3.444978312930337
 31
0.0
  0
LINE
  5
807
330
1F
100
AcDbEntity
  8
DET-IMAGE
 62
     0
100
AcDbLine
 10
4.004504407307978
 20
3.687305285509601
 30
0.0
 11
4.019841085272916
 21
3.637894501170058
 31
0.0
  0
LINE
  5
808
330
1F
100
AcDbEntity
  8
DET-IMAGE
 62
     0
100
AcDbLine
 10
4.015691620859429
 20
3.444978312930337
 30
0.0
 11
4.058296105391906
 21
3.528042390421303
 31
0.0
  0
LINE
  5
809
330
1F
100
AcDbEntity
  8
DET-IMAGE
 62
     0
100
AcDbLine
 10
4.015691620859429
 20
3.444978312930337
 30
0.0
 11
4.063811265448266
 21
3.485204600328762
 31
0.0
  0
LINE
  5
80A
330
1F
100
AcDbEntity
  8
DET-IMAGE
 62
     0
100
AcDbLine
 10
4.097808827439509
 20
3.464352342717581
 30
0.0
 11
4.015691620859429
 21
3.444978312930337
 31
0.0
  0
LINE
  5
80B
330
1F
100
AcDbEntity
  8
DET-IMAGE
 62
     0
100
AcDbLine
 10
3.950637159086286
 20
3.564307186266829
 30
0.0
 11
4.004782408030979
 21
3.444978312930337
 31
0.0
  0
LINE
  5
80C
330
1F
100
AcDbEntity
  8
DET-IMAGE
 62
     0
100
AcDbLine
 10
3.99145479179646
 20
3.444978312930337
 30
0.0
 11
3.940815641177695
 21
3.560982913314325
 31
0.0
  0
LINE
  5
80D
330
1F
100
AcDbEntity
  8
DET-IMAGE
 62
     0
100
AcDbLine
 10
4.004782408030979
 20
3.444978312930337
 30
0.0
 11
4.014325925216555
 21
3.536806382750639
 31
0.0
  0
LINE
  5
80E
330
1F
100
AcDbEntity
  8
DET-IMAGE
 62
     0
100
AcDbLine
 10
3.849197344607676
 20
3.574720748119601
 30
0.0
 11
3.85793018767278
 21
3.497870182756869
 31
0.0
  0
LINE
  5
80F
330
1F
100
AcDbEntity
  8
DET-IMAGE
 62
     0
100
AcDbLine
 10
3.849197344607676
 20
3.515336220339306
 30
0.0
 11
3.849197344607676
 21
3.574720748119601
 31
0.0
  0
LINE
  5
810
330
1F
100
AcDbEntity
  8
DET-IMAGE
 62
     0
100
AcDbLine
 10
3.80968122973812
 20
3.622970676941085
 30
0.0
 11
3.818414072803209
 21
3.533020583391532
 31
0.0
  0
LINE
  5
811
330
1F
100
AcDbEntity
  8
DET-IMAGE
 62
     0
100
AcDbLine
 10
3.778282810241964
 20
3.450240424310954
 30
0.0
 11
3.80968122973812
 21
3.557254710537164
 31
0.0
  0
LINE
  5
812
330
1F
100
AcDbEntity
  8
DET-IMAGE
 62
     0
100
AcDbLine
 10
3.867229807001083
 20
3.604953978277037
 30
0.0
 11
3.90560927698232
 21
3.524718117468792
 31
0.0
  0
LINE
  5
813
330
1F
100
AcDbEntity
  8
DET-IMAGE
 62
     0
100
AcDbLine
 10
3.901227368992324
 20
3.515954125139457
 30
0.0
 11
3.857332738954741
 21
3.604953978277037
 31
0.0
  0
LINE
  5
814
330
1F
100
AcDbEntity
  8
DET-IMAGE
 62
     0
100
AcDbLine
 10
3.398451474765972
 20
3.607585046402916
 30
0.0
 11
3.43683094474721
 21
3.527349185594671
 31
0.0
  0
LINE
  5
815
330
1F
100
AcDbEntity
  8
DET-IMAGE
 62
     0
100
AcDbLine
 10
3.432449036757228
 20
3.518585193265336
 30
0.0
 11
3.38855440671963
 21
3.607585046402916
 31
0.0
  0
LINE
  5
816
330
1F
100
AcDbEntity
  8
DET-IMAGE
 62
     0
100
AcDbLine
 10
3.604854451121748
 20
3.573511248639717
 30
0.0
 11
3.599414841203136
 21
3.52077619134767
 31
0.0
  0
LINE
  5
817
330
1F
100
AcDbEntity
  8
DET-IMAGE
 62
     0
100
AcDbLine
 10
3.589517773156794
 20
3.530673458547182
 30
0.0
 11
3.595032933213156
 21
3.582275240969059
 31
0.0
  0
LINE
  5
818
330
1F
100
AcDbEntity
  8
DET-IMAGE
 62
     0
100
AcDbLine
 10
3.555444661027802
 20
3.539437450876518
 30
0.0
 11
3.546913288624333
 21
3.447609381056216
 31
0.0
  0
LINE
  5
819
330
1F
100
AcDbEntity
  8
DET-IMAGE
 62
     0
100
AcDbLine
 10
3.536004075795868
 20
3.447609381056216
 30
0.0
 11
3.545547592981459
 21
3.539437450876518
 31
0.0
  0
LINE
  5
81A
330
1F
100
AcDbEntity
  8
DET-IMAGE
 62
     0
100
AcDbLine
 10
3.481858826851175
 20
3.566938254392709
 30
0.0
 11
3.536004075795868
 21
3.447609381056216
 31
0.0
  0
LINE
  5
81B
330
1F
100
AcDbEntity
  8
DET-IMAGE
 62
     0
100
AcDbLine
 10
3.522676459561362
 20
3.447609381056216
 30
0.0
 11
3.472037308942597
 21
3.563613981440204
 31
0.0
  0
LINE
  5
81C
330
1F
100
AcDbEntity
  8
DET-IMAGE
 62
     0
100
AcDbLine
 10
3.624648587214431
 20
3.563613981440204
 30
0.0
 11
3.624648587214431
 21
3.52077619134767
 31
0.0
  0
LINE
  5
81D
330
1F
100
AcDbEntity
  8
DET-IMAGE
 62
     0
100
AcDbLine
 10
3.619133427158071
 20
3.530673458547182
 30
0.0
 11
3.624648587214431
 21
3.563613981440204
 31
0.0
  0
LINE
  5
81E
330
1F
100
AcDbEntity
  8
DET-IMAGE
 62
     0
100
AcDbLine
 10
3.677382583369743
 20
3.546085996781534
 30
0.0
 11
3.653206539287078
 21
3.494408662701643
 31
0.0
  0
LINE
  5
81F
330
1F
100
AcDbEntity
  8
DET-IMAGE
 62
     0
100
AcDbLine
 10
3.663103607333421
 20
3.494408662701643
 30
0.0
 11
3.677382583369743
 21
3.546085996781534
 31
0.0
  0
LINE
  5
820
330
1F
100
AcDbEntity
  8
DET-IMAGE
 62
     0
100
AcDbLine
 10
3.704237359405014
 20
3.555508106778915
 30
0.0
 11
3.704237359405014
 21
3.500708413864024
 31
0.0
  0
LINE
  5
821
330
1F
100
AcDbEntity
  8
DET-IMAGE
 62
     0
100
AcDbLine
 10
3.71689998184941
 20
3.496560229938196
 30
0.0
 11
3.709913707397321
 21
3.551359922853094
 31
0.0
  0
LINE
  5
822
330
1F
100
AcDbEntity
  8
DET-IMAGE
 62
     0
100
AcDbLine
 10
3.742006905661571
 20
3.566642705737719
 30
0.0
 11
3.754669528105952
 21
3.507694828896993
 31
0.0
  0
LINE
  5
823
330
1F
100
AcDbEntity
  8
DET-IMAGE
 62
     0
100
AcDbLine
 10
3.766022224090578
 20
3.516209522218431
 30
0.0
 11
3.754669528105952
 21
3.571009215133328
 31
0.0
  0
LINE
  5
824
330
1F
100
AcDbEntity
  8
DET-IMAGE
 62
     0
100
AcDbLine
 10
3.43683094474721
 20
3.527349185594671
 30
0.0
 11
3.522676459561362
 21
3.447609381056216
 31
0.0
  0
LINE
  5
825
330
1F
100
AcDbEntity
  8
DET-IMAGE
 62
     0
100
AcDbLine
 10
3.509153462802012
 20
3.447609381056216
 30
0.0
 11
3.432449036757228
 21
3.518585193265336
 31
0.0
  0
LINE
  5
826
330
1F
100
AcDbEntity
  8
DET-IMAGE
 62
     0
100
AcDbLine
 10
3.462140240896256
 20
3.451646424267123
 30
0.0
 11
3.480104721695577
 21
3.447609381056216
 31
0.0
  0
LINE
  5
827
330
1F
100
AcDbEntity
  8
DET-IMAGE
 62
     0
100
AcDbLine
 10
3.43683094474721
 20
3.472498681878298
 30
0.0
 11
3.462140240896256
 21
3.451646424267123
 31
0.0
  0
LINE
  5
828
330
1F
100
AcDbEntity
  8
DET-IMAGE
 62
     0
100
AcDbLine
 10
3.418170060720906
 20
3.501057208606666
 30
0.0
 11
3.43683094474721
 21
3.472498681878298
 31
0.0
  0
LINE
  5
829
330
1F
100
AcDbEntity
  8
DET-IMAGE
 62
     0
100
AcDbLine
 10
3.43683094474721
 20
3.48239594907781
 30
0.0
 11
3.418170060720906
 21
3.501057208606666
 31
0.0
  0
LINE
  5
82A
330
1F
100
AcDbEntity
  8
DET-IMAGE
 62
     0
100
AcDbLine
 10
3.462140240896256
 20
3.463659137890949
 30
0.0
 11
3.43683094474721
 21
3.48239594907781
 31
0.0
  0
LINE
  5
82B
330
1F
100
AcDbEntity
  8
DET-IMAGE
 62
     0
100
AcDbLine
 10
3.509153462802012
 20
3.447609381056216
 30
0.0
 11
3.462140240896256
 21
3.463659137890949
 31
0.0
  0
LINE
  5
82C
330
1F
100
AcDbEntity
  8
DET-IMAGE
 62
     0
100
AcDbLine
 10
3.480104721695577
 20
3.447609381056216
 30
0.0
 11
3.501440929568132
 21
3.442814631121575
 31
0.0
  0
LINE
  5
82D
330
1F
100
AcDbEntity
  8
DET-IMAGE
 62
     0
100
AcDbLine
 10
3.777049094815128
 20
3.450240424310954
 30
0.0
 11
3.766022224090578
 21
3.516209522218431
 31
0.0
  0
LINE
  5
82E
330
1F
100
AcDbEntity
  8
DET-IMAGE
 62
     0
100
AcDbLine
 10
3.653206539287078
 20
3.494408662701643
 30
0.0
 11
3.629030495204413
 21
3.46698341084346
 31
0.0
  0
LINE
  5
82F
330
1F
100
AcDbEntity
  8
DET-IMAGE
 62
     0
100
AcDbLine
 10
3.634545655260775
 20
3.457086143643954
 30
0.0
 11
3.663103607333421
 21
3.494408662701643
 31
0.0
  0
LINE
  5
830
330
1F
100
AcDbEntity
  8
DET-IMAGE
 62
     0
100
AcDbLine
 10
3.599414841203136
 20
3.52077619134767
 30
0.0
 11
3.562597406315484
 21
3.460720737784354
 31
0.0
  0
LINE
  5
831
330
1F
100
AcDbEntity
  8
DET-IMAGE
 62
     0
100
AcDbLine
 10
3.546913288624333
 20
3.447609381056216
 30
0.0
 11
3.589517773156794
 21
3.530673458547182
 31
0.0
  0
LINE
  5
832
330
1F
100
AcDbEntity
  8
DET-IMAGE
 62
     0
100
AcDbLine
 10
3.604854451121748
 20
3.48239594907781
 30
0.0
 11
3.569571037446091
 21
3.45295505608422
 31
0.0
  0
LINE
  5
833
330
1F
100
AcDbEntity
  8
DET-IMAGE
 62
     0
100
AcDbLine
 10
3.624648587214431
 20
3.52077619134767
 30
0.0
 11
3.604854451121748
 21
3.48239594907781
 31
0.0
  0
LINE
  5
834
330
1F
100
AcDbEntity
  8
DET-IMAGE
 62
     0
100
AcDbLine
 10
3.595032933213156
 20
3.487835668454642
 30
0.0
 11
3.619133427158071
 21
3.530673458547182
 31
0.0
  0
LINE
  5
835
330
1F
100
AcDbEntity
  8
DET-IMAGE
 62
     0
100
AcDbLine
 10
3.546913288624333
 20
3.447609381056216
 30
0.0
 11
3.595032933213156
 21
3.487835668454642
 31
0.0
  0
LINE
  5
836
330
1F
100
AcDbEntity
  8
DET-IMAGE
 62
     0
100
AcDbLine
 10
3.629030495204413
 20
3.46698341084346
 30
0.0
 11
3.546913288624333
 21
3.447609381056216
 31
0.0
  0
LINE
  5
837
330
1F
100
AcDbEntity
  8
DET-IMAGE
 62
     0
100
AcDbLine
 10
3.56316451766322
 20
3.447609381056216
 30
0.0
 11
3.634545655260775
 21
3.457086143643954
 31
0.0
  0
LINE
  5
838
330
1F
100
AcDbEntity
  8
DET-IMAGE
 62
     0
100
AcDbLine
 10
3.704237359405014
 20
3.500708413864024
 30
0.0
 11
3.744576013390942
 21
3.450240424310954
 31
0.0
  0
LINE
  5
839
330
1F
100
AcDbEntity
  8
DET-IMAGE
 62
     0
100
AcDbLine
 10
3.758420884459555
 20
3.450240424310954
 30
0.0
 11
3.71689998184941
 21
3.496560229938196
 31
0.0
  0
LINE
  5
83A
330
1F
100
AcDbEntity
  8
DET-IMAGE
 62
     0
100
AcDbLine
 10
3.754669528105952
 20
3.507694828896993
 30
0.0
 11
3.763976596396589
 21
3.450240424310954
 31
0.0
  0
LINE
  5
83B
330
1F
100
AcDbEntity
  8
DET-IMAGE
 62
     0
100
AcDbLine
 10
3.886948392956016
 20
3.498426140480786
 30
0.0
 11
3.90560927698232
 21
3.469867613752418
 31
0.0
  0
LINE
  5
83C
330
1F
100
AcDbEntity
  8
DET-IMAGE
 62
     0
100
AcDbLine
 10
3.90560927698232
 20
3.479764880951932
 30
0.0
 11
3.886948392956016
 21
3.498426140480786
 31
0.0
  0
LINE
  5
83D
330
1F
100
AcDbEntity
  8
DET-IMAGE
 62
     0
100
AcDbLine
 10
3.85793018767278
 20
3.497870182756869
 30
0.0
 11
3.806460355373448
 21
3.450240424310954
 31
0.0
  0
LINE
  5
83E
330
1F
100
AcDbEntity
  8
DET-IMAGE
 62
     0
100
AcDbLine
 10
3.791848634326415
 20
3.450240424310954
 30
0.0
 11
3.849197344607676
 21
3.515336220339306
 31
0.0
  0
LINE
  5
83F
330
1F
100
AcDbEntity
  8
DET-IMAGE
 62
     0
100
AcDbLine
 10
3.818414072803209
 20
3.533020583391532
 30
0.0
 11
3.791848634326415
 21
3.450240424310954
 31
0.0
  0
LINE
  5
840
330
1F
100
AcDbEntity
  8
DET-IMAGE
 62
     0
100
AcDbLine
 10
3.90560927698232
 20
3.524718117468792
 30
0.0
 11
3.99145479179646
 21
3.444978312930337
 31
0.0
  0
LINE
  5
841
330
1F
100
AcDbEntity
  8
DET-IMAGE
 62
     0
100
AcDbLine
 10
3.977931795037124
 20
3.444978312930337
 30
0.0
 11
3.901227368992324
 21
3.515954125139457
 31
0.0
  0
LINE
  5
842
330
1F
100
AcDbEntity
  8
DET-IMAGE
 62
     0
100
AcDbLine
 10
3.930918573131351
 20
3.449015356141244
 30
0.0
 11
3.948883053930674
 21
3.444978312930337
 31
0.0
  0
LINE
  5
843
330
1F
100
AcDbEntity
  8
DET-IMAGE
 62
     0
100
AcDbLine
 10
3.90560927698232
 20
3.469867613752418
 30
0.0
 11
3.930918573131351
 21
3.449015356141244
 31
0.0
  0
LINE
  5
844
330
1F
100
AcDbEntity
  8
DET-IMAGE
 62
     0
100
AcDbLine
 10
3.930918573131351
 20
3.461028069765069
 30
0.0
 11
3.90560927698232
 21
3.479764880951932
 31
0.0
  0
LINE
  5
845
330
1F
100
AcDbEntity
  8
DET-IMAGE
 62
     0
100
AcDbLine
 10
3.977931795037124
 20
3.444978312930337
 30
0.0
 11
3.930918573131351
 21
3.461028069765069
 31
0.0
  0
LINE
  5
846
330
1F
100
AcDbEntity
  8
DET-IMAGE
 62
     0
100
AcDbLine
 10
3.378657338673301
 20
3.66243555011929
 30
0.0
 11
3.398451474765972
 21
3.607585046402916
 31
0.0
  0
LINE
  5
847
330
1F
100
AcDbEntity
  8
DET-IMAGE
 62
     0
100
AcDbLine
 10
3.38855440671963
 20
3.607585046402916
 30
0.0
 11
3.378657338673301
 21
3.66243555011929
 31
0.0
  0
LINE
  5
848
330
1F
100
AcDbEntity
  8
DET-IMAGE
 62
     0
100
AcDbLine
 10
3.472037308942597
 20
3.643774290590434
 30
0.0
 11
3.481858826851175
 21
3.566938254392709
 31
0.0
  0
LINE
  5
849
330
1F
100
AcDbEntity
  8
DET-IMAGE
 62
     0
100
AcDbLine
 10
3.472037308942597
 20
3.563613981440204
 30
0.0
 11
3.472037308942597
 21
3.643774290590434
 31
0.0
  0
LINE
  5
84A
330
1F
100
AcDbEntity
  8
DET-IMAGE
 62
     0
100
AcDbLine
 10
3.595032933213156
 20
3.650347284837442
 30
0.0
 11
3.604854451121748
 21
3.573511248639717
 31
0.0
  0
LINE
  5
84B
330
1F
100
AcDbEntity
  8
DET-IMAGE
 62
     0
100
AcDbLine
 10
3.595032933213156
 20
3.582275240969059
 30
0.0
 11
3.595032933213156
 21
3.650347284837442
 31
0.0
  0
LINE
  5
84C
330
1F
100
AcDbEntity
  8
DET-IMAGE
 62
     0
100
AcDbLine
 10
3.551062753037806
 20
3.640525569295936
 30
0.0
 11
3.555444661027802
 21
3.539437450876518
 31
0.0
  0
LINE
  5
84D
330
1F
100
AcDbEntity
  8
DET-IMAGE
 62
     0
100
AcDbLine
 10
3.535726075072867
 20
3.689936353635479
 30
0.0
 11
3.551062753037806
 21
3.640525569295936
 31
0.0
  0
LINE
  5
84E
330
1F
100
AcDbEntity
  8
DET-IMAGE
 62
     0
100
AcDbLine
 10
3.541165684991463
 20
3.643774290590434
 30
0.0
 11
3.535726075072867
 21
3.689936353635479
 31
0.0
  0
LINE
  5
84F
330
1F
100
AcDbEntity
  8
DET-IMAGE
 62
     0
100
AcDbLine
 10
3.545547592981459
 20
3.539437450876518
 30
0.0
 11
3.541165684991463
 21
3.643774290590434
 31
0.0
  0
LINE
  5
850
330
1F
100
AcDbEntity
  8
DET-IMAGE
 62
     0
100
AcDbLine
 10
3.71689998184941
 20
3.575157399059163
 30
0.0
 11
3.704237359405014
 21
3.555508106778915
 31
0.0
  0
LINE
  5
851
330
1F
100
AcDbEntity
  8
DET-IMAGE
 62
     0
100
AcDbLine
 10
3.709913707397321
 20
3.551359922853094
 30
0.0
 11
3.71689998184941
 21
3.575157399059163
 31
0.0
  0
LINE
  5
852
330
1F
100
AcDbEntity
  8
DET-IMAGE
 62
     0
100
AcDbLine
 10
3.71689998184941
 20
3.621442398652624
 30
0.0
 11
3.742006905661571
 21
3.566642705737719
 31
0.0
  0
LINE
  5
853
330
1F
100
AcDbEntity
  8
DET-IMAGE
 62
     0
100
AcDbLine
 10
3.709913707397321
 20
3.667727398246084
 30
0.0
 11
3.71689998184941
 21
3.621442398652624
 31
0.0
  0
LINE
  5
854
330
1F
100
AcDbEntity
  8
DET-IMAGE
 62
     0
100
AcDbLine
 10
3.722358008765101
 20
3.624280629759765
 30
0.0
 11
3.709913707397321
 21
3.667727398246084
 31
0.0
  0
LINE
  5
855
330
1F
100
AcDbEntity
  8
DET-IMAGE
 62
     0
100
AcDbLine
 10
3.754669528105952
 20
3.571009215133328
 30
0.0
 11
3.722358008765101
 21
3.624280629759765
 31
0.0
  0
LINE
  5
856
330
1F
100
AcDbEntity
  8
DET-IMAGE
 62
     0
100
AcDbLine
 10
3.80968122973812
 20
3.557254710537164
 30
0.0
 11
3.80968122973812
 21
3.622970676941085
 31
0.0
  0
LINE
  5
857
330
1F
100
AcDbEntity
  8
DET-IMAGE
 62
     0
100
AcDbLine
 10
3.847435670908398
 20
3.659804481993411
 30
0.0
 11
3.867229807001083
 21
3.604953978277037
 31
0.0
  0
LINE
  5
858
330
1F
100
AcDbEntity
  8
DET-IMAGE
 62
     0
100
AcDbLine
 10
3.857332738954741
 20
3.604953978277037
 30
0.0
 11
3.847435670908398
 21
3.659804481993411
 31
0.0
  0
LINE
  5
859
330
1F
100
AcDbEntity
  8
DET-IMAGE
 62
     0
100
AcDbLine
 10
3.940815641177695
 20
3.641143222464555
 30
0.0
 11
3.950637159086286
 21
3.564307186266829
 31
0.0
  0
LINE
  5
85A
330
1F
100
AcDbEntity
  8
DET-IMAGE
 62
     0
100
AcDbLine
 10
3.940815641177695
 20
3.560982913314325
 30
0.0
 11
3.940815641177695
 21
3.641143222464555
 31
0.0
  0
LINE
  5
85B
330
1F
100
AcDbEntity
  8
DET-IMAGE
 62
     0
100
AcDbLine
 10
4.009944017226575
 20
3.641143222464555
 30
0.0
 11
4.004504407307978
 21
3.687305285509601
 31
0.0
  0
LINE
  5
85C
330
1F
100
AcDbEntity
  8
DET-IMAGE
 62
     0
100
AcDbLine
 10
4.014325925216555
 20
3.536806382750639
 30
0.0
 11
4.009944017226575
 21
3.641143222464555
 31
0.0
  0
LINE
  5
85D
330
1F
100
AcDbEntity
  8
DET-IMAGE
 62
     0
100
AcDbLine
 10
4.474398131336274
 20
3.622970676941085
 30
0.0
 11
4.483130974401364
 21
3.533020583391532
 31
0.0
  0
LINE
  5
85E
330
1F
100
AcDbEntity
  8
DET-IMAGE
 62
     0
100
AcDbLine
 10
4.442999711840118
 20
3.450240424310954
 30
0.0
 11
4.474398131336274
 21
3.557254710537164
 31
0.0
  0
LINE
  5
85F
330
1F
100
AcDbEntity
  8
DET-IMAGE
 62
     0
100
AcDbLine
 10
4.36895426100317
 20
3.555508106778915
 30
0.0
 11
4.36895426100317
 21
3.500708413864024
 31
0.0
  0
LINE
  5
860
330
1F
100
AcDbEntity
  8
DET-IMAGE
 62
     0
100
AcDbLine
 10
4.381616883447564
 20
3.496560229938196
 30
0.0
 11
4.374630608995476
 21
3.551359922853094
 31
0.0
  0
LINE
  5
861
330
1F
100
AcDbEntity
  8
DET-IMAGE
 62
     0
100
AcDbLine
 10
4.406723807259725
 20
3.566642705737719
 30
0.0
 11
4.419386429704106
 21
3.507694828896993
 31
0.0
  0
LINE
  5
862
330
1F
100
AcDbEntity
  8
DET-IMAGE
 62
     0
100
AcDbLine
 10
4.430739125688732
 20
3.516209522218431
 30
0.0
 11
4.419386429704106
 21
3.571009215133328
 31
0.0
  0
LINE
  5
863
330
1F
100
AcDbEntity
  8
DET-IMAGE
 62
     0
100
AcDbLine
 10
4.184836313131244
 20
3.577826680162095
 30
0.0
 11
4.20883130985
 21
3.517839188365235
 31
0.0
  0
LINE
  5
864
330
1F
100
AcDbEntity
  8
DET-IMAGE
 62
     0
100
AcDbLine
 10
4.196833811490622
 20
3.517839188365235
 30
0.0
 11
4.184836313131244
 21
3.577826680162095
 31
0.0
  0
LINE
  5
865
330
1F
100
AcDbEntity
  8
DET-IMAGE
 62
     0
100
AcDbLine
 10
4.256821303287482
 20
3.565829181802717
 30
0.0
 11
4.268818801646846
 21
3.505841690005864
 31
0.0
  0
LINE
  5
866
330
1F
100
AcDbEntity
  8
DET-IMAGE
 62
     0
100
AcDbLine
 10
4.256821303287482
 20
3.505841690005864
 30
0.0
 11
4.244823804928105
 21
3.565829181802717
 31
0.0
  0
LINE
  5
867
330
1F
100
AcDbEntity
  8
DET-IMAGE
 62
     0
100
AcDbLine
 10
4.328806293443721
 20
3.589824178521466
 30
0.0
 11
4.340803791803085
 21
3.529836686724599
 31
0.0
  0
LINE
  5
868
330
1F
100
AcDbEntity
  8
DET-IMAGE
 62
     0
100
AcDbLine
 10
4.328806293443721
 20
3.529836686724599
 30
0.0
 11
4.328806293443721
 21
3.589824178521466
 31
0.0
  0
LINE
  5
869
330
1F
100
AcDbEntity
  8
DET-IMAGE
 62
     0
100
AcDbLine
 10
4.073632783356844
 20
3.570880180513837
 30
0.0
 11
4.068193173438248
 21
3.518145123221791
 31
0.0
  0
LINE
  5
86A
330
1F
100
AcDbEntity
  8
DET-IMAGE
 62
     0
100
AcDbLine
 10
4.058296105391906
 20
3.528042390421303
 30
0.0
 11
4.063811265448266
 21
3.57964417284318
 31
0.0
  0
LINE
  5
86B
330
1F
100
AcDbEntity
  8
DET-IMAGE
 62
     0
100
AcDbLine
 10
4.093426919449529
 20
3.560982913314325
 30
0.0
 11
4.093426919449529
 21
3.518145123221791
 31
0.0
  0
LINE
  5
86C
330
1F
100
AcDbEntity
  8
DET-IMAGE
 62
     0
100
AcDbLine
 10
4.087911759393167
 20
3.528042390421303
 30
0.0
 11
4.093426919449529
 21
3.560982913314325
 31
0.0
  0
LINE
  5
86D
330
1F
100
AcDbEntity
  8
DET-IMAGE
 62
     0
100
AcDbLine
 10
4.146160915604854
 20
3.543454928655654
 30
0.0
 11
4.121984871522176
 21
3.491777594575764
 31
0.0
  0
LINE
  5
86E
330
1F
100
AcDbEntity
  8
DET-IMAGE
 62
     0
100
AcDbLine
 10
4.131881939568517
 20
3.491777594575764
 30
0.0
 11
4.146160915604854
 21
3.543454928655654
 31
0.0
  0
LINE
  5
86F
330
1F
100
AcDbEntity
  8
DET-IMAGE
 62
     0
100
AcDbLine
 10
4.513914246205831
 20
3.574720748119601
 30
0.0
 11
4.522647089270935
 21
3.497870182756869
 31
0.0
  0
LINE
  5
870
330
1F
100
AcDbEntity
  8
DET-IMAGE
 62
     0
100
AcDbLine
 10
4.513914246205831
 20
3.515336220339306
 30
0.0
 11
4.513914246205831
 21
3.574720748119601
 31
0.0
  0
LINE
  5
871
330
1F
100
AcDbEntity
  8
DET-IMAGE
 62
     0
100
AcDbLine
 10
4.522647089270935
 20
3.497870182756869
 30
0.0
 11
4.471177256971602
 21
3.450240424310954
 31
0.0
  0
LINE
  5
872
330
1F
100
AcDbEntity
  8
DET-IMAGE
 62
     0
100
AcDbLine
 10
4.45656553592457
 20
3.450240424310954
 30
0.0
 11
4.513914246205831
 21
3.515336220339306
 31
0.0
  0
LINE
  5
873
330
1F
100
AcDbEntity
  8
DET-IMAGE
 62
     0
100
AcDbLine
 10
4.068193173438248
 20
3.518145123221791
 30
0.0
 11
4.031375738550595
 21
3.458089669658476
 31
0.0
  0
LINE
  5
874
330
1F
100
AcDbEntity
  8
DET-IMAGE
 62
     0
100
AcDbLine
 10
4.073632783356844
 20
3.479764880951932
 30
0.0
 11
4.038349369681187
 21
3.45032398795834
 31
0.0
  0
LINE
  5
875
330
1F
100
AcDbEntity
  8
DET-IMAGE
 62
     0
100
AcDbLine
 10
4.093426919449529
 20
3.518145123221791
 30
0.0
 11
4.073632783356844
 21
3.479764880951932
 31
0.0
  0
LINE
  5
876
330
1F
100
AcDbEntity
  8
DET-IMAGE
 62
     0
100
AcDbLine
 10
4.063811265448266
 20
3.485204600328762
 30
0.0
 11
4.087911759393167
 21
3.528042390421303
 31
0.0
  0
LINE
  5
877
330
1F
100
AcDbEntity
  8
DET-IMAGE
 62
     0
100
AcDbLine
 10
4.121984871522176
 20
3.491777594575764
 30
0.0
 11
4.097808827439509
 21
3.464352342717581
 31
0.0
  0
LINE
  5
878
330
1F
100
AcDbEntity
  8
DET-IMAGE
 62
     0
100
AcDbLine
 10
4.103323987495872
 20
3.454455075518075
 30
0.0
 11
4.131881939568517
 21
3.491777594575764
 31
0.0
  0
LINE
  5
879
330
1F
100
AcDbEntity
  8
DET-IMAGE
 62
     0
100
AcDbLine
 10
4.031942849898316
 20
3.444978312930337
 30
0.0
 11
4.103323987495872
 21
3.454455075518075
 31
0.0
  0
LINE
  5
87A
330
1F
100
AcDbEntity
  8
DET-IMAGE
 62
     0
100
AcDbLine
 10
4.220828808209363
 20
3.469849194927738
 30
0.0
 11
4.245699690206765
 21
3.444978312930337
 31
0.0
  0
LINE
  5
87B
330
1F
100
AcDbEntity
  8
DET-IMAGE
 62
     0
100
AcDbLine
 10
4.20883130985
 20
3.517839188365235
 30
0.0
 11
4.220828808209363
 21
3.469849194927738
 31
0.0
  0
LINE
  5
87C
330
1F
100
AcDbEntity
  8
DET-IMAGE
 62
     0
100
AcDbLine
 10
4.20883130985
 20
3.469849194927738
 30
0.0
 11
4.196833811490622
 21
3.517839188365235
 31
0.0
  0
LINE
  5
87D
330
1F
100
AcDbEntity
  8
DET-IMAGE
 62
     0
100
AcDbLine
 10
4.227484471348051
 20
3.444978312930337
 30
0.0
 11
4.20883130985
 21
3.469849194927738
 31
0.0
  0
LINE
  5
87E
330
1F
100
AcDbEntity
  8
DET-IMAGE
 62
     0
100
AcDbLine
 10
4.197498935575639
 20
3.457851696568375
 30
0.0
 11
4.210372319213663
 21
3.444978312930337
 31
0.0
  0
LINE
  5
87F
330
1F
100
AcDbEntity
  8
DET-IMAGE
 62
     0
100
AcDbLine
 10
4.197498935575639
 20
3.481846693287116
 30
0.0
 11
4.197498935575639
 21
3.457851696568375
 31
0.0
  0
LINE
  5
880
330
1F
100
AcDbEntity
  8
DET-IMAGE
 62
     0
100
AcDbLine
 10
4.209496433935017
 20
3.457851696568375
 30
0.0
 11
4.197498935575639
 21
3.481846693287116
 31
0.0
  0
LINE
  5
881
330
1F
100
AcDbEntity
  8
DET-IMAGE
 62
     0
100
AcDbLine
 10
4.224654067675148
 20
3.444978312930337
 30
0.0
 11
4.209496433935017
 21
3.457851696568375
 31
0.0
  0
LINE
  5
882
330
1F
100
AcDbEntity
  8
DET-IMAGE
 62
     0
100
AcDbLine
 10
4.244823804928105
 20
3.445854198208997
 30
0.0
 11
4.256821303287482
 21
3.505841690005864
 31
0.0
  0
LINE
  5
883
330
1F
100
AcDbEntity
  8
DET-IMAGE
 62
     0
100
AcDbLine
 10
4.36895426100317
 20
3.500708413864024
 30
0.0
 11
4.409292914989097
 21
3.450240424310954
 31
0.0
  0
LINE
  5
884
330
1F
100
AcDbEntity
  8
DET-IMAGE
 62
     0
100
AcDbLine
 10
4.340803791803085
 20
3.457851696568375
 30
0.0
 11
4.315057024527023
 21
3.444978312930337
 31
0.0
  0
LINE
  5
885
330
1F
100
AcDbEntity
  8
DET-IMAGE
 62
     0
100
AcDbLine
 10
4.352801290162462
 20
3.481846693287116
 30
0.0
 11
4.340803791803085
 21
3.457851696568375
 31
0.0
  0
LINE
  5
886
330
1F
100
AcDbEntity
  8
DET-IMAGE
 62
     0
100
AcDbLine
 10
4.340803791803085
 20
3.469849194927738
 30
0.0
 11
4.352801290162462
 21
3.481846693287116
 31
0.0
  0
LINE
  5
887
330
1F
100
AcDbEntity
  8
DET-IMAGE
 62
     0
100
AcDbLine
 10
4.292813798365602
 20
3.445854198208997
 30
0.0
 11
4.340803791803085
 21
3.469849194927738
 31
0.0
  0
LINE
  5
888
330
1F
100
AcDbEntity
  8
DET-IMAGE
 62
     0
100
AcDbLine
 10
4.268818801646846
 20
3.505841690005864
 30
0.0
 11
4.268818801646846
 21
3.445854198208997
 31
0.0
  0
LINE
  5
889
330
1F
100
AcDbEntity
  8
DET-IMAGE
 62
     0
100
AcDbLine
 10
4.316808795084343
 20
3.481846693287116
 30
0.0
 11
4.289157509816762
 21
3.444978312930337
 31
0.0
  0
LINE
  5
88A
330
1F
100
AcDbEntity
  8
DET-IMAGE
 62
     0
100
AcDbLine
 10
4.340803791803085
 20
3.529836686724599
 30
0.0
 11
4.316808795084343
 21
3.481846693287116
 31
0.0
  0
LINE
  5
88B
330
1F
100
AcDbEntity
  8
DET-IMAGE
 62
     0
100
AcDbLine
 10
4.30481129672498
 20
3.481846693287116
 30
0.0
 11
4.328806293443721
 21
3.529836686724599
 31
0.0
  0
LINE
  5
88C
330
1F
100
AcDbEntity
  8
DET-IMAGE
 62
     0
100
AcDbLine
 10
4.268818801646846
 20
3.445854198208997
 30
0.0
 11
4.30481129672498
 21
3.481846693287116
 31
0.0
  0
LINE
  5
88D
330
1F
100
AcDbEntity
  8
DET-IMAGE
 62
     0
100
AcDbLine
 10
4.483130974401364
 20
3.533020583391532
 30
0.0
 11
4.45656553592457
 21
3.450240424310954
 31
0.0
  0
LINE
  5
88E
330
1F
100
AcDbEntity
  8
DET-IMAGE
 62
     0
100
AcDbLine
 10
4.42313778605771
 20
3.450240424310954
 30
0.0
 11
4.381616883447564
 21
3.496560229938196
 31
0.0
  0
LINE
  5
88F
330
1F
100
AcDbEntity
  8
DET-IMAGE
 62
     0
100
AcDbLine
 10
4.419386429704106
 20
3.507694828896993
 30
0.0
 11
4.428693497994744
 21
3.450240424310954
 31
0.0
  0
LINE
  5
890
330
1F
100
AcDbEntity
  8
DET-IMAGE
 62
     0
100
AcDbLine
 10
4.441765996413283
 20
3.450240424310954
 30
0.0
 11
4.430739125688732
 21
3.516209522218431
 31
0.0
  0
LINE
  5
891
330
1F
100
AcDbEntity
  8
DET-IMAGE
 62
     0
100
AcDbLine
 10
4.019841085272916
 20
3.637894501170058
 30
0.0
 11
4.024222993262898
 21
3.536806382750639
 31
0.0
  0
LINE
  5
892
330
1F
100
AcDbEntity
  8
DET-IMAGE
 62
     0
100
AcDbLine
 10
4.063811265448266
 20
3.647716216711563
 30
0.0
 11
4.073632783356844
 21
3.570880180513837
 31
0.0
  0
LINE
  5
893
330
1F
100
AcDbEntity
  8
DET-IMAGE
 62
     0
100
AcDbLine
 10
4.063811265448266
 20
3.57964417284318
 30
0.0
 11
4.063811265448266
 21
3.647716216711563
 31
0.0
  0
LINE
  5
894
330
1F
100
AcDbEntity
  8
DET-IMAGE
 62
     0
100
AcDbLine
 10
4.244823804928105
 20
3.613819175240215
 30
0.0
 11
4.256821303287482
 21
3.565829181802717
 31
0.0
  0
LINE
  5
895
330
1F
100
AcDbEntity
  8
DET-IMAGE
 62
     0
100
AcDbLine
 10
4.244823804928105
 20
3.565829181802717
 30
0.0
 11
4.244823804928105
 21
3.613819175240215
 31
0.0
  0
LINE
  5
896
330
1F
100
AcDbEntity
  8
DET-IMAGE
 62
     0
100
AcDbLine
 10
4.381616883447564
 20
3.575157399059163
 30
0.0
 11
4.36895426100317
 21
3.555508106778915
 31
0.0
  0
LINE
  5
897
330
1F
100
AcDbEntity
  8
DET-IMAGE
 62
     0
100
AcDbLine
 10
4.374630608995476
 20
3.551359922853094
 30
0.0
 11
4.381616883447564
 21
3.575157399059163
 31
0.0
  0
LINE
  5
898
330
1F
100
AcDbEntity
  8
DET-IMAGE
 62
     0
100
AcDbLine
 10
4.374630608995476
 20
3.667727398246084
 30
0.0
 11
4.381616883447564
 21
3.621442398652624
 31
0.0
  0
LINE
  5
899
330
1F
100
AcDbEntity
  8
DET-IMAGE
 62
     0
100
AcDbLine
 10
4.387074910363255
 20
3.624280629759765
 30
0.0
 11
4.374630608995476
 21
3.667727398246084
 31
0.0
  0
LINE
  5
89A
330
1F
100
AcDbEntity
  8
DET-IMAGE
 62
     0
100
AcDbLine
 10
4.474398131336274
 20
3.557254710537164
 30
0.0
 11
4.474398131336274
 21
3.622970676941085
 31
0.0
  0
LINE
  5
89B
330
1F
100
AcDbEntity
  8
DET-IMAGE
 62
     0
100
AcDbLine
 10
4.381616883447564
 20
3.621442398652624
 30
0.0
 11
4.406723807259725
 21
3.566642705737719
 31
0.0
  0
LINE
  5
89C
330
1F
100
AcDbEntity
  8
DET-IMAGE
 62
     0
100
AcDbLine
 10
4.419386429704106
 20
3.571009215133328
 30
0.0
 11
4.387074910363255
 21
3.624280629759765
 31
0.0
  0
MTEXT
  5
8A1
330
1F
100
AcDbEntity
  8
0
  6
Continuous
100
AcDbMText
 10
1.381265042221903
 20
0.9655870848255979
 30
0.0
 40
0.13
 41
8.946961307917705
 71
     1
 72
     5
  1
{\fCentury Gothic|b0|i0|c0|p34;LEIT 4000 AND 4000E WITH LIGHT ACCESSIBLE STAINLESS STEEL ENCLOSURE\P\H0.8328x;                                     }
 73
     1
 44
1.0
  0
MTEXT
  5
8A2
330
1F
100
AcDbEntity
  8
0
  6
Continuous
100
AcDbMText
 10
4.929069557413111
 20
9.47805241922284
 30
0.0
 40
0.1
 41
4.029
 71
     1
 72
     5
  1
{\fCentury Gothic|b0|i0|c0|p34;1      LEIT CONTROLLER MODEL LEIT 4000 }
 73
     1
 44
1.0
  0
MTEXT
  5
8AD
330
1F
100
AcDbEntity
  8
0
  6
Continuous
100
AcDbMText
 10
4.919087982189738
 20
5.573659278146264
 30
0.0
 40
0.1
 41
2.81
 71
     1
 72
     5
  1
{\fCentury Gothic|b0|i0|c0|p34;6      FINISH GRADE}
 73
     1
 44
1.0
  0
LEADER
  5
8B7
330
1F
100
AcDbEntity
  8
0
  6
Continuous
100
AcDbLeader
  3
Standard
 76
     2
 10
3.572519191901475
 20
9.244990271861555
 30
0.0
 10
4.129696849462774
 20
9.449415784687575
 30
0.0
1001
ACAD
1000
DSTYLE
1002
{
1070
     5
1000

1070
    41
1040
0.125
1070
    42
1040
0.05
1070
    46
1040
0.125
1070
    77
1070
     0
1070
   140
1040
0.1
1070
   144
1040
6.0
1070
   147
1040
0.05
1070
   289
1070
     3
1002
}
  0
LEADER
  5
8B8
330
1F
100
AcDbEntity
  8
0
  6
Continuous
100
AcDbLeader
  3
Standard
 76
     2
 10
3.410302946224906
 20
8.674008641251309
 30
0.0
 10
4.157908366760518
 20
8.920729113585798
 30
0.0
1001
ACAD
1000
DSTYLE
1002
{
1070
     5
1000

1070
    41
1040
0.125
1070
    42
1040
0.05
1070
    46
1040
0.125
1070
    77
1070
     0
1070
   140
1040
0.1
1070
   144
1040
6.0
1070
   147
1040
0.05
1070
   289
1070
     3
1002
}
  0
LEADER
  5
8BA
330
1F
100
AcDbEntity
  8
0
  6
Continuous
100
AcDbLeader
  3
Standard
 76
     2
 10
3.078817511903716
 20
9.73138200927519
 30
0.0
 10
4.038009397030565
 20
10.03449570070688
 30
0.0
1001
ACAD
1000
DSTYLE
1002
{
1070
     5
1000

1070
    41
1040
0.125
1070
    42
1040
0.05
1070
    46
1040
0.125
1070
    77
1070
     0
1070
   140
1040
0.1
1070
   144
1040
6.0
1070
   147
1040
0.05
1070
   289
1070
     3
1002
}
  0
LEADER
  5
8BB
330
1F
100
AcDbEntity
  8
0
  6
Continuous
100
AcDbLeader
  3
Standard
 76
     2
 10
2.909548365688173
 20
6.72844166577644
 30
0.0
 10
3.76999989784384
 20
6.961063801061223
 30
0.0
1001
ACAD
1000
DSTYLE
1002
{
1070
     5
1000

1070
    41
1040
0.125
1070
    42
1040
0.05
1070
    46
1040
0.125
1070
    77
1070
     0
1070
   140
1040
0.1
1070
   144
1040
6.0
1070
   147
1040
0.05
1070
   289
1070
     3
1002
}
  0
LEADER
  5
8BC
330
1F
100
AcDbEntity
  8
0
  6
Continuous
100
AcDbLeader
  3
Standard
 76
     2
 10
4.616231494705603
 20
3.457833206603577
 30
0.0
 10
5.539673530930772
 20
3.613656654661046
 30
0.0
1001
ACAD
1000
DSTYLE
1002
{
1070
     5
1000

1070
    41
1040
0.125
1070
    42
1040
0.05
1070
    46
1040
0.125
1070
    77
1070
     0
1070
   140
1040
0.1
1070
   144
1040
6.0
1070
   147
1040
0.05
1070
   289
1070
     3
1002
}
  0
LEADER
  5
8BD
330
1F
100
AcDbEntity
  8
0
  6
Continuous
100
AcDbLeader
  3
Standard
 76
     2
 10
3.225072023835302
 20
2.211245673784477
 30
0.0
 10
4.400361899693447
 20
2.391041952059918
 30
0.0
1001
ACAD
1000
DSTYLE
1002
{
1070
     5
1000

1070
    41
1040
0.125
1070
    42
1040
0.05
1070
    46
1040
0.125
1070
    77
1070
     0
1070
   140
1040
0.1
1070
   144
1040
6.0
1070
   147
1040
0.05
1070
   289
1070
     3
1002
}
  0
CIRCLE
  5
8C0
330
1F
100
AcDbEntity
  8
0
  6
Continuous
100
AcDbCircle
 10
4.961307859725736
 20
9.403561109890799
 30
0.0
 40
0.1068339234739888
  0
CIRCLE
  5
8C1
330
1F
100
AcDbEntity
  8
0
  6
Continuous
100
AcDbCircle
 10
4.961307859725736
 20
8.968191246955477
 30
0.0
 40
0.1068339234739888
  0
CIRCLE
  5
8C2
330
1F
100
AcDbEntity
  8
0
  6
Continuous
100
AcDbCircle
 10
4.961307859725736
 20
8.381969234099557
 30
0.0
 40
0.1068339234739888
  0
CIRCLE
  5
8C3
330
1F
100
AcDbEntity
  8
0
  6
Continuous
100
AcDbCircle
 10
4.961307859725736
 20
7.398552159888008
 30
0.0
 40
0.1068339234739888
  0
CIRCLE
  5
8C4
330
1F
100
AcDbEntity
  8
0
  6
Continuous
100
AcDbCircle
 10
4.957408691790717
 20
5.516902248059801
 30
0.0
 40
0.1068339234739888
  0
CIRCLE
  5
8C5
330
1F
100
AcDbEntity
  8
0
  6
Continuous
100
AcDbCircle
 10
4.956410058715641
 20
6.326249017173916
 30
0.0
 40
0.1068339234739888
  0
CIRCLE
  5
8C6
330
1F
100
AcDbEntity
  8
0
  6
Continuous
100
AcDbCircle
 10
4.138494476059112
 20
10.06781959444042
 30
0.0
 40
0.1068339234739888
  0
CIRCLE
  5
8C7
330
1F
100
AcDbEntity
  8
0
  6
Continuous
100
AcDbCircle
 10
4.233297750157827
 20
9.483172272166247
 30
0.0
 40
0.1068339234739888
  0
CIRCLE
  5
8C8
330
1F
100
AcDbEntity
  8
0
  6
Continuous
100
AcDbCircle
 10
4.26153705850072
 20
8.948925581122602
 30
0.0
 40
0.1068339234739888
  0
CIRCLE
  5
8C9
330
1F
100
AcDbEntity
  8
0
  6
Continuous
100
AcDbCircle
 10
3.875009571168026
 20
6.986261754116641
 30
0.0
 40
0.1068339234739888
  0
CIRCLE
  5
8CA
330
1F
100
AcDbEntity
  8
0
  6
Continuous
100
AcDbCircle
 10
5.644299518115596
 20
3.634215495528779
 30
0.0
 40
0.1068339234739888
  0
CIRCLE
  5
8CB
330
1F
100
AcDbEntity
  8
0
  6
Continuous
100
AcDbCircle
 10
0.560742002768738
 20
2.406571253248238
 30
0.0
 40
0.1068339234739888
  0
MTEXT
  5
8CE
330
1F
100
AcDbEntity
  8
0
  6
Continuous
100
AcDbMText
 10
4.105342732363647
 20
10.12987227789628
 30
0.0
 40
0.125
 41
0.137
 71
     1
 72
     5
  1
{\fCentury Gothic|b0|i0|c0|p34;1}
 73
     1
 44
1.0
  0
MTEXT
  5
8CF
330
1F
100
AcDbEntity
  8
0
  6
Continuous
100
AcDbMText
 10
4.185741854582184
 20
9.551197052640806
 30
0.0
 40
0.125
 41
0.141
 71
     1
 72
     5
  1
{\fCentury Gothic|b0|i0|c0|p34;2}
 73
     1
 44
1.0
  0
MTEXT
  5
8D0
330
1F
100
AcDbEntity
  8
0
  6
Continuous
100
AcDbMText
 10
4.224337185425224
 20
9.02471974868653
 30
0.0
 40
0.125
 41
0.161
 71
     1
 72
     5
  1
{\fCentury Gothic|b0|i0|c0|p34;3}
 73
     1
 44
1.0
  0
MTEXT
  5
8D1
330
1F
100
AcDbEntity
  8
0
  6
Continuous
100
AcDbMText
 10
3.825432017472719
 20
7.056376418095329
 30
0.0
 40
0.125
 41
0.182
 71
     1
 72
     5
  1
{\fCentury Gothic|b0|i0|c0|p34;4}
 73
     1
 44
1.0
  0
MTEXT
  5
8D2
330
1F
100
AcDbEntity
  8
0
  6
Continuous
100
AcDbMText
 10
5.607386186791294
 20
3.698594378513276
 30
0.0
 40
0.125
 41
0.173
 71
     1
 72
     5
  1
{\fCentury Gothic|b0|i0|c0|p0;6}
 73
     1
 44
1.0
  0
MTEXT
  5
8D3
330
1F
100
AcDbEntity
  8
0
  6
Continuous
100
AcDbMText
 10
4.47085706227684
 20
2.475787042051028
 30
0.0
 40
0.125
 41
0.189
 71
     1
 72
     5
  1
{\fCentury Gothic|b0|i0|c0|p34;5}
 73
     1
 44
1.0
  0
MTEXT
  5
8FA
330
1F
100
AcDbEntity
  8
0
100
AcDbMText
 10
0.052432198741295
 20
0.1033600782665058
 30
9.014866294703786
 40
0.0684360496240188
 41
0.24
 71
     1
 72
     5
  1
{\fCentury Gothic|b0|i0|c0|p34;F-2}
 73
     1
 44
1.0
  0
ARC
  5
939
330
1F
100
AcDbEntity
  8
0
  6
Continuous
 62
     7
370
    15
100
AcDbCircle
 10
3.502096964802846
 20
8.998285774304653
 30
0.0
 40
0.0326524048552741
100
AcDbArc
 50
183.8751796599146
 51
269.8147166013999
  0
LINE
  5
93A
330
1F
100
AcDbEntity
  8
0
  6
Continuous
 62
     7
370
    15
100
AcDbLine
 10
3.502091386574091
 20
8.965628740160748
 30
0.0
 11
3.533142333058357
 21
8.967725891624841
 31
0.0
  0
ARC
  5
93B
330
1F
100
AcDbEntity
  8
0
  6
Continuous
 62
     7
370
    15
100
AcDbCircle
 10
3.332164225838729
 20
9.297363723959833
 30
0.0
 40
0.2121116979392925
100
AcDbArc
 50
5.763616000859521
 51
16.65607805616385
  0
LWPOLYLINE
  5
93C
330
1F
100
AcDbEntity
  8
0
  6
Continuous
 62
     7
370
    15
100
AcDbPolyline
 90
       14
 70
   128
 43
0.0
 10
3.532994167370904
 20
8.967733764673024
 10
3.533130294913714
 20
8.967725078923092
 10
3.540734084850698
 20
8.96930479334293
 10
3.546815684413456
 20
8.972337643885334
 10
3.551462103482892
 20
8.976152592875655
 10
3.554805710856234
 20
8.980213663511009
 10
3.557079548759755
 20
8.984134720873321
 10
3.558598894677863
 20
8.987798177178407
 10
3.559680194353738
 20
8.991461938246646
 10
3.560560197965373
 20
8.995818781524457
 10
3.561429890423579
 20
9.002896956605847
 10
3.56203184844964
 20
9.011957438235546
 10
3.562366072043554
 20
9.022129619665886
 10
3.562424688157138
 20
9.02763745179447
  0
ARC
  5
93D
330
1F
100
AcDbEntity
  8
0
  6
Continuous
 62
     7
370
    15
100
AcDbCircle
 10
3.467210395013225
 20
8.991686699270144
 30
0.0
 40
0.0049545504551439
100
AcDbArc
 50
45.61403770209387
 51
90.50416512193716
  0
LWPOLYLINE
  5
93E
330
1F
100
AcDbEntity
  8
0
  6
Continuous
 62
     7
370
    15
100
AcDbPolyline
 90
       10
 70
   128
 43
0.0
 10
3.441669297325063
 20
9.020606007063598
 10
3.441761792942772
 20
9.02012237333268
 10
3.443518396977473
 20
9.013074192025181
 10
3.444790275213279
 20
9.009376703834393
 10
3.446475869432738
 20
9.005888664122253
 10
3.448401820194204
 20
9.003114532101977
 10
3.451504512293089
 20
9.000116424559303
 10
3.456016581604789
 20
8.997589557045893
 10
3.461620261745793
 20
8.996417666522033
 10
3.463668422532632
 20
8.996667343737213
  0
LINE
  5
93F
330
1F
100
AcDbEntity
  8
0
  6
Continuous
 62
     7
370
    15
100
AcDbLine
 10
3.463619050901434
 20
8.996440142804754
 30
0.0
 11
3.467069172997638
 21
8.9966731596341
 31
0.0
  0
LINE
  5
940
330
1F
100
AcDbEntity
  8
0
  6
Continuous
 62
     7
370
    15
100
AcDbLine
 10
3.563672134546641
 20
9.00319765625265
 30
0.0
 11
3.567122205848988
 21
9.003430673081994
 31
0.0
  0
LINE
  5
941
330
1F
100
AcDbEntity
  8
0
  6
Continuous
 62
     7
370
    15
100
AcDbLine
 10
3.566192221079842
 20
9.322503585768438
 30
0.0
 11
3.565994582173471
 21
9.32341566252758
 31
0.0
  0
LWPOLYLINE
  5
942
330
1F
100
AcDbEntity
  8
0
  6
Continuous
 62
     7
370
    15
100
AcDbPolyline
 90
       11
 70
   128
 43
0.0
 10
3.567125202686683
 20
9.003652210499146
 10
3.570970399420193
 20
9.004120936232374
 10
3.575872514777132
 20
9.006426012359338
 10
3.579273062066702
 20
9.009379472099722
 10
3.581503623602134
 20
9.012420221087242
 10
3.582915642095633
 20
9.01528524871866
 10
3.583880014307495
 20
9.018169628810455
 10
3.584665134990038
 20
9.021772538835307
 10
3.585490027264379
 20
9.028521772884142
 10
3.58598729914651
 20
9.036581082150951
 10
3.586007362720917
 20
9.037310761336114
  0
LWPOLYLINE
  5
943
330
1F
100
AcDbEntity
  8
0
  6
Continuous
 62
     7
370
    15
100
AcDbPolyline
 90
        3
 70
   128
 43
0.0
 10
3.432268877792282
 20
9.188845694363977
 10
3.432174350420204
 20
9.188687712763219
 10
3.431495388903509
 20
9.188117246929899
  0
LINE
  5
944
330
1F
100
AcDbEntity
  8
0
  6
Continuous
 62
     7
370
    15
100
AcDbLine
 10
3.432022070430151
 20
9.188502861210917
 30
0.0
 11
3.420309616011687
 21
9.175052215531734
 31
0.0
  0
LINE
  5
945
330
1F
100
AcDbEntity
  8
0
  6
Continuous
 62
     7
370
    15
100
AcDbLine
 10
3.430053402033048
 20
9.03078349645223
 30
0.0
 11
3.443468111056808
 21
9.019029924404698
 31
0.0
  0
LINE
  5
946
330
1F
100
AcDbEntity
  8
0
  6
Continuous
 62
     7
370
    15
100
AcDbLine
 10
3.585023028522366
 20
9.02859042078493
 30
0.0
 11
3.59673543214697
 21
9.042041066464115
 31
0.0
  0
LINE
  5
947
330
1F
100
AcDbEntity
  8
0
  6
Continuous
 62
     7
370
    15
100
AcDbLine
 10
3.586991646125608
 20
9.18630979824208
 30
0.0
 11
3.580299707550013
 21
9.192173060400819
 31
0.0
  0
ARC
  5
948
330
1F
100
AcDbEntity
  8
0
  6
Continuous
 62
     7
370
    15
100
AcDbCircle
 10
3.439710494237105
 20
9.041286757522357
 30
0.0
 40
0.0142007083470064
100
AcDbArc
 50
188.8481241436748
 51
223.3155554795952
  0
ARC
  5
949
330
1F
100
AcDbEntity
  8
0
  6
Continuous
 62
     7
370
    15
100
AcDbCircle
 10
3.433572124283394
 20
9.164950584946274
 30
0.0
 40
0.0166508685926888
100
AcDbArc
 50
146.0802781930728
 51
182.5869047785998
  0
ARC
  5
94A
330
1F
100
AcDbEntity
  8
0
  6
Continuous
 62
     7
370
    15
100
AcDbCircle
 10
3.577559978287965
 20
9.175994437420917
 30
0.0
 40
0.0139217030574316
100
AcDbArc
 50
10.42363748275673
 51
44.76458251348424
  0
ARC
  5
94B
330
1F
100
AcDbEntity
  8
0
  6
Continuous
 62
     7
370
    15
100
AcDbCircle
 10
3.58287326421725
 20
9.05242705217357
 30
0.0
 40
0.0172990556340781
100
AcDbArc
 50
325.5983040559882
 51
3.29038614163646
  0
LWPOLYLINE
  5
94C
330
1F
100
AcDbEntity
  8
0
  6
Continuous
 62
     7
370
    15
100
AcDbPolyline
 90
        4
 70
   128
 43
0.0
 10
3.433380602989851
 20
9.20451049516205
 10
3.433319955121898
 20
9.203320229959607
 10
3.433185960921175
 20
9.201914560698516
 10
3.433201300666672
 20
9.201987754649705
  0
LINE
  5
94D
330
1F
100
AcDbEntity
  8
0
  6
Continuous
 62
     7
370
    15
100
AcDbLine
 10
3.428447249409468
 20
9.312040501556899
 30
0.0
 11
3.430257745728842
 21
9.287944577267638
 31
0.0
  0
LINE
  5
94E
330
1F
100
AcDbEntity
  8
0
  6
Continuous
 62
     7
370
    15
100
AcDbLine
 10
3.78013351816709
 20
9.130832834050318
 30
0.0
 11
3.780763768372757
 21
9.132756994328247
 31
0.0
  0
LINE
  5
94F
330
1F
100
AcDbEntity
  8
0
  6
Continuous
 62
     7
370
    15
100
AcDbLine
 10
2.265403999956056
 20
8.650151585088846
 30
0.0
 11
2.265403999956056
 21
8.649285752963944
 31
0.0
  0
LINE
  5
950
330
1F
100
AcDbEntity
  8
0
  6
Continuous
 62
     7
370
    15
100
AcDbLine
 10
2.287049396727756
 20
8.649285752963944
 30
0.0
 11
2.287049396727756
 21
8.650151585088846
 31
0.0
  0
LINE
  5
951
330
1F
100
AcDbEntity
  8
0
  6
Continuous
 62
     7
370
    15
100
AcDbLine
 10
2.300469489900597
 20
10.16965587845166
 30
0.0
 11
2.300469489900597
 21
10.25104242199518
 31
0.0
  0
LINE
  5
952
330
1F
100
AcDbEntity
  8
0
  6
Continuous
 62
     7
370
    15
100
AcDbLine
 10
2.300469489900597
 20
10.00082206807802
 30
0.0
 11
2.300469489900597
 21
10.08220861162154
 31
0.0
  0
LINE
  5
953
330
1F
100
AcDbEntity
  8
0
  6
Continuous
 62
     7
370
    15
100
AcDbLine
 10
2.300469489900597
 20
9.831988257704369
 30
0.0
 11
2.300469489900597
 21
9.91337480124789
 31
0.0
  0
LINE
  5
954
330
1F
100
AcDbEntity
  8
0
  6
Continuous
 62
     7
370
    15
100
AcDbLine
 10
2.300469489900597
 20
9.663154447330722
 30
0.0
 11
2.300469489900597
 21
9.744541016271175
 31
0.0
  0
LINE
  5
955
330
1F
100
AcDbEntity
  8
0
  6
Continuous
 62
     7
370
    15
100
AcDbLine
 10
2.300469489900597
 20
9.156653016209786
 30
0.0
 11
2.300469489900597
 21
9.238039566102538
 31
0.0
  0
LINE
  5
956
330
1F
100
AcDbEntity
  8
0
  6
Continuous
 62
     7
370
    15
100
AcDbLine
 10
2.300469489900597
 20
9.325486824996123
 30
0.0
 11
2.300469489900597
 21
9.406873382825417
 31
0.0
  0
LINE
  5
957
330
1F
100
AcDbEntity
  8
0
  6
Continuous
 62
     7
370
    15
100
AcDbLine
 10
2.300469489900597
 20
8.818985395462493
 30
0.0
 11
2.300469489900597
 21
8.900371939006016
 31
0.0
  0
LINE
  5
958
330
1F
100
AcDbEntity
  8
0
  6
Continuous
 62
     7
370
    15
100
AcDbLine
 10
2.300469489900597
 20
9.494320636957077
 30
0.0
 11
2.300469489900597
 21
9.575707180500599
 31
0.0
  0
LINE
  5
959
330
1F
100
AcDbEntity
  8
0
  6
Continuous
 62
     7
370
    15
100
AcDbLine
 10
2.300469489900597
 20
8.98781920583614
 30
0.0
 11
2.300469489900597
 21
9.06920574937966
 31
0.0
  0
LINE
  5
95A
330
1F
100
AcDbEntity
  8
0
  6
Continuous
 62
     7
370
    15
100
AcDbLine
 10
2.300469489900597
 20
8.665982354822047
 30
0.0
 11
2.300469489900597
 21
8.73153812863237
 31
0.0
  0
LINE
  5
95B
330
1F
100
AcDbEntity
  8
0
  6
Continuous
 62
     7
370
    15
100
AcDbLine
 10
2.272555013431619
 20
8.646872892267634
 30
0.0
 11
2.259568293465965
 21
8.646872892267634
 31
0.0
  0
LINE
  5
95C
330
1F
100
AcDbEntity
  8
0
  6
Continuous
 62
     7
370
    15
100
AcDbLine
 10
2.259568293465965
 20
8.650151585088846
 30
0.0
 11
2.259568293465965
 21
8.646872892267634
 31
0.0
  0
LINE
  5
95D
330
1F
100
AcDbEntity
  8
0
  6
Continuous
 62
     7
370
    15
100
AcDbLine
 10
2.259568293465965
 20
10.27355365089179
 30
0.0
 11
2.259568293465965
 21
10.25190825412009
 31
0.0
  0
LINE
  5
95E
330
1F
100
AcDbEntity
  8
0
  6
Continuous
 62
     7
370
    15
100
AcDbLine
 10
2.259568293465965
 20
10.27355365089179
 30
0.0
 11
2.272555013431619
 21
10.27355365089179
 31
0.0
  0
LINE
  5
95F
330
1F
100
AcDbEntity
  8
0
  6
Continuous
 62
     7
370
    15
100
AcDbLine
 10
2.272555013431619
 20
10.27355365089179
 30
0.0
 11
2.272555013431619
 21
10.25104242199518
 31
0.0
  0
LINE
  5
960
330
1F
100
AcDbEntity
  8
0
  6
Continuous
 62
     7
370
    15
100
AcDbLine
 10
2.272555013431619
 20
8.649285752963944
 30
0.0
 11
2.272555013431619
 21
8.646872892267634
 31
0.0
  0
LINE
  5
961
330
1F
100
AcDbEntity
  8
0
  6
Continuous
 62
     7
370
    15
100
AcDbLine
 10
2.259568293465965
 20
8.646872892267634
 30
0.0
 11
2.259416572208363
 21
8.646872892267634
 31
0.0
  0
LINE
  5
962
330
1F
100
AcDbEntity
  8
0
  6
Continuous
 62
     7
370
    15
100
AcDbLine
 10
2.259416572208363
 20
8.646872892267634
 30
0.0
 11
2.258544340057194
 21
8.646872892267634
 31
0.0
  0
LINE
  5
963
330
1F
100
AcDbEntity
  8
0
  6
Continuous
 62
     7
370
    15
100
AcDbLine
 10
2.258544340057194
 20
10.27355365089179
 30
0.0
 11
2.258544340057194
 21
10.25190825412009
 31
0.0
  0
LINE
  5
964
330
1F
100
AcDbEntity
  8
0
  6
Continuous
 62
     7
370
    15
100
AcDbLine
 10
2.258544340057194
 20
8.650151585088846
 30
0.0
 11
2.258544340057194
 21
8.646872892267634
 31
0.0
  0
LINE
  5
965
330
1F
100
AcDbEntity
  8
0
  6
Continuous
 62
     7
370
    15
100
AcDbLine
 10
2.259568293465965
 20
10.27355365089179
 30
0.0
 11
2.259416572208363
 21
10.27355365089179
 31
0.0
  0
LINE
  5
966
330
1F
100
AcDbEntity
  8
0
  6
Continuous
 62
     7
370
    15
100
AcDbLine
 10
1.146887714198794
 20
10.27571818041019
 30
0.0
 11
1.146887714198794
 21
9.420726411108404
 31
0.0
  0
ARC
  5
967
330
1F
100
AcDbEntity
  8
0
  6
Continuous
 62
     7
370
    15
100
AcDbCircle
 10
1.15771014777355
 20
10.27571839442701
 30
0.0
 40
0.0108224335768716
100
AcDbArc
 50
90.00101824656836
 51
180.0011330410007
  0
LINE
  5
968
330
1F
100
AcDbEntity
  8
0
  6
Continuous
 62
     7
370
    15
100
AcDbLine
 10
2.261581050932902
 20
10.28654082800217
 30
0.0
 11
1.15770995543991
 21
10.28654082800217
 31
0.0
  0
ARC
  5
969
330
1F
100
AcDbEntity
  8
0
  6
Continuous
 62
     7
370
    15
100
AcDbCircle
 10
2.26158093754244
 20
10.27571847336722
 30
0.0
 40
0.0108223546355436
100
AcDbArc
 50
359.9984490249641
 51
89.99939968750466
  0
LINE
  5
96A
330
1F
100
AcDbEntity
  8
0
  6
Continuous
 62
     7
370
    15
100
AcDbLine
 10
1.159874484958308
 20
10.27355365089179
 30
0.0
 11
2.259416572208363
 21
10.27355365089179
 31
0.0
  0
LINE
  5
96B
330
1F
100
AcDbEntity
  8
0
  6
Continuous
 62
     7
370
    15
100
AcDbLine
 10
1.159874484958308
 20
8.646872892267634
 30
0.0
 11
1.159874484958308
 21
10.27355365089179
 31
0.0
  0
LINE
  5
96C
330
1F
100
AcDbEntity
  8
0
  6
Continuous
 62
     7
370
    15
100
AcDbLine
 10
1.412001386382706
 20
8.39473634000998
 30
0.0
 11
1.159874484958308
 21
8.646872892267634
 31
0.0
  0
LINE
  5
96D
330
1F
100
AcDbEntity
  8
0
  6
Continuous
 62
     7
370
    15
100
AcDbLine
 10
2.007289670783966
 20
8.39473634000998
 30
0.0
 11
1.412001386382706
 21
8.39473634000998
 31
0.0
  0
LINE
  5
96E
330
1F
100
AcDbEntity
  8
0
  6
Continuous
 62
     7
370
    15
100
AcDbLine
 10
2.259416572208363
 20
8.646872892267634
 30
0.0
 11
2.007289670783966
 21
8.39473634000998
 31
0.0
  0
ARC
  5
96F
330
1F
100
AcDbEntity
  8
0
  6
Continuous
 62
     7
370
    15
100
AcDbCircle
 10
2.261580411576189
 20
8.645976247762151
 30
0.0
 40
0.0108228805981407
100
AcDbArc
 50
315.0015598294027
 51
0.0004346106195142
  0
LINE
  5
970
330
1F
100
AcDbEntity
  8
0
  6
Continuous
 62
     7
370
    15
100
AcDbLine
 10
2.015838683647873
 20
8.384919004480412
 30
0.0
 11
2.269233552180915
 21
8.638323523846713
 31
0.0
  0
ARC
  5
971
330
1F
100
AcDbEntity
  8
0
  6
Continuous
 62
     7
370
    15
100
AcDbCircle
 10
2.008186122744097
 20
8.39257105786297
 30
0.0
 40
0.010821996551262
100
AcDbArc
 50
270.0003158403698
 51
315.0019000037055
  0
LINE
  5
972
330
1F
100
AcDbEntity
  8
0
  6
Continuous
 62
     7
370
    15
100
AcDbLine
 10
1.406622113511901
 20
8.381749061311872
 30
0.0
 11
2.008186182399859
 21
8.381749061311872
 31
0.0
  0
LINE
  5
973
330
1F
100
AcDbEntity
  8
0
  6
Continuous
 62
     7
370
    15
100
AcDbLine
 10
1.150057555779616
 20
8.638323523846713
 30
0.0
 11
1.406622113511901
 21
8.381749061311872
 31
0.0
  0
ARC
  5
974
330
1F
100
AcDbEntity
  8
0
  6
Continuous
 62
     7
370
    15
100
AcDbCircle
 10
1.157710253375127
 20
8.645976207934652
 30
0.0
 40
0.0108225391770214
100
AcDbArc
 50
179.9993545242643
 51
224.9999494343307
  0
LINE
  5
975
330
1F
100
AcDbEntity
  8
0
  6
Continuous
 62
     7
370
    15
100
AcDbLine
 10
1.146887714198794
 20
9.247563528999498
 30
0.0
 11
1.146887714198794
 21
8.64597632985788
 31
0.0
  0
LINE
  5
976
330
1F
100
AcDbEntity
  8
0
  6
Continuous
 62
     7
370
    15
100
AcDbLine
 10
1.060309682682142
 20
9.247563528999498
 30
0.0
 11
1.146887714198794
 21
9.247563528999498
 31
0.0
  0
ARC
  5
977
330
1F
100
AcDbEntity
  8
0
  6
Continuous
 62
     7
370
    15
100
AcDbCircle
 10
1.060311092532237
 20
9.334143071963274
 30
0.0
 40
0.0865795429752531
100
AcDbArc
 50
179.9987444249715
 51
269.9990670029269
  0
ARC
  5
978
330
1F
100
AcDbEntity
  8
0
  6
Continuous
 62
     7
370
    15
100
AcDbCircle
 10
1.060311203612482
 20
9.334146757068597
 30
0.0
 40
0.0865796540531666
100
AcDbArc
 50
90.00100650540107
 51
180.0011831171109
  0
LINE
  5
979
330
1F
100
AcDbEntity
  8
0
  6
Continuous
 62
     7
370
    15
100
AcDbLine
 10
1.060309682682142
 20
9.420726411108404
 30
0.0
 11
1.146887714198794
 21
9.420726411108404
 31
0.0
  0
CIRCLE
  5
97A
330
1F
100
AcDbEntity
  8
0
  6
Continuous
 62
     7
370
    15
100
AcDbCircle
 10
1.060308636678188
 20
9.334144382791877
 30
0.0
 40
0.0378788395585434
  0
LINE
  5
97B
330
1F
100
AcDbEntity
  8
0
  6
Continuous
 62
     7
370
    15
100
AcDbLine
 10
2.272403292174019
 20
10.27355365089179
 30
0.0
 11
2.272403292174019
 21
10.27571818041019
 31
0.0
  0
LINE
  5
97C
330
1F
100
AcDbEntity
  8
0
  6
Continuous
 62
     7
370
    15
100
AcDbLine
 10
2.272403292174019
 20
8.64597632985788
 30
0.0
 11
2.272403292174019
 21
8.646872892267634
 31
0.0
  0
LINE
  5
97D
330
1F
100
AcDbEntity
  8
0
  6
Continuous
 62
     7
370
    15
100
AcDbLine
 10
0.9736177713330361
 20
9.3341449692603
 30
0.0
 11
0.973731549577773
 21
9.3341449692603
 31
0.0
  0
ARC
  5
97E
330
1F
100
AcDbEntity
  8
0
  6
Continuous
 62
     7
370
    15
100
AcDbCircle
 10
1.060197314929895
 20
9.334146867502227
 30
0.0
 40
0.0865795436176667
100
AcDbArc
 50
90.00093342218346
 51
180.0012562003278
  0
LINE
  5
97F
330
1F
100
AcDbEntity
  8
0
  6
Continuous
 62
     7
370
    15
100
AcDbLine
 10
1.060195904437406
 20
9.420726411108404
 30
0.0
 11
1.060309682682142
 21
9.420726411108404
 31
0.0
  0
ARC
  5
980
330
1F
100
AcDbEntity
  8
0
  6
Continuous
 62
     7
370
    15
100
AcDbCircle
 10
1.060197423061569
 20
9.334143180733188
 30
0.0
 40
0.0865796517470062
100
AcDbArc
 50
179.9988164071688
 51
269.9989950207295
  0
LINE
  5
981
330
1F
100
AcDbEntity
  8
0
  6
Continuous
 62
     7
370
    15
100
AcDbLine
 10
1.060309682682142
 20
9.247563528999498
 30
0.0
 11
1.060195904437406
 21
9.247563528999498
 31
0.0
  0
ARC
  5
982
330
1F
100
AcDbEntity
  8
0
  6
Continuous
 62
     7
370
    15
100
AcDbCircle
 10
1.060194802325576
 20
9.334144970053952
 30
0.0
 40
0.0378793808741819
100
AcDbArc
 50
270.0016670377122
 51
89.99833296228752
  0
ARC
  5
983
330
1F
100
AcDbEntity
  8
0
  6
Continuous
 62
     7
370
    15
100
AcDbCircle
 10
1.156819020772207
 20
10.27571829237537
 30
0.0
 40
0.0108225356285252
100
AcDbArc
 50
90.00102070121919
 51
180.0005927568837
  0
LINE
  5
984
330
1F
100
AcDbEntity
  8
0
  6
Continuous
 62
     7
370
    15
100
AcDbLine
 10
1.156818827973097
 20
10.28654082800217
 30
0.0
 11
1.15770995543991
 21
10.28654082800217
 31
0.0
  0
LINE
  5
985
330
1F
100
AcDbEntity
  8
0
  6
Continuous
 62
     7
370
    15
100
AcDbLine
 10
1.146887714198794
 20
10.27571818041019
 30
0.0
 11
1.145996485144262
 21
10.27571818041019
 31
0.0
  0
LINE
  5
986
330
1F
100
AcDbEntity
  8
0
  6
Continuous
 62
     7
370
    15
100
AcDbLine
 10
1.145996485144262
 20
8.64597632985788
 30
0.0
 11
1.146887714198794
 21
8.64597632985788
 31
0.0
  0
LINE
  5
987
330
1F
100
AcDbEntity
  8
0
  6
Continuous
 62
     7
370
    15
100
AcDbLine
 10
1.145996485144262
 20
10.27571818041019
 30
0.0
 11
1.145996485144262
 21
9.420726411108404
 31
0.0
  0
LINE
  5
988
330
1F
100
AcDbEntity
  8
0
  6
Continuous
 62
     7
370
    15
100
AcDbLine
 10
1.145996485144262
 20
9.247563528999498
 30
0.0
 11
1.145996485144262
 21
8.64597632985788
 31
0.0
  0
ARC
  5
989
330
1F
100
AcDbEntity
  8
0
  6
Continuous
 62
     7
370
    15
100
AcDbCircle
 10
1.156819404043259
 20
8.645976365218228
 30
0.0
 40
0.0108229188990552
100
AcDbArc
 50
180.0001871952192
 51
224.9991167633895
  0
LINE
  5
98A
330
1F
100
AcDbEntity
  8
0
  6
Continuous
 62
     7
370
    15
100
AcDbLine
 10
1.150057555779616
 20
8.638323523846713
 30
0.0
 11
1.149166326725084
 21
8.638323523846713
 31
0.0
  0
LINE
  5
98B
330
1F
100
AcDbEntity
  8
0
  6
Continuous
 62
     7
370
    15
100
AcDbLine
 10
1.149166326725084
 20
8.638323523846713
 30
0.0
 11
1.405730884457369
 21
8.381749061311872
 31
0.0
  0
LINE
  5
98C
330
1F
100
AcDbEntity
  8
0
  6
Continuous
 62
     7
370
    15
100
AcDbLine
 10
1.406622113511901
 20
8.381749061311872
 30
0.0
 11
1.405730884457369
 21
8.381749061311872
 31
0.0
  0
LINE
  5
98D
330
1F
100
AcDbEntity
  8
0
  6
Continuous
 62
     7
370
    15
100
AcDbLine
 10
2.258544340057194
 20
8.646872892267634
 30
0.0
 11
2.006417438632796
 21
8.39473634000998
 31
0.0
  0
CIRCLE
  5
98E
330
1F
100
AcDbEntity
  8
0
  6
Continuous
 62
     7
370
    15
100
AcDbCircle
 10
1.249910093024535
 20
10.05034643109018
 30
0.0
 40
0.0307002534367218
  0
CIRCLE
  5
98F
330
1F
100
AcDbEntity
  8
0
  6
Continuous
 62
     7
370
    15
100
AcDbCircle
 10
1.24991007626488
 20
10.13381094900635
 30
0.0
 40
0.030700236677083
  0
CIRCLE
  5
990
330
1F
100
AcDbEntity
  8
0
  6
Continuous
 62
     7
370
    15
100
AcDbCircle
 10
1.249910069596954
 20
10.21727541758096
 30
0.0
 40
0.0307002300095556
  0
CIRCLE
  5
991
330
1F
100
AcDbEntity
  8
0
  6
Continuous
 62
     7
370
    15
100
AcDbCircle
 10
1.33337137297828
 20
10.21727541514673
 30
0.0
 40
0.0307002130782899
  0
CIRCLE
  5
992
330
1F
100
AcDbEntity
  8
0
  6
Continuous
 62
     7
370
    15
100
AcDbCircle
 10
1.333371379646207
 20
10.1338109465721
 30
0.0
 40
0.0307002197458124
  0
CIRCLE
  5
993
330
1F
100
AcDbEntity
  8
0
  6
Continuous
 62
     7
370
    15
100
AcDbCircle
 10
1.333371396405862
 20
10.05034642865593
 30
0.0
 40
0.0307002365054512
  0
CIRCLE
  5
994
330
1F
100
AcDbEntity
  8
0
  6
Continuous
 62
     7
370
    15
100
AcDbCircle
 10
1.416832716718474
 20
10.05034642865593
 30
0.0
 40
0.0307002365054525
  0
CIRCLE
  5
995
330
1F
100
AcDbEntity
  8
0
  6
Continuous
 62
     7
370
    15
100
AcDbCircle
 10
1.416832699958819
 20
10.1338109465721
 30
0.0
 40
0.0307002197458124
  0
CIRCLE
  5
996
330
1F
100
AcDbEntity
  8
0
  6
Continuous
 62
     7
370
    15
100
AcDbCircle
 10
1.416832693290891
 20
10.21727541514673
 30
0.0
 40
0.0307002130782901
  0
CIRCLE
  5
997
330
1F
100
AcDbEntity
  8
0
  6
Continuous
 62
     7
370
    15
100
AcDbCircle
 10
1.500294013603503
 20
10.21727541514673
 30
0.0
 40
0.0307002130782899
  0
CIRCLE
  5
998
330
1F
100
AcDbEntity
  8
0
  6
Continuous
 62
     7
370
    15
100
AcDbCircle
 10
1.500294020271431
 20
10.1338109465721
 30
0.0
 40
0.0307002197458135
  0
CIRCLE
  5
999
330
1F
100
AcDbEntity
  8
0
  6
Continuous
 62
     7
370
    15
100
AcDbCircle
 10
1.500294037031086
 20
10.05034642865593
 30
0.0
 40
0.0307002365054512
  0
CIRCLE
  5
99A
330
1F
100
AcDbEntity
  8
0
  6
Continuous
 62
     7
370
    15
100
AcDbCircle
 10
1.583755357343697
 20
10.05034642865593
 30
0.0
 40
0.0307002365054525
  0
CIRCLE
  5
99B
330
1F
100
AcDbEntity
  8
0
  6
Continuous
 62
     7
370
    15
100
AcDbCircle
 10
1.583755340584042
 20
10.1338109465721
 30
0.0
 40
0.0307002197458126
  0
CIRCLE
  5
99C
330
1F
100
AcDbEntity
  8
0
  6
Continuous
 62
     7
370
    15
100
AcDbCircle
 10
1.583755333916116
 20
10.21727541514673
 30
0.0
 40
0.0307002130782901
  0
CIRCLE
  5
99D
330
1F
100
AcDbEntity
  8
0
  6
Continuous
 62
     7
370
    15
100
AcDbCircle
 10
1.667216665787814
 20
10.2172754168086
 30
0.0
 40
0.0307002246373624
  0
CIRCLE
  5
99E
330
1F
100
AcDbEntity
  8
0
  6
Continuous
 62
     7
370
    15
100
AcDbCircle
 10
1.667216672455799
 20
10.13381094823398
 30
0.0
 40
0.0307002313049449
  0
CIRCLE
  5
99F
330
1F
100
AcDbEntity
  8
0
  6
Continuous
 62
     7
370
    15
100
AcDbCircle
 10
1.667216689215507
 20
10.05034643031782
 30
0.0
 40
0.0307002480646381
  0
CIRCLE
  5
9A0
330
1F
100
AcDbEntity
  8
0
  6
Continuous
 62
     7
370
    15
100
AcDbCircle
 10
1.750678009528119
 20
10.05034643031782
 30
0.0
 40
0.0307002480646381
  0
CIRCLE
  5
9A1
330
1F
100
AcDbEntity
  8
0
  6
Continuous
 62
     7
370
    15
100
AcDbCircle
 10
1.750677992768411
 20
10.13381094823398
 30
0.0
 40
0.0307002313049451
  0
CIRCLE
  5
9A2
330
1F
100
AcDbEntity
  8
0
  6
Continuous
 62
     7
370
    15
100
AcDbCircle
 10
1.750677986100426
 20
10.2172754168086
 30
0.0
 40
0.0307002246373622
  0
CIRCLE
  5
9A3
330
1F
100
AcDbEntity
  8
0
  6
Continuous
 62
     7
370
    15
100
AcDbCircle
 10
1.834139329840731
 20
10.05034643031782
 30
0.0
 40
0.0307002480646381
  0
CIRCLE
  5
9A4
330
1F
100
AcDbEntity
  8
0
  6
Continuous
 62
     7
370
    15
100
AcDbCircle
 10
1.834139313081023
 20
10.13381094823399
 30
0.0
 40
0.0307002313049451
  0
CIRCLE
  5
9A5
330
1F
100
AcDbEntity
  8
0
  6
Continuous
 62
     7
370
    15
100
AcDbCircle
 10
1.834139306413039
 20
10.2172754168086
 30
0.0
 40
0.0307002246373624
  0
CIRCLE
  5
9A6
330
1F
100
AcDbEntity
  8
0
  6
Continuous
 62
     7
370
    15
100
AcDbCircle
 10
1.917600530510132
 20
10.21727541758096
 30
0.0
 40
0.0307002300095554
  0
CIRCLE
  5
9A7
330
1F
100
AcDbEntity
  8
0
  6
Continuous
 62
     7
370
    15
100
AcDbCircle
 10
1.917600553937713
 20
10.05034643109018
 30
0.0
 40
0.0307002534367218
  0
CIRCLE
  5
9A8
330
1F
100
AcDbEntity
  8
0
  6
Continuous
 62
     7
370
    15
100
AcDbCircle
 10
1.91760053717806
 20
10.13381094900635
 30
0.0
 40
0.0307002366770819
  0
CIRCLE
  5
9A9
330
1F
100
AcDbEntity
  8
0
  6
Continuous
 62
     7
370
    15
100
AcDbCircle
 10
2.001061865784683
 20
10.05034642987306
 30
0.0
 40
0.030700244971086
  0
CIRCLE
  5
9AA
330
1F
100
AcDbEntity
  8
0
  6
Continuous
 62
     7
370
    15
100
AcDbCircle
 10
2.001061849025028
 20
10.13381094778922
 30
0.0
 40
0.0307002282114484
  0
CIRCLE
  5
9AB
330
1F
100
AcDbEntity
  8
0
  6
Continuous
 62
     7
370
    15
100
AcDbCircle
 10
2.001061842357102
 20
10.21727541636385
 30
0.0
 40
0.0307002215439209
  0
CIRCLE
  5
9AC
330
1F
100
AcDbEntity
  8
0
  6
Continuous
 62
     7
370
    15
100
AcDbCircle
 10
2.084523162669714
 20
10.21727541636384
 30
0.0
 40
0.0307002215439209
  0
CIRCLE
  5
9AD
330
1F
100
AcDbEntity
  8
0
  6
Continuous
 62
     7
370
    15
100
AcDbCircle
 10
2.084523186097295
 20
10.05034642987305
 30
0.0
 40
0.030700244971086
  0
CIRCLE
  5
9AE
330
1F
100
AcDbEntity
  8
0
  6
Continuous
 62
     7
370
    15
100
AcDbCircle
 10
2.08452316933764
 20
10.13381094778922
 30
0.0
 40
0.0307002282114484
  0
CIRCLE
  5
9AF
330
1F
100
AcDbEntity
  8
0
  6
Continuous
 62
     7
370
    15
100
AcDbCircle
 10
2.167984503723817
 20
10.05034642948687
 30
0.0
 40
0.0307002422850018
  0
CIRCLE
  5
9B0
330
1F
100
AcDbEntity
  8
0
  6
Continuous
 62
     7
370
    15
100
AcDbCircle
 10
2.167984486964137
 20
10.13381094740304
 30
0.0
 40
0.0307002255253344
  0
CIRCLE
  5
9B1
330
1F
100
AcDbEntity
  8
0
  6
Continuous
 62
     7
370
    15
100
AcDbCircle
 10
2.167984480296181
 20
10.21727541597766
 30
0.0
 40
0.0307002188577812
  0
ARC
  5
9B2
330
1F
100
AcDbEntity
  8
0
  6
Continuous
 62
     7
370
    15
100
AcDbCircle
 10
1.249794563634925
 20
10.05034666498343
 30
0.0
 40
0.0307005450593654
100
AcDbArc
 50
270.0016794517038
 51
89.9983205482963
  0
ARC
  5
9B3
330
1F
100
AcDbEntity
  8
0
  6
Continuous
 62
     7
370
    15
100
AcDbCircle
 10
1.249794597956645
 20
10.13381115991225
 30
0.0
 40
0.0307005196614496
100
AcDbArc
 50
270.001615399138
 51
89.99838460086197
  0
ARC
  5
9B4
330
1F
100
AcDbEntity
  8
0
  6
Continuous
 62
     7
370
    15
100
AcDbCircle
 10
1.249794597956646
 20
10.217275680238
 30
0.0
 40
0.0307005196614513
100
AcDbArc
 50
270.0016153991355
 51
89.99838460086181
  0
ARC
  5
9B5
330
1F
100
AcDbEntity
  8
0
  6
Continuous
 62
     7
370
    15
100
AcDbCircle
 10
1.333255884405397
 20
10.217275680238
 30
0.0
 40
0.0307005196624248
100
AcDbArc
 50
270.0016785986005
 51
89.99832140140244
  0
ARC
  5
9B6
330
1F
100
AcDbEntity
  8
0
  6
Continuous
 62
     7
370
    15
100
AcDbCircle
 10
1.333255884405397
 20
10.13381115991225
 30
0.0
 40
0.030700519662423
100
AcDbArc
 50
270.0016785986005
 51
89.9983214014001
  0
ARC
  5
9B7
330
1F
100
AcDbEntity
  8
0
  6
Continuous
 62
     7
370
    15
100
AcDbCircle
 10
1.333255850083648
 20
10.05034666498343
 30
0.0
 40
0.0307005450603767
100
AcDbArc
 50
270.0017426511666
 51
89.99825734883612
  0
ARC
  5
9B8
330
1F
100
AcDbEntity
  8
0
  6
Continuous
 62
     7
370
    15
100
AcDbCircle
 10
1.416717204718009
 20
10.13381115991225
 30
0.0
 40
0.030700519662423
100
AcDbArc
 50
270.0016785986001
 51
89.99832140139969
  0
ARC
  5
9B9
330
1F
100
AcDbEntity
  8
0
  6
Continuous
 62
     7
370
    15
100
AcDbCircle
 10
1.41671717039626
 20
10.05034666498343
 30
0.0
 40
0.0307005450603767
100
AcDbArc
 50
270.0017426511666
 51
89.99825734883377
  0
ARC
  5
9BA
330
1F
100
AcDbEntity
  8
0
  6
Continuous
 62
     7
370
    15
100
AcDbCircle
 10
1.416717204718009
 20
10.217275680238
 30
0.0
 40
0.0307005196624248
100
AcDbArc
 50
270.0016785986001
 51
89.99832140140091
  0
ARC
  5
9BB
330
1F
100
AcDbEntity
  8
0
  6
Continuous
 62
     7
370
    15
100
AcDbCircle
 10
1.50017852503062
 20
10.217275680238
 30
0.0
 40
0.0307005196624248
100
AcDbArc
 50
270.0016785986005
 51
89.99832140140133
  0
ARC
  5
9BC
330
1F
100
AcDbEntity
  8
0
  6
Continuous
 62
     7
370
    15
100
AcDbCircle
 10
1.50017852503062
 20
10.13381115991225
 30
0.0
 40
0.030700519662423
100
AcDbArc
 50
270.0016785986005
 51
89.9983214014001
  0
ARC
  5
9BD
330
1F
100
AcDbEntity
  8
0
  6
Continuous
 62
     7
370
    15
100
AcDbCircle
 10
1.500178490708872
 20
10.05034666498343
 30
0.0
 40
0.0307005450603767
100
AcDbArc
 50
270.0017426511666
 51
89.99825734883377
  0
ARC
  5
9BE
330
1F
100
AcDbEntity
  8
0
  6
Continuous
 62
     7
370
    15
100
AcDbCircle
 10
1.583639845343233
 20
10.217275680238
 30
0.0
 40
0.0307005196624248
100
AcDbArc
 50
270.001678598598
 51
89.99832140140107
  0
ARC
  5
9BF
330
1F
100
AcDbEntity
  8
0
  6
Continuous
 62
     7
370
    15
100
AcDbCircle
 10
1.583639811021485
 20
10.05034666498343
 30
0.0
 40
0.0307005450603767
100
AcDbArc
 50
270.0017426511642
 51
89.99825734883368
  0
ARC
  5
9C0
330
1F
100
AcDbEntity
  8
0
  6
Continuous
 62
     7
370
    15
100
AcDbCircle
 10
1.583639845343232
 20
10.13381115991225
 30
0.0
 40
0.030700519662423
100
AcDbArc
 50
270.0016785986005
 51
89.99832140140133
  0
ARC
  5
9C1
330
1F
100
AcDbEntity
  8
0
  6
Continuous
 62
     7
370
    15
100
AcDbCircle
 10
1.667101097931987
 20
10.217275680238
 30
0.0
 40
0.0307005196614513
100
AcDbArc
 50
270.001615399138
 51
89.99838460086542
  0
ARC
  5
9C2
330
1F
100
AcDbEntity
  8
0
  6
Continuous
 62
     7
370
    15
100
AcDbCircle
 10
1.667101097931987
 20
10.13381115991225
 30
0.0
 40
0.0307005196614496
100
AcDbArc
 50
270.001615399138
 51
89.99838460086542
  0
ARC
  5
9C3
330
1F
100
AcDbEntity
  8
0
  6
Continuous
 62
     7
370
    15
100
AcDbCircle
 10
1.667101063610267
 20
10.05034666498343
 30
0.0
 40
0.0307005450593654
100
AcDbArc
 50
270.0016794517038
 51
89.99832054829976
  0
ARC
  5
9C4
330
1F
100
AcDbEntity
  8
0
  6
Continuous
 62
     7
370
    15
100
AcDbCircle
 10
1.750562418244599
 20
10.13381115991225
 30
0.0
 40
0.0307005196614496
100
AcDbArc
 50
270.0016153991401
 51
89.99838460086522
  0
ARC
  5
9C5
330
1F
100
AcDbEntity
  8
0
  6
Continuous
 62
     7
370
    15
100
AcDbCircle
 10
1.750562383922879
 20
10.05034666498343
 30
0.0
 40
0.0307005450593654
100
AcDbArc
 50
270.0016794517059
 51
89.99832054829962
  0
ARC
  5
9C6
330
1F
100
AcDbEntity
  8
0
  6
Continuous
 62
     7
370
    15
100
AcDbCircle
 10
1.750562418244599
 20
10.217275680238
 30
0.0
 40
0.0307005196614513
100
AcDbArc
 50
270.0016153991401
 51
89.99838460086522
  0
ARC
  5
9C7
330
1F
100
AcDbEntity
  8
0
  6
Continuous
 62
     7
370
    15
100
AcDbCircle
 10
1.834023738557212
 20
10.217275680238
 30
0.0
 40
0.0307005196614513
100
AcDbArc
 50
270.0016153991384
 51
89.99838460086583
  0
ARC
  5
9C8
330
1F
100
AcDbEntity
  8
0
  6
Continuous
 62
     7
370
    15
100
AcDbCircle
 10
1.834023738557212
 20
10.13381115991225
 30
0.0
 40
0.0307005196614496
100
AcDbArc
 50
270.0016153991384
 51
89.99838460086583
  0
ARC
  5
9C9
330
1F
100
AcDbEntity
  8
0
  6
Continuous
 62
     7
370
    15
100
AcDbCircle
 10
1.834023704235492
 20
10.05034666498343
 30
0.0
 40
0.0307005450593654
100
AcDbArc
 50
270.0016794517038
 51
89.99832054829976
  0
ARC
  5
9CA
330
1F
100
AcDbEntity
  8
0
  6
Continuous
 62
     7
370
    15
100
AcDbCircle
 10
1.917485024548104
 20
10.05034666498343
 30
0.0
 40
0.0307005450593654
100
AcDbArc
 50
270.0016794517038
 51
89.99832054829753
  0
ARC
  5
9CB
330
1F
100
AcDbEntity
  8
0
  6
Continuous
 62
     7
370
    15
100
AcDbCircle
 10
1.917485058869824
 20
10.13381115991225
 30
0.0
 40
0.0307005196614496
100
AcDbArc
 50
270.001615399138
 51
89.99838460086313
  0
ARC
  5
9CC
330
1F
100
AcDbEntity
  8
0
  6
Continuous
 62
     7
370
    15
100
AcDbCircle
 10
1.917485058869825
 20
10.217275680238
 30
0.0
 40
0.0307005196614513
100
AcDbArc
 50
270.0016153991364
 51
89.99838460086374
  0
ARC
  5
9CD
330
1F
100
AcDbEntity
  8
0
  6
Continuous
 62
     7
370
    15
100
AcDbCircle
 10
2.000946362250519
 20
10.217275680238
 30
0.0
 40
0.0307005196619334
100
AcDbArc
 50
270.0016469988432
 51
89.99835300115892
  0
ARC
  5
9CE
330
1F
100
AcDbEntity
  8
0
  6
Continuous
 62
     7
370
    15
100
AcDbCircle
 10
2.000946362250519
 20
10.13381115991225
 30
0.0
 40
0.0307005196619316
100
AcDbArc
 50
270.0016469988432
 51
89.99835300115892
  0
ARC
  5
9CF
330
1F
100
AcDbEntity
  8
0
  6
Continuous
 62
     7
370
    15
100
AcDbCircle
 10
2.000946327928786
 20
10.05034666498343
 30
0.0
 40
0.0307005450598664
100
AcDbArc
 50
270.0017110514077
 51
89.99828894859148
  0
ARC
  5
9D0
330
1F
100
AcDbEntity
  8
0
  6
Continuous
 62
     7
370
    15
100
AcDbCircle
 10
2.084407682563132
 20
10.13381115991225
 30
0.0
 40
0.0307005196619316
100
AcDbArc
 50
270.0016469988407
 51
89.99835300115643
  0
ARC
  5
9D1
330
1F
100
AcDbEntity
  8
0
  6
Continuous
 62
     7
370
    15
100
AcDbCircle
 10
2.084407682563132
 20
10.217275680238
 30
0.0
 40
0.0307005196619334
100
AcDbArc
 50
270.0016469988407
 51
89.99835300115643
  0
ARC
  5
9D2
330
1F
100
AcDbEntity
  8
0
  6
Continuous
 62
     7
370
    15
100
AcDbCircle
 10
2.084407648241398
 20
10.05034666498343
 30
0.0
 40
0.0307005450598664
100
AcDbArc
 50
270.0017110514077
 51
89.99828894858919
  0
ARC
  5
9D3
330
1F
100
AcDbEntity
  8
0
  6
Continuous
 62
     7
370
    15
100
AcDbCircle
 10
2.167868952081885
 20
10.217275680238
 30
0.0
 40
0.0307005196619334
100
AcDbArc
 50
270.0016469988424
 51
89.9983530011604
  0
ARC
  5
9D4
330
1F
100
AcDbEntity
  8
0
  6
Continuous
 62
     7
370
    15
100
AcDbCircle
 10
2.167868952081885
 20
10.13381115991225
 30
0.0
 40
0.0307005196619316
100
AcDbArc
 50
270.0016469988424
 51
89.99835300115582
  0
ARC
  5
9D5
330
1F
100
AcDbEntity
  8
0
  6
Continuous
 62
     7
370
    15
100
AcDbCircle
 10
2.16786891776015
 20
10.05034666498343
 30
0.0
 40
0.0307005450598664
100
AcDbArc
 50
270.0017110514094
 51
89.99828894859316
  0
ARC
  5
9D6
330
1F
100
AcDbEntity
  8
0
  6
Continuous
 62
     7
370
    15
100
AcDbCircle
 10
1.245408040408327
 20
9.020965315145157
 30
0.0
 40
2.230447875120235
100
AcDbArc
 50
359.784262530157
 51
7.804504424123019
  0
ARC
  5
9D7
330
1F
100
AcDbEntity
  8
0
  6
Continuous
 62
     7
370
    15
100
AcDbCircle
 10
3.478782456440097
 20
9.347151735868705
 30
0.0
 40
0.0280715565245694
100
AcDbArc
 50
95.11554121956547
 51
185.6260443374266
  0
LINE
  5
9D8
330
1F
100
AcDbEntity
  8
0
  6
Continuous
 62
     7
370
    15
100
AcDbLine
 10
3.507330417599485
 20
9.377208635681066
 30
0.0
 11
3.47627947111522
 21
9.375111481042357
 31
0.0
  0
ARC
  5
9D9
330
1F
100
AcDbEntity
  8
0
  6
Continuous
 62
     7
370
    15
100
AcDbCircle
 10
1.119329912196707
 20
9.012308779493779
 30
0.0
 40
2.443100500868529
100
AcDbArc
 50
0.4324020077506097
 51
7.148597145352156
  0
ARC
  5
9DA
330
1F
100
AcDbEntity
  8
0
  6
Continuous
 62
     7
370
    15
100
AcDbCircle
 10
3.509810482331722
 20
9.350999991748152
 30
0.0
 40
0.0263257238813749
100
AcDbArc
 50
15.65963011415499
 51
95.40567357848214
  0
LWPOLYLINE
  5
9DB
330
1F
100
AcDbEntity
  8
0
  6
Continuous
 62
     7
370
    15
100
AcDbPolyline
 90
       26
 70
   128
 43
0.0
 10
3.450880306556674
 20
9.343945022972907
 10
3.452355461817229
 20
9.338515070925856
 10
3.453941957217278
 20
9.330799581720921
 10
3.45561835774821
 20
9.320903069675929
 10
3.457361856967224
 20
9.308959596849022
 10
3.45914893731748
 20
9.29513094644386
 10
3.460955319334253
 20
9.279604441451463
 10
3.462756571171242
 20
9.262590409719161
 10
3.464528260982142
 20
9.244319325208725
 10
3.466246414065385
 20
9.225038680999383
 10
3.467887766833431
 20
9.205009671813905
 10
3.469430071575926
 20
9.184503594003814
 10
3.470852401222854
 20
9.163798226486929
 10
3.472135504901558
 20
9.143174052954064
 10
3.473262061906029
 20
9.122910452329606
 10
3.474216783284632
 20
9.103281901930513
 10
3.474986665809398
 20
9.08455430761
 10
3.475561347533036
 20
9.066981359298127
 10
3.475933056995084
 20
9.050801077019377
 10
3.476096714809611
 20
9.036232661673372
 10
3.476050136840672
 20
9.023473472800262
 10
3.475793932614576
 20
9.012696285712307
 10
3.475331606907615
 20
9.004047158151803
 10
3.474669356570617
 20
8.997643220758198
 10
3.473816172116669
 20
8.993571204046175
 10
3.473806775252705
 20
8.993542581706482
  0
LINE
  5
9DC
330
1F
100
AcDbEntity
  8
0
  6
Continuous
 62
     7
370
    15
100
AcDbLine
 10
3.471556556493741
 20
8.992656127274723
 30
0.0
 11
3.470801810539034
 21
8.994182050997605
 31
0.0
  0
LINE
  5
9DD
330
1F
100
AcDbEntity
  8
0
  6
Continuous
 62
     7
370
    15
100
AcDbLine
 10
3.450846122289393
 20
9.34439973297401
 30
0.0
 11
3.450880306556674
 21
9.343945022972907
 31
0.0
  0
SPLINE
  5
9DE
330
1F
100
AcDbEntity
  8
0
  6
Continuous
 62
     7
370
    15
100
AcDbSpline
210
0.0
220
0.0
230
1.0
 70
    28
 71
     1
 72
     4
 73
     2
 74
     0
 42
0.0000000001
 43
0.0000000001
 40
0.0
 40
0.0
 40
1.0
 40
1.0
 10
3.446972785757855
 20
9.338262275047082
 30
0.0
 41
1.0
 10
3.446117264786381
 20
9.338123396699332
 30
0.0
 41
1.0
  0
ARC
  5
9DF
330
1F
100
AcDbEntity
  8
0
  6
Continuous
 62
     7
370
    15
100
AcDbCircle
 10
3.445550305323731
 20
9.343425189829867
 30
0.0
 40
0.0053552908081416
100
AcDbArc
 50
285.4038863207845
 51
5.570419771018374
  0
SPLINE
  5
9E0
330
1F
100
AcDbEntity
  8
0
  6
Continuous
 62
     7
370
    15
100
AcDbSpline
210
0.0
220
0.0
230
1.0
 70
    12
 71
     3
 72
    13
 73
     9
 74
     0
 42
0.0000000001
 43
0.0000000001
 40
0.0
 40
0.0
 40
0.0
 40
0.0
 40
0.1129693894735049
 40
0.2506799787933028
 40
0.4697218009332108
 40
0.8584376764482858
 40
0.9980476151804815
 40
1.0
 40
1.0
 40
1.0
 40
1.0
 10
3.442697974562745
 20
9.337793007644963
 30
0.0
 41
1.0
 10
3.441190765737697
 20
9.337446759641976
 30
0.0
 41
1.0
 10
3.437846257299957
 20
9.336678432553981
 30
0.0
 41
1.0
 10
3.433378574829672
 20
9.333044423827944
 30
0.0
 41
1.0
 10
3.429124157839171
 20
9.325939575018202
 30
0.0
 41
1.0
 10
3.428065959605264
 20
9.317745754770197
 30
0.0
 41
1.0
 10
3.428435538603506
 20
9.311859115470387
 30
0.0
 41
1.0
 10
3.428612680033206
 20
9.31027817428849
 30
0.0
 41
1.0
 10
3.428615123114314
 20
9.310256370425098
 30
0.0
 41
1.0
  0
ARC
  5
9E1
330
1F
100
AcDbEntity
  8
0
  6
Continuous
 62
     7
370
    15
100
AcDbCircle
 10
5.757637433658527
 20
9.329465679278597
 30
0.0
 40
2.337132562496294
100
AcDbArc
 50
181.7959014303786
 51
183.6490770837954
  0
ARC
  5
9E2
330
1F
100
AcDbEntity
  8
0
  6
Continuous
 62
     7
370
    15
100
AcDbCircle
 10
1.703198217386499
 20
9.052954423504085
 30
0.0
 40
1.744496428904539
100
AcDbArc
 50
358.9481290640144
 51
8.481701125196112
  0
ARC
  5
9E3
330
1F
100
AcDbEntity
  8
0
  6
Continuous
 62
     7
370
    15
100
AcDbCircle
 10
3.542397951322451
 20
9.349648444447265
 30
0.0
 40
0.005008179523672
100
AcDbArc
 50
220.4886971789653
 51
263.7265190085607
  0
SPLINE
  5
9E4
330
1F
100
AcDbEntity
  8
0
  6
Continuous
 62
     7
370
    15
100
AcDbSpline
210
0.0
220
0.0
230
1.0
 70
    28
 71
     1
 72
     4
 73
     2
 74
     0
 42
0.0000000001
 43
0.0000000001
 40
0.0
 40
0.0
 40
1.0
 40
1.0
 10
3.542720226335383
 20
9.344647886571826
 30
0.0
 41
1.0
 10
3.541850686258755
 20
9.34467025571125
 30
0.0
 41
1.0
  0
SPLINE
  5
9E5
330
1F
100
AcDbEntity
  8
0
  6
Continuous
 62
     7
370
    15
100
AcDbSpline
210
0.0
220
0.0
230
1.0
 70
    28
 71
     1
 72
     4
 73
     2
 74
     0
 42
0.0000000001
 43
0.0000000001
 40
0.0
 40
0.0
 40
1.0
 40
1.0
 10
3.446117264786381
 20
9.338123396699332
 30
0.0
 41
1.0
 10
3.442697974562745
 20
9.337793007644963
 30
0.0
 41
1.0
  0
SPLINE
  5
9E6
330
1F
100
AcDbEntity
  8
0
  6
Continuous
 62
     7
370
    15
100
AcDbSpline
210
0.0
220
0.0
230
1.0
 70
    28
 71
     1
 72
     4
 73
     2
 74
     0
 42
0.0000000001
 43
0.0000000001
 40
0.0
 40
0.0
 40
1.0
 40
1.0
 10
3.546201129510299
 20
9.3447835319698
 30
0.0
 41
1.0
 10
3.542720226335383
 20
9.344647886571826
 30
0.0
 41
1.0
  0
ARC
  5
9E7
330
1F
100
AcDbEntity
  8
0
  6
Continuous
 62
     7
370
    15
100
AcDbCircle
 10
3.54351521248538
 20
9.322444868061286
 30
0.0
 40
0.022499556784129
100
AcDbArc
 50
2.472669321924693
 51
83.14388337383286
  0
ARC
  5
9E8
330
1F
100
AcDbEntity
  8
0
  6
Continuous
 62
     7
370
    15
100
AcDbCircle
 10
1.746081761611798
 20
9.053090947893704
 30
0.0
 40
1.839938029187086
100
AcDbArc
 50
359.5677809406058
 51
8.327683504692212
  0
LWPOLYLINE
  5
9E9
330
1F
100
AcDbEntity
  8
0
  6
Continuous
 62
     7
370
    15
100
AcDbPolyline
 90
       12
 70
   128
 43
0.0
 10
3.443557406661383
 20
9.116211174041348
 10
3.444586591837657
 20
9.10161306968461
 10
3.445477566922893
 20
9.087076959233093
 10
3.446206001658504
 20
9.072999364949094
 10
3.446752137233241
 20
9.0597642884086
 10
3.44710098945862
 20
9.04773274696628
 10
3.447243059882965
 20
9.0372329197468
 10
3.447174437379107
 20
9.028551233322514
 10
3.446897102907561
 20
9.021924488665276
 10
3.446418523165637
 20
9.017533461120184
 10
3.445751752175164
 20
9.015497897210441
 10
3.445134555991327
 20
9.015557859361296
  0
LWPOLYLINE
  5
9EA
330
1F
100
AcDbEntity
  8
0
  6
Continuous
 62
     7
370
    15
100
AcDbPolyline
 90
        3
 70
   128
 43
0.0
 10
3.432435888001522
 20
9.188990939404523
 10
3.432622352258854
 20
9.190239147701915
 10
3.433204297504367
 20
9.19216422226931
  0
ARC
  5
9EB
330
1F
100
AcDbEntity
  8
0
  6
Continuous
 62
     7
370
    15
100
AcDbCircle
 10
3.060441354425816
 20
9.106274949039792
 30
0.0
 40
0.3832448800021305
100
AcDbArc
 50
1.485649478064623
 51
12.95342710412331
  0
LINE
  5
9EC
330
1F
100
AcDbEntity
  8
0
  6
Continuous
 62
     7
370
    15
100
AcDbLine
 10
3.428615123114314
 20
9.310256370425098
 30
0.0
 11
3.430279129943589
 21
9.288110000168773
 31
0.0
  0
ARC
  5
9ED
330
1F
100
AcDbEntity
  8
0
  6
Continuous
 62
     7
370
    15
100
AcDbCircle
 10
2.614145632625021
 20
9.215010748366414
 30
0.0
 40
0.8194006261039234
100
AcDbArc
 50
359.0710293701666
 51
5.118197252723931
  0
ARC
  5
9EE
330
1F
100
AcDbEntity
  8
0
  6
Continuous
 62
     7
370
    15
100
AcDbCircle
 10
2.635764075320229
 20
9.05529201508382
 30
0.0
 40
0.7914691623260549
100
AcDbArc
 50
4.088698790445775
 51
6.721095718566876
  0
ARC
  5
9EF
330
1F
100
AcDbEntity
  8
0
  6
Continuous
 62
     7
370
    15
100
AcDbCircle
 10
4.107254320585123
 20
9.149546875396386
 30
0.0
 40
0.6904824641938033
100
AcDbArc
 50
178.8953594849167
 51
189.0480446011439
  0
ARC
  5
9F0
330
1F
100
AcDbEntity
  8
0
  6
Continuous
 62
     7
370
    15
100
AcDbCircle
 10
2.957392581699253
 20
9.062734388140784
 30
0.0
 40
0.4703843365876094
100
AcDbArc
 50
357.1103739790264
 51
5.978124028342861
  0
ARC
  5
9F1
330
1F
100
AcDbEntity
  8
0
  6
Continuous
 62
     7
370
    15
100
AcDbCircle
 10
2.933754853524795
 20
9.068936503553134
 30
0.0
 40
0.6665728346379167
100
AcDbArc
 50
358.7733730697321
 51
9.28365455299325
  0
SPLINE
  5
9F2
330
1F
100
AcDbEntity
  8
0
  6
Continuous
 62
     7
370
    15
100
AcDbSpline
210
0.0
220
0.0
230
1.0
 70
    28
 71
     1
 72
     4
 73
     2
 74
     0
 42
0.0000000001
 43
0.0000000001
 40
0.0
 40
0.0
 40
1.0
 40
1.0
 10
3.589783378218118
 20
9.177700721639601
 30
0.0
 41
1.0
 10
3.590163265491505
 20
9.178860472431099
 30
0.0
 41
1.0
  0
LINE
  5
9F3
330
1F
100
AcDbEntity
  8
0
  6
Continuous
 62
     7
370
    15
100
AcDbLine
 10
3.430279129943589
 20
9.288110000168773
 30
0.0
 11
3.430257745728842
 21
9.287944577267638
 31
0.0
  0
LINE
  5
9F4
330
1F
100
AcDbEntity
  8
0
  6
Continuous
 62
     7
370
    15
100
AcDbLine
 10
3.645451873354676
 20
9.12273854051295
 30
0.0
 11
3.598006243711733
 21
9.119534108313973
 31
0.0
  0
LINE
  5
9F5
330
1F
100
AcDbEntity
  8
0
  6
Continuous
 62
     7
370
    15
100
AcDbLine
 10
3.64118904951035
 20
9.179473147961462
 30
0.0
 11
3.591682408234178
 21
9.17612951519119
 31
0.0
  0
LWPOLYLINE
  5
9F6
330
1F
100
AcDbEntity
  8
0
  6
Continuous
 62
     7
370
    15
100
AcDbPolyline
 90
       31
 70
   128
 43
0.0
 10
3.64118904951035
 20
9.179473147961462
 10
3.646631459148212
 20
9.191593197703536
 10
3.654211172795909
 20
9.202517039361632
 10
3.663675846560651
 20
9.211880976205002
 10
3.674710304545746
 20
9.219373248223988
 10
3.686947205561041
 20
9.22474439407731
 10
3.699979182855295
 20
9.227815606681919
 10
3.713372202901152
 20
9.2284846126022
 10
3.726680498789765
 20
9.226729138730867
 10
3.739460944892977
 20
9.222607648799926
 10
3.751287888670206
 20
9.216257349721698
 10
3.761767779299927
 20
9.207889670935339
 10
3.770551561381322
 20
9.19778321675888
 10
3.777346763872788
 20
9.186274471112966
 10
3.781927252512908
 20
9.173746597474915
 10
3.784140442548476
 20
9.160616727715407
 10
3.783912682883566
 20
9.14732198108875
 10
3.781251592597066
 20
9.13430502607837
 10
3.776245654591805
 20
9.121999235891456
 10
3.769061675901582
 20
9.110814326495241
 10
3.759938692428065
 20
9.101122680370407
 10
3.749180553037332
 20
9.093247016301747
 10
3.737145456024866
 20
9.087449481396886
 10
3.724234063352489
 20
9.083923168511795
 10
3.71087619265724
 20
9.082785436858288
 10
3.697516696558493
 20
9.084074178655369
 10
3.684600224500191
 20
9.087746498488896
 10
3.672557000470244
 20
9.093680110142706
 10
3.661787889605909
 20
9.101677476298148
 10
3.652651445759689
 20
9.111472335544994
 10
3.645451873354676
 20
9.12273854051295
  0
CIRCLE
  5
9F7
330
1F
100
AcDbEntity
  8
0
  6
Continuous
 62
     7
370
    15
100
AcDbCircle
 10
3.754848211494396
 20
9.158789752142233
 30
0.0
 40
0.0165213566649585
  0
LINE
  5
9F8
330
1F
100
AcDbEntity
  8
0
  6
Continuous
 62
     7
370
    15
100
AcDbLine
 10
3.645451873354676
 20
9.12273854051295
 30
0.0
 11
3.644821623149009
 21
9.120814392933486
 31
0.0
  0
ARC
  5
9F9
330
1F
100
AcDbEntity
  8
0
  6
Continuous
 62
     7
370
    15
100
AcDbCircle
 10
3.710356757402812
 20
9.15446791625309
 30
0.0
 40
0.0736709810813395
100
AcDbArc
 50
207.1813506487083
 51
341.2875121938289
  0
LINE
  5
9FA
330
1F
100
AcDbEntity
  8
0
  6
Continuous
 62
     7
370
    15
100
AcDbLine
 10
3.644821623149009
 20
9.120814392933486
 30
0.0
 11
3.598139171241409
 21
9.117661491104727
 31
0.0
  0
ARC
  5
9FB
330
1F
100
AcDbEntity
  8
0
  6
Continuous
 62
     7
370
    15
100
AcDbCircle
 10
3.754245137351827
 20
9.156571600922367
 30
0.0
 40
0.016621082984734
100
AcDbArc
 50
345.8927023831592
 51
157.8349928715643
  0
LINE
  5
9FC
330
1F
100
AcDbEntity
  8
0
  6
Continuous
 62
     7
370
    15
100
AcDbLine
 10
3.166711851407841
 20
8.479358198418907
 30
0.0
 11
3.161978803411441
 21
8.526107799808443
 31
0.0
  0
LINE
  5
9FD
330
1F
100
AcDbEntity
  8
0
  6
Continuous
 62
     7
370
    15
100
AcDbLine
 10
3.161978803411441
 20
8.526107799808443
 30
0.0
 11
3.164411981651452
 21
8.52786140700545
 31
0.0
  0
LINE
  5
9FE
330
1F
100
AcDbEntity
  8
0
  6
Continuous
 62
     7
370
    15
100
AcDbLine
 10
3.164411981651452
 20
8.52786140700545
 30
0.0
 11
3.169447126125786
 21
8.478127869559973
 31
0.0
  0
LINE
  5
9FF
330
1F
100
AcDbEntity
  8
0
  6
Continuous
 62
     7
370
    15
100
AcDbLine
 10
3.166711851407841
 20
8.479358198418907
 30
0.0
 11
3.169447126125786
 21
8.478127869559973
 31
0.0
  0
LINE
  5
A00
330
1F
100
AcDbEntity
  8
0
  6
Continuous
 62
     7
370
    15
100
AcDbLine
 10
3.128592050515359
 20
8.451884511060566
 30
0.0
 11
3.166711851407841
 21
8.479358198418907
 31
0.0
  0
LINE
  5
A01
330
1F
100
AcDbEntity
  8
0
  6
Continuous
 62
     7
370
    15
100
AcDbLine
 10
3.169447126125786
 20
8.478127869559973
 30
0.0
 11
3.128894172390223
 21
8.448900473416908
 31
0.0
  0
LINE
  5
A02
330
1F
100
AcDbEntity
  8
0
  6
Continuous
 62
     7
370
    15
100
AcDbLine
 10
3.128592050515359
 20
8.451884511060566
 30
0.0
 11
3.128894172390223
 21
8.448900473416908
 31
0.0
  0
LINE
  5
A03
330
1F
100
AcDbEntity
  8
0
  6
Continuous
 62
     7
370
    15
100
AcDbLine
 10
3.083306048783397
 20
8.469406665513182
 30
0.0
 11
3.078270878912133
 21
8.519140253752518
 31
0.0
  0
LINE
  5
A04
330
1F
100
AcDbEntity
  8
0
  6
Continuous
 62
     7
370
    15
100
AcDbLine
 10
3.078270878912133
 20
8.519140253752518
 30
0.0
 11
3.081006179027009
 21
8.517909874099724
 31
0.0
  0
LINE
  5
A05
330
1F
100
AcDbEntity
  8
0
  6
Continuous
 62
     7
370
    15
100
AcDbLine
 10
3.081006179027009
 20
8.517909874099724
 30
0.0
 11
3.085739227023408
 21
8.471160374297906
 31
0.0
  0
LINE
  5
A06
330
1F
100
AcDbEntity
  8
0
  6
Continuous
 62
     7
370
    15
100
AcDbLine
 10
3.083306048783397
 20
8.469406665513182
 30
0.0
 11
3.085739227023408
 21
8.471160374297906
 31
0.0
  0
LINE
  5
A07
330
1F
100
AcDbEntity
  8
0
  6
Continuous
 62
     7
370
    15
100
AcDbLine
 10
3.085739227023408
 20
8.471160374297906
 30
0.0
 11
3.128592050515359
 21
8.451884511060566
 31
0.0
  0
LINE
  5
A08
330
1F
100
AcDbEntity
  8
0
  6
Continuous
 62
     7
370
    15
100
AcDbLine
 10
3.128894172390223
 20
8.448900473416908
 30
0.0
 11
3.083306048783397
 21
8.469406665513182
 31
0.0
  0
CIRCLE
  5
A09
330
1F
100
AcDbEntity
  8
0
  6
Continuous
 62
     7
370
    15
100
AcDbCircle
 10
3.123859013856147
 20
8.498634053041606
 30
0.0
 40
0.0270134099354506
  0
LINE
  5
A0A
330
1F
100
AcDbEntity
  8
0
  6
Continuous
 62
     7
370
    15
100
AcDbLine
 10
3.119125979919489
 20
8.545383612251923
 30
0.0
 11
3.081006179027009
 21
8.517909874099724
 31
0.0
  0
LINE
  5
A0B
330
1F
100
AcDbEntity
  8
0
  6
Continuous
 62
     7
370
    15
100
AcDbLine
 10
3.161978803411441
 20
8.526107799808443
 30
0.0
 11
3.119125979919489
 21
8.545383612251923
 31
0.0
  0
LINE
  5
A0C
330
1F
100
AcDbEntity
  8
0
  6
Continuous
 62
     7
370
    15
100
AcDbLine
 10
3.118823858044625
 20
8.548367649895582
 30
0.0
 11
3.119125979919489
 21
8.545383612251923
 31
0.0
  0
LINE
  5
A0D
330
1F
100
AcDbEntity
  8
0
  6
Continuous
 62
     7
370
    15
100
AcDbLine
 10
3.118823858044625
 20
8.548367649895582
 30
0.0
 11
3.164411981651452
 21
8.52786140700545
 31
0.0
  0
LINE
  5
A0E
330
1F
100
AcDbEntity
  8
0
  6
Continuous
 62
     7
370
    15
100
AcDbLine
 10
3.078270878912133
 20
8.519140253752518
 30
0.0
 11
3.118823858044625
 21
8.548367649895582
 31
0.0
  0
LINE
  5
A0F
330
1F
100
AcDbEntity
  8
0
  6
Continuous
 62
     7
370
    15
100
AcDbLine
 10
2.603932475030045
 20
8.479358198418907
 30
0.0
 11
2.599199427033643
 21
8.526107799808443
 31
0.0
  0
LINE
  5
A10
330
1F
100
AcDbEntity
  8
0
  6
Continuous
 62
     7
370
    15
100
AcDbLine
 10
2.599199427033643
 20
8.526107799808443
 30
0.0
 11
2.601632605273654
 21
8.52786140700545
 31
0.0
  0
LINE
  5
A11
330
1F
100
AcDbEntity
  8
0
  6
Continuous
 62
     7
370
    15
100
AcDbLine
 10
2.601632605273654
 20
8.52786140700545
 30
0.0
 11
2.606667775144919
 21
8.478127869559973
 31
0.0
  0
LINE
  5
A12
330
1F
100
AcDbEntity
  8
0
  6
Continuous
 62
     7
370
    15
100
AcDbLine
 10
2.603932475030045
 20
8.479358198418907
 30
0.0
 11
2.606667775144919
 21
8.478127869559973
 31
0.0
  0
LINE
  5
A13
330
1F
100
AcDbEntity
  8
0
  6
Continuous
 62
     7
370
    15
100
AcDbLine
 10
2.522959850645612
 20
8.471160374297906
 30
0.0
 11
2.565812674137564
 21
8.451884511060566
 31
0.0
  0
LINE
  5
A14
330
1F
100
AcDbEntity
  8
0
  6
Continuous
 62
     7
370
    15
100
AcDbLine
 10
2.565812674137564
 20
8.451884511060566
 30
0.0
 11
2.566114796012426
 21
8.448900473416908
 31
0.0
  0
LINE
  5
A15
330
1F
100
AcDbEntity
  8
0
  6
Continuous
 62
     7
370
    15
100
AcDbLine
 10
2.566114796012426
 20
8.448900473416908
 30
0.0
 11
2.520526672405601
 21
8.469406665513182
 31
0.0
  0
LINE
  5
A16
330
1F
100
AcDbEntity
  8
0
  6
Continuous
 62
     7
370
    15
100
AcDbLine
 10
2.520526672405601
 20
8.469406665513182
 30
0.0
 11
2.522959850645612
 21
8.471160374297906
 31
0.0
  0
LINE
  5
A17
330
1F
100
AcDbEntity
  8
0
  6
Continuous
 62
     7
370
    15
100
AcDbLine
 10
2.520526672405601
 20
8.469406665513182
 30
0.0
 11
2.515491527931266
 21
8.519140253752518
 31
0.0
  0
LINE
  5
A18
330
1F
100
AcDbEntity
  8
0
  6
Continuous
 62
     7
370
    15
100
AcDbLine
 10
2.515491527931266
 20
8.519140253752518
 30
0.0
 11
2.518226802649211
 21
8.517909874099724
 31
0.0
  0
LINE
  5
A19
330
1F
100
AcDbEntity
  8
0
  6
Continuous
 62
     7
370
    15
100
AcDbLine
 10
2.518226802649211
 20
8.517909874099724
 30
0.0
 11
2.522959850645612
 21
8.471160374297906
 31
0.0
  0
LINE
  5
A1A
330
1F
100
AcDbEntity
  8
0
  6
Continuous
 62
     7
370
    15
100
AcDbLine
 10
2.599199427033643
 20
8.526107799808443
 30
0.0
 11
2.556346603541691
 21
8.545383612251923
 31
0.0
  0
LINE
  5
A1B
330
1F
100
AcDbEntity
  8
0
  6
Continuous
 62
     7
370
    15
100
AcDbLine
 10
2.556044481666829
 20
8.548367649895582
 30
0.0
 11
2.556346603541691
 21
8.545383612251923
 31
0.0
  0
LINE
  5
A1C
330
1F
100
AcDbEntity
  8
0
  6
Continuous
 62
     7
370
    15
100
AcDbLine
 10
2.556044481666829
 20
8.548367649895582
 30
0.0
 11
2.601632605273654
 21
8.52786140700545
 31
0.0
  0
LINE
  5
A1D
330
1F
100
AcDbEntity
  8
0
  6
Continuous
 62
     7
370
    15
100
AcDbLine
 10
2.565812674137564
 20
8.451884511060566
 30
0.0
 11
2.603932475030045
 21
8.479358198418907
 31
0.0
  0
LINE
  5
A1E
330
1F
100
AcDbEntity
  8
0
  6
Continuous
 62
     7
370
    15
100
AcDbLine
 10
2.556346603541691
 20
8.545383612251923
 30
0.0
 11
2.518226802649211
 21
8.517909874099724
 31
0.0
  0
CIRCLE
  5
A1F
330
1F
100
AcDbEntity
  8
0
  6
Continuous
 62
     7
370
    15
100
AcDbCircle
 10
2.561079640200901
 20
8.498634053041606
 30
0.0
 40
0.0270134099354502
  0
LINE
  5
A20
330
1F
100
AcDbEntity
  8
0
  6
Continuous
 62
     7
370
    15
100
AcDbLine
 10
2.606667775144919
 20
8.478127869559973
 30
0.0
 11
2.566114796012426
 21
8.448900473416908
 31
0.0
  0
LINE
  5
A21
330
1F
100
AcDbEntity
  8
0
  6
Continuous
 62
     7
370
    15
100
AcDbLine
 10
2.515491527931266
 20
8.519140253752518
 30
0.0
 11
2.556044481666829
 21
8.548367649895582
 31
0.0
  0
LINE
  5
A22
330
1F
100
AcDbEntity
  8
0
  6
Continuous
 62
     7
370
    15
100
AcDbLine
 10
2.842469327028524
 20
8.412052576157164
 30
0.0
 11
2.842469327028524
 21
8.585215496361466
 31
0.0
  0
LINE
  5
A23
330
1F
100
AcDbEntity
  8
0
  6
Continuous
 62
     7
370
    15
100
AcDbLine
 10
2.732794413418034
 20
8.412052576157164
 30
0.0
 11
2.842469327028524
 21
8.412052576157164
 31
0.0
  0
LINE
  5
A24
330
1F
100
AcDbEntity
  8
0
  6
Continuous
 62
     7
370
    15
100
AcDbLine
 10
2.732794413418034
 20
8.412052576157164
 30
0.0
 11
2.732794413418034
 21
8.585215496361466
 31
0.0
  0
LINE
  5
A25
330
1F
100
AcDbEntity
  8
0
  6
Continuous
 62
     7
370
    15
100
AcDbLine
 10
2.732794413418034
 20
8.585215496361466
 30
0.0
 11
2.842469327028524
 21
8.585215496361466
 31
0.0
  0
LINE
  5
A26
330
1F
100
AcDbEntity
  8
0
  6
Continuous
 62
     7
370
    15
100
AcDbLine
 10
2.952144240639019
 20
8.412052576157164
 30
0.0
 11
2.952144240639019
 21
8.585215496361466
 31
0.0
  0
LINE
  5
A27
330
1F
100
AcDbEntity
  8
0
  6
Continuous
 62
     7
370
    15
100
AcDbLine
 10
2.842469327028524
 20
8.412052576157164
 30
0.0
 11
2.952144240639019
 21
8.412052576157164
 31
0.0
  0
LINE
  5
A28
330
1F
100
AcDbEntity
  8
0
  6
Continuous
 62
     7
370
    15
100
AcDbLine
 10
2.842469327028524
 20
8.585215496361466
 30
0.0
 11
2.952144240639019
 21
8.585215496361466
 31
0.0
  0
LINE
  5
A29
330
1F
100
AcDbEntity
  8
0
  6
Continuous
 62
     7
370
    15
100
AcDbLine
 10
2.713079615045921
 20
8.412052576157164
 30
0.0
 11
2.713079615045921
 21
8.585215496361466
 31
0.0
  0
LINE
  5
A2A
330
1F
100
AcDbEntity
  8
0
  6
Continuous
 62
     7
370
    15
100
AcDbLine
 10
2.713079615045921
 20
8.412052576157164
 30
0.0
 11
2.732794413418034
 21
8.412052576157164
 31
0.0
  0
LINE
  5
A2B
330
1F
100
AcDbEntity
  8
0
  6
Continuous
 62
     7
370
    15
100
AcDbLine
 10
2.713079615045921
 20
8.585215496361466
 30
0.0
 11
2.732794413418034
 21
8.585215496361466
 31
0.0
  0
LINE
  5
A2C
330
1F
100
AcDbEntity
  8
0
  6
Continuous
 62
     7
370
    15
100
AcDbLine
 10
2.971859039011129
 20
8.412052576157164
 30
0.0
 11
2.971859039011129
 21
8.585215496361466
 31
0.0
  0
LINE
  5
A2D
330
1F
100
AcDbEntity
  8
0
  6
Continuous
 62
     7
370
    15
100
AcDbLine
 10
2.952144240639019
 20
8.412052576157164
 30
0.0
 11
2.971859039011129
 21
8.412052576157164
 31
0.0
  0
LINE
  5
A2E
330
1F
100
AcDbEntity
  8
0
  6
Continuous
 62
     7
370
    15
100
AcDbLine
 10
2.952144240639019
 20
8.585215496361466
 30
0.0
 11
2.971859039011129
 21
8.585215496361466
 31
0.0
  0
LINE
  5
A2F
330
1F
100
AcDbEntity
  8
0
  6
Continuous
 62
     7
370
    15
100
AcDbLine
 10
2.646261956691601
 20
8.412052576157164
 30
0.0
 11
2.646261956691601
 21
8.585215496361466
 31
0.0
  0
LINE
  5
A30
330
1F
100
AcDbEntity
  8
0
  6
Continuous
 62
     7
370
    15
100
AcDbLine
 10
2.67363551665488
 20
8.412052576157164
 30
0.0
 11
2.713079615045921
 21
8.412052576157164
 31
0.0
  0
LINE
  5
A31
330
1F
100
AcDbEntity
  8
0
  6
Continuous
 62
     7
370
    15
100
AcDbLine
 10
2.646261956691601
 20
8.585215496361466
 30
0.0
 11
2.713079615045921
 21
8.585215496361466
 31
0.0
  0
LINE
  5
A32
330
1F
100
AcDbEntity
  8
0
  6
Continuous
 62
     7
370
    15
100
AcDbLine
 10
3.03867669736545
 20
8.412052576157164
 30
0.0
 11
3.03867669736545
 21
8.585215496361466
 31
0.0
  0
LINE
  5
A33
330
1F
100
AcDbEntity
  8
0
  6
Continuous
 62
     7
370
    15
100
AcDbLine
 10
2.971859039011129
 20
8.412052576157164
 30
0.0
 11
3.011303137402172
 21
8.412052576157164
 31
0.0
  0
LINE
  5
A34
330
1F
100
AcDbEntity
  8
0
  6
Continuous
 62
     7
370
    15
100
AcDbLine
 10
2.971859039011129
 20
8.585215496361466
 30
0.0
 11
3.03867669736545
 21
8.585215496361466
 31
0.0
  0
LINE
  5
A35
330
1F
100
AcDbEntity
  8
0
  6
Continuous
 62
     7
370
    15
100
AcDbLine
 10
3.057422133029027
 20
8.412052576157164
 30
0.0
 11
3.057422133029027
 21
8.585215496361466
 31
0.0
  0
LINE
  5
A36
330
1F
100
AcDbEntity
  8
0
  6
Continuous
 62
     7
370
    15
100
AcDbLine
 10
3.03867669736545
 20
8.585215496361466
 30
0.0
 11
3.057422133029027
 21
8.585215496361466
 31
0.0
  0
LINE
  5
A37
330
1F
100
AcDbEntity
  8
0
  6
Continuous
 62
     7
370
    15
100
AcDbLine
 10
2.627516521028023
 20
8.412052576157164
 30
0.0
 11
2.627516521028023
 21
8.585215496361466
 31
0.0
  0
LINE
  5
A38
330
1F
100
AcDbEntity
  8
0
  6
Continuous
 62
     7
370
    15
100
AcDbLine
 10
2.627516521028023
 20
8.585215496361466
 30
0.0
 11
2.646261956691601
 21
8.585215496361466
 31
0.0
  0
LINE
  5
A39
330
1F
100
AcDbEntity
  8
0
  6
Continuous
 62
     7
370
    15
100
AcDbLine
 10
2.54660693182293
 20
8.415702622883407
 30
0.0
 11
2.550256953152243
 21
8.412052576157164
 31
0.0
  0
LINE
  5
A3A
330
1F
100
AcDbEntity
  8
0
  6
Continuous
 62
     7
370
    15
100
AcDbLine
 10
2.496143562810711
 20
8.485211784347456
 30
0.0
 11
2.496143562810711
 21
8.585215496361466
 31
0.0
  0
LINE
  5
A3B
330
1F
100
AcDbEntity
  8
0
  6
Continuous
 62
     7
370
    15
100
AcDbLine
 10
2.496143562810711
 20
8.585215496361466
 30
0.0
 11
2.627516521028023
 21
8.585215496361466
 31
0.0
  0
LINE
  5
A3C
330
1F
100
AcDbEntity
  8
0
  6
Continuous
 62
     7
370
    15
100
AcDbLine
 10
3.134681700904809
 20
8.412052576157164
 30
0.0
 11
3.138331722234121
 21
8.415702622883407
 31
0.0
  0
LINE
  5
A3D
330
1F
100
AcDbEntity
  8
0
  6
Continuous
 62
     7
370
    15
100
AcDbLine
 10
3.18879509124634
 20
8.485211784347456
 30
0.0
 11
3.18879509124634
 21
8.585215496361466
 31
0.0
  0
LINE
  5
A3E
330
1F
100
AcDbEntity
  8
0
  6
Continuous
 62
     7
370
    15
100
AcDbLine
 10
3.057422133029027
 20
8.585215496361466
 30
0.0
 11
3.18879509124634
 21
8.585215496361466
 31
0.0
  0
LINE
  5
A3F
330
1F
100
AcDbEntity
  8
0
  6
Continuous
 62
     7
370
    15
100
AcDbLine
 10
2.265403999956056
 20
8.649285752963944
 30
0.0
 11
2.287049396727756
 21
8.649285752963944
 31
0.0
  0
LINE
  5
A40
330
1F
100
AcDbEntity
  8
0
  6
Continuous
 62
     7
370
    15
100
AcDbLine
 10
2.251984821072683
 20
10.16965587845166
 30
0.0
 11
2.251984821072683
 21
10.25104242199518
 31
0.0
  0
LINE
  5
A41
330
1F
100
AcDbEntity
  8
0
  6
Continuous
 62
     7
370
    15
100
AcDbLine
 10
2.300469489900597
 20
10.16965587845166
 30
0.0
 11
2.251984821072683
 21
10.16965587845166
 31
0.0
  0
LINE
  5
A42
330
1F
100
AcDbEntity
  8
0
  6
Continuous
 62
     7
370
    15
100
AcDbLine
 10
2.300469489900597
 20
10.25104242199518
 30
0.0
 11
2.251984821072683
 21
10.25104242199518
 31
0.0
  0
LINE
  5
A43
330
1F
100
AcDbEntity
  8
0
  6
Continuous
 62
     7
370
    15
100
AcDbLine
 10
2.251984821072683
 20
10.00082206807802
 30
0.0
 11
2.251984821072683
 21
10.08220861162154
 31
0.0
  0
LINE
  5
A44
330
1F
100
AcDbEntity
  8
0
  6
Continuous
 62
     7
370
    15
100
AcDbLine
 10
2.300469489900597
 20
10.08220861162154
 30
0.0
 11
2.251984821072683
 21
10.08220861162154
 31
0.0
  0
LINE
  5
A45
330
1F
100
AcDbEntity
  8
0
  6
Continuous
 62
     7
370
    15
100
AcDbLine
 10
2.300469489900597
 20
10.00082206807802
 30
0.0
 11
2.251984821072683
 21
10.00082206807802
 31
0.0
  0
LINE
  5
A46
330
1F
100
AcDbEntity
  8
0
  6
Continuous
 62
     7
370
    15
100
AcDbLine
 10
2.251984821072683
 20
9.831988257704369
 30
0.0
 11
2.251984821072683
 21
9.91337480124789
 31
0.0
  0
LINE
  5
A47
330
1F
100
AcDbEntity
  8
0
  6
Continuous
 62
     7
370
    15
100
AcDbLine
 10
2.300469489900597
 20
9.831988257704369
 30
0.0
 11
2.251984821072683
 21
9.831988257704369
 31
0.0
  0
LINE
  5
A48
330
1F
100
AcDbEntity
  8
0
  6
Continuous
 62
     7
370
    15
100
AcDbLine
 10
2.300469489900597
 20
9.91337480124789
 30
0.0
 11
2.251984821072683
 21
9.91337480124789
 31
0.0
  0
LINE
  5
A49
330
1F
100
AcDbEntity
  8
0
  6
Continuous
 62
     7
370
    15
100
AcDbLine
 10
2.251984821072683
 20
9.663154447330722
 30
0.0
 11
2.251984821072683
 21
9.744541016271175
 31
0.0
  0
LINE
  5
A4A
330
1F
100
AcDbEntity
  8
0
  6
Continuous
 62
     7
370
    15
100
AcDbLine
 10
2.300469489900597
 20
9.663154447330722
 30
0.0
 11
2.251984821072683
 21
9.663154447330722
 31
0.0
  0
LINE
  5
A4B
330
1F
100
AcDbEntity
  8
0
  6
Continuous
 62
     7
370
    15
100
AcDbLine
 10
2.300469489900597
 20
9.744541016271175
 30
0.0
 11
2.251984821072683
 21
9.744541016271175
 31
0.0
  0
LINE
  5
A4C
330
1F
100
AcDbEntity
  8
0
  6
Continuous
 62
     7
370
    15
100
AcDbLine
 10
2.251984821072683
 20
9.156653016209786
 30
0.0
 11
2.251984821072683
 21
9.238039566102538
 31
0.0
  0
LINE
  5
A4D
330
1F
100
AcDbEntity
  8
0
  6
Continuous
 62
     7
370
    15
100
AcDbLine
 10
2.300469489900597
 20
9.156653016209786
 30
0.0
 11
2.251984821072683
 21
9.156653016209786
 31
0.0
  0
LINE
  5
A4E
330
1F
100
AcDbEntity
  8
0
  6
Continuous
 62
     7
370
    15
100
AcDbLine
 10
2.300469489900597
 20
9.238039566102538
 30
0.0
 11
2.251984821072683
 21
9.238039566102538
 31
0.0
  0
LINE
  5
A4F
330
1F
100
AcDbEntity
  8
0
  6
Continuous
 62
     7
370
    15
100
AcDbLine
 10
2.251984821072683
 20
9.325486824996123
 30
0.0
 11
2.251984821072683
 21
9.406873382825417
 31
0.0
  0
LINE
  5
A50
330
1F
100
AcDbEntity
  8
0
  6
Continuous
 62
     7
370
    15
100
AcDbLine
 10
2.300469489900597
 20
9.325486824996123
 30
0.0
 11
2.251984821072683
 21
9.325486824996123
 31
0.0
  0
LINE
  5
A51
330
1F
100
AcDbEntity
  8
0
  6
Continuous
 62
     7
370
    15
100
AcDbLine
 10
2.300469489900597
 20
9.406873382825417
 30
0.0
 11
2.251984821072683
 21
9.406873382825417
 31
0.0
  0
LINE
  5
A52
330
1F
100
AcDbEntity
  8
0
  6
Continuous
 62
     7
370
    15
100
AcDbLine
 10
2.251984821072683
 20
8.818985395462493
 30
0.0
 11
2.251984821072683
 21
8.900371939006016
 31
0.0
  0
LINE
  5
A53
330
1F
100
AcDbEntity
  8
0
  6
Continuous
 62
     7
370
    15
100
AcDbLine
 10
2.300469489900597
 20
8.900371939006016
 30
0.0
 11
2.251984821072683
 21
8.900371939006016
 31
0.0
  0
LINE
  5
A54
330
1F
100
AcDbEntity
  8
0
  6
Continuous
 62
     7
370
    15
100
AcDbLine
 10
2.300469489900597
 20
8.818985395462493
 30
0.0
 11
2.251984821072683
 21
8.818985395462493
 31
0.0
  0
LINE
  5
A55
330
1F
100
AcDbEntity
  8
0
  6
Continuous
 62
     7
370
    15
100
AcDbLine
 10
2.251984821072683
 20
9.494320636957077
 30
0.0
 11
2.251984821072683
 21
9.575707180500599
 31
0.0
  0
LINE
  5
A56
330
1F
100
AcDbEntity
  8
0
  6
Continuous
 62
     7
370
    15
100
AcDbLine
 10
2.300469489900597
 20
9.575707180500599
 30
0.0
 11
2.251984821072683
 21
9.575707180500599
 31
0.0
  0
LINE
  5
A57
330
1F
100
AcDbEntity
  8
0
  6
Continuous
 62
     7
370
    15
100
AcDbLine
 10
2.300469489900597
 20
9.494320636957077
 30
0.0
 11
2.251984821072683
 21
9.494320636957077
 31
0.0
  0
LINE
  5
A58
330
1F
100
AcDbEntity
  8
0
  6
Continuous
 62
     7
370
    15
100
AcDbLine
 10
2.251984821072683
 20
8.98781920583614
 30
0.0
 11
2.251984821072683
 21
9.06920574937966
 31
0.0
  0
LINE
  5
A59
330
1F
100
AcDbEntity
  8
0
  6
Continuous
 62
     7
370
    15
100
AcDbLine
 10
2.300469489900597
 20
9.06920574937966
 30
0.0
 11
2.251984821072683
 21
9.06920574937966
 31
0.0
  0
LINE
  5
A5A
330
1F
100
AcDbEntity
  8
0
  6
Continuous
 62
     7
370
    15
100
AcDbLine
 10
2.300469489900597
 20
8.98781920583614
 30
0.0
 11
2.251984821072683
 21
8.98781920583614
 31
0.0
  0
LINE
  5
A5B
330
1F
100
AcDbEntity
  8
0
  6
Continuous
 62
     7
370
    15
100
AcDbLine
 10
2.251984821072683
 20
8.650151585088846
 30
0.0
 11
2.251984821072683
 21
8.73153812863237
 31
0.0
  0
LINE
  5
A5C
330
1F
100
AcDbEntity
  8
0
  6
Continuous
 62
     7
370
    15
100
AcDbLine
 10
2.300469489900597
 20
8.73153812863237
 30
0.0
 11
2.251984821072683
 21
8.73153812863237
 31
0.0
  0
LINE
  5
A5D
330
1F
100
AcDbEntity
  8
0
  6
Continuous
 62
     7
370
    15
100
AcDbLine
 10
2.288348094121252
 20
8.650151585088846
 30
0.0
 11
2.251984821072683
 21
8.650151585088846
 31
0.0
  0
LINE
  5
A5E
330
1F
100
AcDbEntity
  8
0
  6
Continuous
 62
     7
370
    15
100
AcDbLine
 10
2.251984821072683
 20
9.06920574937966
 30
0.0
 11
2.251984821072683
 21
9.156653016209786
 31
0.0
  0
LINE
  5
A5F
330
1F
100
AcDbEntity
  8
0
  6
Continuous
 62
     7
370
    15
100
AcDbLine
 10
2.251984821072683
 20
9.238039566102538
 30
0.0
 11
2.251984821072683
 21
9.325486824996123
 31
0.0
  0
LINE
  5
A60
330
1F
100
AcDbEntity
  8
0
  6
Continuous
 62
     7
370
    15
100
AcDbLine
 10
2.251984821072683
 20
9.91337480124789
 30
0.0
 11
2.251984821072683
 21
10.00082206807802
 31
0.0
  0
LINE
  5
A61
330
1F
100
AcDbEntity
  8
0
  6
Continuous
 62
     7
370
    15
100
AcDbLine
 10
2.251984821072683
 20
10.25104242199518
 30
0.0
 11
2.251984821072683
 21
10.25190825412009
 31
0.0
  0
LINE
  5
A62
330
1F
100
AcDbEntity
  8
0
  6
Continuous
 62
     7
370
    15
100
AcDbLine
 10
2.251984821072683
 20
10.08220861162154
 30
0.0
 11
2.251984821072683
 21
10.16965587845166
 31
0.0
  0
LINE
  5
A63
330
1F
100
AcDbEntity
  8
0
  6
Continuous
 62
     7
370
    15
100
AcDbLine
 10
2.251984821072683
 20
9.744541016271175
 30
0.0
 11
2.251984821072683
 21
9.831988257704369
 31
0.0
  0
LINE
  5
A64
330
1F
100
AcDbEntity
  8
0
  6
Continuous
 62
     7
370
    15
100
AcDbLine
 10
2.251984821072683
 20
9.575707180500599
 30
0.0
 11
2.251984821072683
 21
9.663154447330722
 31
0.0
  0
LINE
  5
A65
330
1F
100
AcDbEntity
  8
0
  6
Continuous
 62
     7
370
    15
100
AcDbLine
 10
2.251984821072683
 20
9.406873382825417
 30
0.0
 11
2.251984821072683
 21
9.494320636957077
 31
0.0
  0
LINE
  5
A66
330
1F
100
AcDbEntity
  8
0
  6
Continuous
 62
     7
370
    15
100
AcDbLine
 10
2.251984821072683
 20
8.900371939006016
 30
0.0
 11
2.251984821072683
 21
8.98781920583614
 31
0.0
  0
LINE
  5
A67
330
1F
100
AcDbEntity
  8
0
  6
Continuous
 62
     7
370
    15
100
AcDbLine
 10
2.251984821072683
 20
8.73153812863237
 30
0.0
 11
2.251984821072683
 21
8.818985395462493
 31
0.0
  0
LINE
  5
A68
330
1F
100
AcDbEntity
  8
0
  6
Continuous
 62
     7
370
    15
100
AcDbLine
 10
2.250922975444906
 20
10.25190825412009
 30
0.0
 11
2.250922975444906
 21
8.650151585088846
 31
0.0
  0
LINE
  5
A69
330
1F
100
AcDbEntity
  8
0
  6
Continuous
 62
     7
370
    15
100
AcDbLine
 10
2.251984821072683
 20
10.25190825412009
 30
0.0
 11
2.250922975444906
 21
10.25190825412009
 31
0.0
  0
LINE
  5
A6A
330
1F
100
AcDbEntity
  8
0
  6
Continuous
 62
     7
370
    15
100
AcDbLine
 10
2.250922975444906
 20
8.650151585088846
 30
0.0
 11
2.251984821072683
 21
8.650151585088846
 31
0.0
  0
LINE
  5
A6B
330
1F
100
AcDbEntity
  8
0
  6
Continuous
 62
     7
370
    15
100
AcDbLine
 10
2.260642634383119
 20
10.25190825412009
 30
0.0
 11
2.251984821072683
 21
10.25190825412009
 31
0.0
  0
LINE
  5
A6C
330
1F
100
AcDbEntity
  8
0
  6
Continuous
 62
     7
370
    15
100
AcDbLine
 10
2.260642634383119
 20
10.25104242199518
 30
0.0
 11
2.260642634383119
 21
10.25190825412009
 31
0.0
  0
LINE
  5
A6D
330
1F
100
AcDbEntity
  8
0
  6
Continuous
 62
     7
370
    15
100
AcDbLine
 10
2.300469489900597
 20
9.831988257704369
 30
0.0
 11
2.251983906783216
 21
9.831988257704369
 31
0.0
  0
LINE
  5
A6E
330
1F
100
AcDbEntity
  8
0
  6
Continuous
 62
     7
370
    15
100
AcDbLine
 10
2.300469489900597
 20
9.744541016271175
 30
0.0
 11
2.300469489900597
 21
9.831988257704369
 31
0.0
  0
LINE
  5
A6F
330
1F
100
AcDbEntity
  8
0
  6
Continuous
 62
     7
370
    15
100
AcDbLine
 10
2.300469489900597
 20
9.744541016271175
 30
0.0
 11
2.251983906783216
 21
9.744541016271175
 31
0.0
  0
LINE
  5
A70
330
1F
100
AcDbEntity
  8
0
  6
Continuous
 62
     7
370
    15
100
AcDbLine
 10
2.300469489900597
 20
9.663154447330722
 30
0.0
 11
2.251983906783216
 21
9.663154447330722
 31
0.0
  0
LINE
  5
A71
330
1F
100
AcDbEntity
  8
0
  6
Continuous
 62
     7
370
    15
100
AcDbLine
 10
2.300469489900597
 20
9.575707180500599
 30
0.0
 11
2.300469489900597
 21
9.663154447330722
 31
0.0
  0
LINE
  5
A72
330
1F
100
AcDbEntity
  8
0
  6
Continuous
 62
     7
370
    15
100
AcDbLine
 10
2.300469489900597
 20
9.575707180500599
 30
0.0
 11
2.251983906783216
 21
9.575707180500599
 31
0.0
  0
LINE
  5
A73
330
1F
100
AcDbEntity
  8
0
  6
Continuous
 62
     7
370
    15
100
AcDbLine
 10
2.300469489900597
 20
9.91337480124789
 30
0.0
 11
2.300469489900597
 21
10.00082206807802
 31
0.0
  0
LINE
  5
A74
330
1F
100
AcDbEntity
  8
0
  6
Continuous
 62
     7
370
    15
100
AcDbLine
 10
2.300469489900597
 20
9.91337480124789
 30
0.0
 11
2.251983906783216
 21
9.91337480124789
 31
0.0
  0
LINE
  5
A75
330
1F
100
AcDbEntity
  8
0
  6
Continuous
 62
     7
370
    15
100
AcDbLine
 10
2.300469489900597
 20
10.00082206807802
 30
0.0
 11
2.251983906783216
 21
10.00082206807802
 31
0.0
  0
LINE
  5
A76
330
1F
100
AcDbEntity
  8
0
  6
Continuous
 62
     7
370
    15
100
AcDbLine
 10
2.300469489900597
 20
10.08220861162154
 30
0.0
 11
2.300469489900597
 21
10.16965587845166
 31
0.0
  0
LINE
  5
A77
330
1F
100
AcDbEntity
  8
0
  6
Continuous
 62
     7
370
    15
100
AcDbLine
 10
2.300469489900597
 20
10.08220861162154
 30
0.0
 11
2.251983906783216
 21
10.08220861162154
 31
0.0
  0
LINE
  5
A78
330
1F
100
AcDbEntity
  8
0
  6
Continuous
 62
     7
370
    15
100
AcDbLine
 10
2.300469489900597
 20
10.16965587845166
 30
0.0
 11
2.251983906783216
 21
10.16965587845166
 31
0.0
  0
LINE
  5
A79
330
1F
100
AcDbEntity
  8
0
  6
Continuous
 62
     7
370
    15
100
AcDbLine
 10
2.300469489900597
 20
9.325486824996123
 30
0.0
 11
2.251983906783216
 21
9.325486824996123
 31
0.0
  0
LINE
  5
A7A
330
1F
100
AcDbEntity
  8
0
  6
Continuous
 62
     7
370
    15
100
AcDbLine
 10
2.300469489900597
 20
9.238039566102538
 30
0.0
 11
2.300469489900597
 21
9.325486824996123
 31
0.0
  0
LINE
  5
A7B
330
1F
100
AcDbEntity
  8
0
  6
Continuous
 62
     7
370
    15
100
AcDbLine
 10
2.300469489900597
 20
9.238039566102538
 30
0.0
 11
2.251983906783216
 21
9.238039566102538
 31
0.0
  0
LINE
  5
A7C
330
1F
100
AcDbEntity
  8
0
  6
Continuous
 62
     7
370
    15
100
AcDbLine
 10
2.300469489900597
 20
9.494320636957077
 30
0.0
 11
2.251983906783216
 21
9.494320636957077
 31
0.0
  0
LINE
  5
A7D
330
1F
100
AcDbEntity
  8
0
  6
Continuous
 62
     7
370
    15
100
AcDbLine
 10
2.300469489900597
 20
9.406873382825417
 30
0.0
 11
2.300469489900597
 21
9.494320636957077
 31
0.0
  0
LINE
  5
A7E
330
1F
100
AcDbEntity
  8
0
  6
Continuous
 62
     7
370
    15
100
AcDbLine
 10
2.300469489900597
 20
9.406873382825417
 30
0.0
 11
2.251983906783216
 21
9.406873382825417
 31
0.0
  0
LINE
  5
A7F
330
1F
100
AcDbEntity
  8
0
  6
Continuous
 62
     7
370
    15
100
AcDbLine
 10
2.300469489900597
 20
9.156653016209786
 30
0.0
 11
2.251983906783216
 21
9.156653016209786
 31
0.0
  0
LINE
  5
A80
330
1F
100
AcDbEntity
  8
0
  6
Continuous
 62
     7
370
    15
100
AcDbLine
 10
2.300469489900597
 20
9.06920574937966
 30
0.0
 11
2.300469489900597
 21
9.156653016209786
 31
0.0
  0
LINE
  5
A81
330
1F
100
AcDbEntity
  8
0
  6
Continuous
 62
     7
370
    15
100
AcDbLine
 10
2.300469489900597
 20
9.06920574937966
 30
0.0
 11
2.251983906783216
 21
9.06920574937966
 31
0.0
  0
LINE
  5
A82
330
1F
100
AcDbEntity
  8
0
  6
Continuous
 62
     7
370
    15
100
AcDbLine
 10
2.300469489900597
 20
8.73153812863237
 30
0.0
 11
2.251983906783216
 21
8.73153812863237
 31
0.0
  0
LINE
  5
A83
330
1F
100
AcDbEntity
  8
0
  6
Continuous
 62
     7
370
    15
100
AcDbLine
 10
2.300469489900597
 20
8.818985395462493
 30
0.0
 11
2.300469489900597
 21
8.73153812863237
 31
0.0
  0
LINE
  5
A84
330
1F
100
AcDbEntity
  8
0
  6
Continuous
 62
     7
370
    15
100
AcDbLine
 10
2.300469489900597
 20
8.818985395462493
 30
0.0
 11
2.251983906783216
 21
8.818985395462493
 31
0.0
  0
LINE
  5
A85
330
1F
100
AcDbEntity
  8
0
  6
Continuous
 62
     7
370
    15
100
AcDbLine
 10
2.300469489900597
 20
8.900371939006016
 30
0.0
 11
2.300469489900597
 21
8.98781920583614
 31
0.0
  0
LINE
  5
A86
330
1F
100
AcDbEntity
  8
0
  6
Continuous
 62
     7
370
    15
100
AcDbLine
 10
2.300469489900597
 20
8.900371939006016
 30
0.0
 11
2.251983906783216
 21
8.900371939006016
 31
0.0
  0
LINE
  5
A87
330
1F
100
AcDbEntity
  8
0
  6
Continuous
 62
     7
370
    15
100
AcDbLine
 10
2.300469489900597
 20
8.98781920583614
 30
0.0
 11
2.251983906783216
 21
8.98781920583614
 31
0.0
  0
LINE
  5
A88
330
1F
100
AcDbEntity
  8
0
  6
Continuous
 62
     7
370
    15
100
AcDbLine
 10
2.300469489900597
 20
9.831988257704369
 30
0.0
 11
2.300469489900597
 21
9.91337480124789
 31
0.0
  0
LINE
  5
A89
330
1F
100
AcDbEntity
  8
0
  6
Continuous
 62
     7
370
    15
100
AcDbLine
 10
2.300469489900597
 20
10.25190825412009
 30
0.0
 11
2.291811371827003
 21
10.25190825412009
 31
0.0
  0
LINE
  5
A8A
330
1F
100
AcDbEntity
  8
0
  6
Continuous
 62
     7
370
    15
100
AcDbLine
 10
2.300469489900597
 20
10.16965587845166
 30
0.0
 11
2.300469489900597
 21
10.25190825412009
 31
0.0
  0
LINE
  5
A8B
330
1F
100
AcDbEntity
  8
0
  6
Continuous
 62
     7
370
    15
100
AcDbLine
 10
2.291811371827003
 20
10.25104242199518
 30
0.0
 11
2.291811371827003
 21
10.25190825412009
 31
0.0
  0
LINE
  5
A8C
330
1F
100
AcDbEntity
  8
0
  6
Continuous
 62
     7
370
    15
100
AcDbLine
 10
2.300469489900597
 20
10.00082206807802
 30
0.0
 11
2.300469489900597
 21
10.08220861162154
 31
0.0
  0
LINE
  5
A8D
330
1F
100
AcDbEntity
  8
0
  6
Continuous
 62
     7
370
    15
100
AcDbLine
 10
2.300469489900597
 20
9.663154447330722
 30
0.0
 11
2.300469489900597
 21
9.744541016271175
 31
0.0
  0
LINE
  5
A8E
330
1F
100
AcDbEntity
  8
0
  6
Continuous
 62
     7
370
    15
100
AcDbLine
 10
2.300469489900597
 20
9.156653016209786
 30
0.0
 11
2.300469489900597
 21
9.238039566102538
 31
0.0
  0
LINE
  5
A8F
330
1F
100
AcDbEntity
  8
0
  6
Continuous
 62
     7
370
    15
100
AcDbLine
 10
2.300469489900597
 20
9.494320636957077
 30
0.0
 11
2.300469489900597
 21
9.575707180500599
 31
0.0
  0
LINE
  5
A90
330
1F
100
AcDbEntity
  8
0
  6
Continuous
 62
     7
370
    15
100
AcDbLine
 10
2.300469489900597
 20
9.325486824996123
 30
0.0
 11
2.300469489900597
 21
9.406873382825417
 31
0.0
  0
LINE
  5
A91
330
1F
100
AcDbEntity
  8
0
  6
Continuous
 62
     7
370
    15
100
AcDbLine
 10
2.300469489900597
 20
8.818985395462493
 30
0.0
 11
2.300469489900597
 21
8.900371939006016
 31
0.0
  0
LINE
  5
A92
330
1F
100
AcDbEntity
  8
0
  6
Continuous
 62
     7
370
    15
100
AcDbLine
 10
2.300469489900597
 20
8.98781920583614
 30
0.0
 11
2.300469489900597
 21
9.06920574937966
 31
0.0
  0
LINE
  5
A93
330
1F
100
AcDbEntity
  8
0
  6
Continuous
 62
     7
370
    15
100
AcDbLine
 10
2.300469489900597
 20
8.665982354822047
 30
0.0
 11
2.300469489900597
 21
8.73153812863237
 31
0.0
  0
LINE
  5
A94
330
1F
100
AcDbEntity
  8
0
  6
Continuous
 62
     7
370
    15
100
AcDbLine
 10
3.147515074209367
 20
8.425565063359993
 30
0.0
 11
3.138331722234121
 21
8.434748389938308
 31
0.0
  0
LWPOLYLINE
  5
A95
330
1F
100
AcDbEntity
  8
0
  6
Continuous
 62
     7
370
    15
100
AcDbPolyline
 90
        9
 70
   128
 43
0.0
 10
3.138331722234121
 20
8.434748389938308
 10
3.138625818679223
 20
8.43504248638341
 10
3.139496806380841
 20
8.435913397894238
 10
3.140911186788794
 20
8.437327803699121
 10
3.142814635870609
 20
8.439231252780937
 10
3.145133985072024
 20
8.441550601982351
 10
3.147780116566972
 20
8.444196758874229
 10
3.150651341049219
 20
8.447068034150336
 10
3.153637308859529
 20
8.450054001960645
  0
LINE
  5
A96
330
1F
100
AcDbEntity
  8
0
  6
Continuous
 62
     7
370
    15
100
AcDbLine
 10
3.153637308859529
 20
8.450054001960645
 30
0.0
 11
3.162820660834774
 21
8.440870573794612
 31
0.0
  0
LWPOLYLINE
  5
A97
330
1F
100
AcDbEntity
  8
0
  6
Continuous
 62
     7
370
    15
100
AcDbPolyline
 90
        9
 70
   128
 43
0.0
 10
3.162820660834774
 20
8.440870573794612
 10
3.159834693024463
 20
8.437884605984301
 10
3.156963468542216
 20
8.435013432295914
 10
3.154317337047268
 20
8.432367275404037
 10
3.151997987845854
 20
8.43004792620262
 10
3.150094538764039
 20
8.428144477120806
 10
3.148680158356085
 20
8.426730071315923
 10
3.147809170654468
 20
8.425859159805094
 10
3.147515074209367
 20
8.425565063359993
  0
LINE
  5
A98
330
1F
100
AcDbEntity
  8
0
  6
Continuous
 62
     7
370
    15
100
AcDbLine
 10
2.309629552891371
 20
8.653359014125519
 30
0.0
 11
2.318812930263545
 21
8.662542391497693
 31
0.0
  0
LINE
  5
A99
330
1F
100
AcDbEntity
  8
0
  6
Continuous
 62
     7
370
    15
100
AcDbLine
 10
2.334118491492023
 20
8.647236779475357
 30
0.0
 11
2.324935164913708
 21
8.638053452897042
 31
0.0
  0
LWPOLYLINE
  5
A9A
330
1F
100
AcDbEntity
  8
0
  6
Continuous
 62
     7
370
    15
100
AcDbPolyline
 90
        9
 70
   128
 43
0.0
 10
2.324935164913708
 20
8.638053452897042
 10
2.321949197103398
 20
8.64103942070735
 10
2.31907797262115
 20
8.643910645189598
 10
2.316431815729273
 20
8.646556802081475
 10
2.314112466527857
 20
8.648876151282892
 10
2.312209017446044
 20
8.650779600364706
 10
2.31079466243502
 20
8.65219395537573
 10
2.309923649336471
 20
8.65306491768042
 10
2.309629552891371
 20
8.653359014125519
  0
LWPOLYLINE
  5
A9B
330
1F
100
AcDbEntity
  8
0
  6
Continuous
 62
     7
370
    15
100
AcDbPolyline
 90
        9
 70
   128
 43
0.0
 10
2.318812930263545
 20
8.662542391497693
 10
2.319107026708645
 20
8.662248295052592
 10
2.319977989013334
 20
8.661377332747904
 10
2.321392394818218
 20
8.65996292694302
 10
2.323295843900032
 20
8.658059477861206
 10
2.325615193101447
 20
8.65574012865979
 10
2.328261299199466
 20
8.653093971767914
 10
2.331132523681714
 20
8.650222747285667
 10
2.334118491492023
 20
8.647236779475357
  0
LINE
  5
A9C
330
1F
100
AcDbEntity
  8
0
  6
Continuous
 62
     7
370
    15
100
AcDbLine
 10
2.54660693182293
 20
8.434748389938308
 30
0.0
 11
2.537423579847686
 21
8.425565063359993
 31
0.0
  0
LWPOLYLINE
  5
A9D
330
1F
100
AcDbEntity
  8
0
  6
Continuous
 62
     7
370
    15
100
AcDbPolyline
 90
        9
 70
   128
 43
0.0
 10
2.537423579847686
 20
8.425565063359993
 10
2.537129483402584
 20
8.425859159805094
 10
2.536258495700967
 20
8.426730071315923
 10
2.534844115293013
 20
8.428144477120806
 10
2.532940666211198
 20
8.43004792620262
 10
2.530621317009784
 20
8.432367275404037
 10
2.527975185514836
 20
8.435013432295914
 10
2.525103961032587
 20
8.437884605984301
 10
2.522117993222278
 20
8.440870573794612
  0
LINE
  5
A9E
330
1F
100
AcDbEntity
  8
0
  6
Continuous
 62
     7
370
    15
100
AcDbLine
 10
2.522117993222278
 20
8.440870573794612
 30
0.0
 11
2.531301345197522
 21
8.450054001960645
 31
0.0
  0
LWPOLYLINE
  5
A9F
330
1F
100
AcDbEntity
  8
0
  6
Continuous
 62
     7
370
    15
100
AcDbPolyline
 90
        9
 70
   128
 43
0.0
 10
2.531301345197522
 20
8.450054001960645
 10
2.534287313007832
 20
8.447068034150336
 10
2.53715853749008
 20
8.444196758874229
 10
2.539804668985028
 20
8.441550601982351
 10
2.542124018186444
 20
8.439231252780937
 10
2.544027467268257
 20
8.437327803699121
 10
2.545441847676211
 20
8.435913397894238
 10
2.546312835377829
 20
8.43504248638341
 10
2.54660693182293
 20
8.434748389938308
  0
LINE
  5
AA0
330
1F
100
AcDbEntity
  8
0
  6
Continuous
 62
     7
370
    15
100
AcDbLine
 10
2.309993440099092
 20
10.25623731315688
 30
0.0
 11
2.309993440099092
 21
10.26922459185499
 31
0.0
  0
LINE
  5
AA1
330
1F
100
AcDbEntity
  8
0
  6
Continuous
 62
     7
370
    15
100
AcDbLine
 10
2.331638836870792
 20
10.26922459185499
 30
0.0
 11
2.331638836870792
 21
10.25623731315688
 31
0.0
  0
LINE
  5
AA2
330
1F
100
AcDbEntity
  8
0
  6
Continuous
 62
     7
370
    15
100
AcDbLine
 10
2.331638836870792
 20
10.25623731315688
 30
0.0
 11
2.309993440099092
 21
10.25623731315688
 31
0.0
  0
LINE
  5
AA3
330
1F
100
AcDbEntity
  8
0
  6
Continuous
 62
     7
370
    15
100
AcDbLine
 10
2.309993440099092
 20
10.26922459185499
 30
0.0
 11
2.331638836870792
 21
10.26922459185499
 31
0.0
  0
LINE
  5
AA4
330
1F
100
AcDbEntity
  8
0
  6
Continuous
 62
     7
370
    15
100
AcDbLine
 10
3.374945213957961
 20
8.671361830868287
 30
0.0
 11
3.374945213957961
 21
10.25623731315688
 31
0.0
  0
LINE
  5
AA5
330
1F
100
AcDbEntity
  8
0
  6
Continuous
 62
     7
370
    15
100
AcDbLine
 10
3.374945213957961
 20
10.25623731315688
 30
0.0
 11
2.331638836870792
 21
10.25623731315688
 31
0.0
  0
LINE
  5
AA6
330
1F
100
AcDbEntity
  8
0
  6
Continuous
 62
     7
370
    15
100
AcDbLine
 10
3.377109743476359
 20
10.26922459185499
 30
0.0
 11
2.331638836870792
 21
10.26922459185499
 31
0.0
  0
LINE
  5
AA7
330
1F
100
AcDbEntity
  8
0
  6
Continuous
 62
     7
370
    15
100
AcDbLine
 10
3.153637308859529
 20
8.450054001960645
 30
0.0
 11
3.374945213957961
 21
8.671361830868287
 31
0.0
  0
LINE
  5
AA8
330
1F
100
AcDbEntity
  8
0
  6
Continuous
 62
     7
370
    15
100
AcDbLine
 10
3.162820660834774
 20
8.440870573794612
 30
0.0
 11
3.387932391068349
 21
8.665982354822047
 31
0.0
  0
LINE
  5
AA9
330
1F
100
AcDbEntity
  8
0
  6
Continuous
 62
     7
370
    15
100
AcDbLine
 10
3.387932391068349
 20
8.665982354822047
 30
0.0
 11
3.387932391068349
 21
10.25840184267528
 31
0.0
  0
ARC
  5
AAA
330
1F
100
AcDbEntity
  8
0
  6
Continuous
 62
     7
370
    15
100
AcDbCircle
 10
3.377109732001009
 20
10.25840186374051
 30
0.0
 40
0.010822680262601
100
AcDbArc
 50
0.0
 51
90.0
  0
LINE
  5
AAB
330
1F
100
AcDbEntity
  8
0
  6
Continuous
 62
     7
370
    15
100
AcDbLine
 10
2.324935164913708
 20
8.638053452897042
 30
0.0
 11
2.522117993222278
 21
8.440870573794612
 31
0.0
  0
LINE
  5
AAC
330
1F
100
AcDbEntity
  8
0
  6
Continuous
 62
     7
370
    15
100
AcDbLine
 10
2.334118491492023
 20
8.647236779475357
 30
0.0
 11
2.531301345197522
 21
8.450054001960645
 31
0.0
  0
LINE
  5
AAD
330
1F
100
AcDbEntity
  8
0
  6
Continuous
 62
     7
370
    15
100
AcDbLine
 10
3.394858946479854
 20
8.663113314475748
 30
0.0
 11
3.394858946479854
 21
10.27615104567878
 31
0.0
  0
LINE
  5
AAE
330
1F
100
AcDbEntity
  8
0
  6
Continuous
 62
     7
370
    15
100
AcDbLine
 10
3.138331722234121
 20
8.406586141023874
 30
0.0
 11
3.394858946479854
 21
8.663113314475748
 31
0.0
  0
LINE
  5
AAF
330
1F
100
AcDbEntity
  8
0
  6
Continuous
 62
     7
370
    15
100
AcDbLine
 10
3.138331722234121
 20
8.406586141023874
 30
0.0
 11
3.138331722234121
 21
8.41638163519396
 31
0.0
  0
LINE
  5
AB0
330
1F
100
AcDbEntity
  8
0
  6
Continuous
 62
     7
370
    15
100
AcDbLine
 10
3.138331722234121
 20
8.41638163519396
 30
0.0
 11
3.147515074209367
 21
8.425565063359993
 31
0.0
  0
LINE
  5
AB1
330
1F
100
AcDbEntity
  8
0
  6
Continuous
 62
     7
370
    15
100
AcDbLine
 10
2.279689976047659
 20
10.26922459185499
 30
0.0
 11
2.309993440099092
 21
10.26922459185499
 31
0.0
  0
LINE
  5
AB2
330
1F
100
AcDbEntity
  8
0
  6
Continuous
 62
     7
370
    15
100
AcDbLine
 10
2.279689976047659
 20
10.27571818041019
 30
0.0
 11
2.279689976047659
 21
10.26922459185499
 31
0.0
  0
ARC
  5
AB3
330
1F
100
AcDbEntity
  8
0
  6
Continuous
 62
     7
370
    15
100
AcDbCircle
 10
2.29051263363588
 20
10.27571815216067
 30
0.0
 40
0.0108226802626007
100
AcDbArc
 50
177.7075572240441
 51
179.9999999999971
  0
LINE
  5
AB4
330
1F
100
AcDbEntity
  8
0
  6
Continuous
 62
     7
370
    15
100
AcDbLine
 10
3.394858946479854
 20
10.27615104567878
 30
0.0
 11
2.279698611003731
 21
10.27615104567878
 31
0.0
  0
ARC
  5
AB5
330
1F
100
AcDbEntity
  8
0
  6
Continuous
 62
     7
370
    15
100
AcDbCircle
 10
2.290515587704371
 20
10.27571506929607
 30
0.0
 40
0.0108257591118795
100
AcDbArc
 50
90.01568743577896
 51
177.6919527264784
  0
LINE
  5
AB6
330
1F
100
AcDbEntity
  8
0
  6
Continuous
 62
     7
370
    15
100
AcDbLine
 10
2.29051262363965
 20
10.28654082800217
 30
0.0
 11
3.394426030417403
 21
10.28654082800217
 31
0.0
  0
ARC
  5
AB7
330
1F
100
AcDbEntity
  8
0
  6
Continuous
 62
     7
370
    15
100
AcDbCircle
 10
3.394421596738187
 20
10.27570741313965
 30
0.0
 40
0.0108334157697855
100
AcDbArc
 50
45.02387598606204
 51
89.9765511525367
  0
LWPOLYLINE
  5
AB8
330
1F
100
AcDbEntity
  8
0
  6
Continuous
 62
     7
370
    15
100
AcDbPolyline
 90
        5
 70
   128
 43
0.0
 10
3.394858946479854
 20
10.27615104567878
 10
3.396842243508421
 20
10.27813434270734
 10
3.398752651348954
 20
10.28004480134174
 10
3.400519820506382
 20
10.2818119197053
 10
3.402078785634711
 20
10.28337098642135
  0
SPLINE
  5
AB9
330
1F
100
AcDbEntity
  8
0
  6
Continuous
 62
     7
370
    15
100
AcDbSpline
210
0.0
220
0.0
230
1.0
 70
    12
 71
     3
 72
    10
 73
     6
 74
     0
 42
0.0000000001
 43
0.0000000001
 40
0.0
 40
0.0
 40
0.0
 40
0.0
 40
0.5
 40
0.5
 40
1.0
 40
1.0
 40
1.0
 40
1.0
 10
3.404424873202701
 20
8.659150961443816
 30
0.0
 41
1.0
 10
3.404705002095824
 20
8.6598272524168
 30
0.0
 41
1.0
 10
3.404908749997559
 20
8.660510907702719
 30
0.0
 41
1.0
 10
3.405180694318524
 20
8.66189171414533
 30
0.0
 41
1.0
 10
3.405248700683772
 20
8.662595624302694
 30
0.0
 41
1.0
 10
3.405248700683772
 20
8.663292621874097
 30
0.0
 41
1.0
  0
LWPOLYLINE
  5
ABA
330
1F
100
AcDbEntity
  8
0
  6
Continuous
 62
     7
370
    15
100
AcDbPolyline
 90
        7
 70
   128
 43
0.0
 10
3.394858946479854
 20
8.663113314475748
 10
3.396871907122228
 20
8.662279482482177
 10
3.398808626181856
 20
8.661477295062923
 10
3.400595655738253
 20
8.660737076151964
 10
3.402165287577027
 20
8.66008691475347
 10
3.403458042088989
 20
8.659551445889175
 10
3.404424852406096
 20
8.659150936308931
  0
ARC
  5
ABB
330
1F
100
AcDbEntity
  8
0
  6
Continuous
 62
     7
370
    15
100
AcDbCircle
 10
3.394432451430599
 20
10.27572086630093
 30
0.0
 40
0.0108162269122736
100
AcDbArc
 50
359.9857722839049
 51
45.01418086943173
  0
LINE
  5
ABC
330
1F
100
AcDbEntity
  8
0
  6
Continuous
 62
     7
370
    15
100
AcDbLine
 10
3.405248678009392
 20
10.27571818041019
 30
0.0
 11
3.405248678009392
 21
8.663292616798925
 31
0.0
  0
ARC
  5
ABD
330
1F
100
AcDbEntity
  8
0
  6
Continuous
 62
     7
370
    15
100
AcDbCircle
 10
2.290513246688427
 20
8.663292848650803
 30
0.0
 40
0.0108232706432516
100
AcDbArc
 50
180.0012273678196
 51
224.9987257854902
  0
LINE
  5
ABE
330
1F
100
AcDbEntity
  8
0
  6
Continuous
 62
     7
370
    15
100
AcDbLine
 10
2.279689976047659
 20
8.665982354822047
 30
0.0
 11
2.287210667230898
 21
8.665982354822047
 31
0.0
  0
LINE
  5
ABF
330
1F
100
AcDbEntity
  8
0
  6
Continuous
 62
     7
370
    15
100
AcDbLine
 10
2.287210667230898
 20
8.665982354822047
 30
0.0
 11
2.54660693182293
 21
8.406586141023874
 31
0.0
  0
LINE
  5
AC0
330
1F
100
AcDbEntity
  8
0
  6
Continuous
 62
     7
370
    15
100
AcDbLine
 10
2.54660693182293
 20
8.406586141023874
 30
0.0
 11
2.54660693182293
 21
8.399065399046775
 31
0.0
  0
LINE
  5
AC1
330
1F
100
AcDbEntity
  8
0
  6
Continuous
 62
     7
370
    15
100
AcDbLine
 10
2.54660693182293
 20
8.399065399046775
 30
0.0
 11
2.543917168402879
 21
8.399065399046775
 31
0.0
  0
ARC
  5
AC2
330
1F
100
AcDbEntity
  8
0
  6
Continuous
 62
     7
370
    15
100
AcDbCircle
 10
2.543922609524291
 20
8.409901307473511
 30
0.0
 40
0.0108359097928323
100
AcDbArc
 50
225.0293319762488
 51
269.971229614153
  0
LINE
  5
AC3
330
1F
100
AcDbEntity
  8
0
  6
Continuous
 62
     7
370
    15
100
AcDbLine
 10
2.536264387788642
 20
8.402235240627597
 30
0.0
 11
2.28285986842234
 21
8.65563981078776
 31
0.0
  0
LINE
  5
AC4
330
1F
100
AcDbEntity
  8
0
  6
Continuous
 62
     7
370
    15
100
AcDbLine
 10
2.279689976047659
 20
8.663292616798925
 30
0.0
 11
2.279689976047659
 21
8.665982354822047
 31
0.0
  0
ARC
  5
AC5
330
1F
100
AcDbEntity
  8
0
  6
Continuous
 62
     7
370
    15
100
AcDbCircle
 10
3.14101604453276
 20
8.409901307473511
 30
0.0
 40
0.0108359097928335
100
AcDbArc
 50
270.0287703858506
 51
314.9706680237548
  0
LINE
  5
AC6
330
1F
100
AcDbEntity
  8
0
  6
Continuous
 62
     7
370
    15
100
AcDbLine
 10
3.141021485654171
 20
8.399065399046775
 30
0.0
 11
3.138331722234121
 21
8.399065399046775
 31
0.0
  0
LINE
  5
AC7
330
1F
100
AcDbEntity
  8
0
  6
Continuous
 62
     7
370
    15
100
AcDbLine
 10
3.138331722234121
 20
8.399065399046775
 30
0.0
 11
3.138331722234121
 21
8.406586141023874
 31
0.0
  0
SPLINE
  5
AC8
330
1F
100
AcDbEntity
  8
0
  6
Continuous
 62
     7
370
    15
100
AcDbSpline
210
0.0
220
0.0
230
1.0
 70
    12
 71
     3
 72
    10
 73
     6
 74
     0
 42
0.0000000001
 43
0.0000000001
 40
0.0
 40
0.0
 40
0.0
 40
0.0
 40
0.5
 40
0.5
 40
1.0
 40
1.0
 40
1.0
 40
1.0
 10
3.404424873202701
 20
8.659150961443816
 30
0.0
 41
1.0
 10
3.40414474430958
 20
8.658474670470827
 30
0.0
 41
1.0
 10
3.403805398543885
 20
8.657847181659193
 30
0.0
 41
1.0
 10
3.403021314618266
 20
8.656678510386657
 30
0.0
 41
1.0
 10
3.402571662734463
 20
8.656132682978793
 30
0.0
 41
1.0
 10
3.402078811025469
 20
8.655639831269799
 30
0.0
 41
1.0
  0
LINE
  5
AC9
330
1F
100
AcDbEntity
  8
0
  6
Continuous
 62
     7
370
    15
100
AcDbLine
 10
3.402078785634711
 20
8.65563981078776
 30
0.0
 11
3.148674266268412
 21
8.402235240627597
 31
0.0
  0
LINE
  5
ACA
330
1F
100
AcDbEntity
  8
0
  6
Continuous
 62
     7
370
    15
100
AcDbLine
 10
2.54660693182293
 20
8.41638163519396
 30
0.0
 11
2.54660693182293
 21
8.406586141023874
 31
0.0
  0
LINE
  5
ACB
330
1F
100
AcDbEntity
  8
0
  6
Continuous
 62
     7
370
    15
100
AcDbLine
 10
2.315372916145333
 20
8.665982354822047
 30
0.0
 11
2.287210667230898
 21
8.665982354822047
 31
0.0
  0
LINE
  5
ACC
330
1F
100
AcDbEntity
  8
0
  6
Continuous
 62
     7
370
    15
100
AcDbLine
 10
2.537423579847686
 20
8.425565063359993
 30
0.0
 11
2.54660693182293
 21
8.41638163519396
 31
0.0
  0
LINE
  5
ACD
330
1F
100
AcDbEntity
  8
0
  6
Continuous
 62
     7
370
    15
100
AcDbLine
 10
2.315372916145333
 20
8.665982354822047
 30
0.0
 11
2.318812930263545
 21
8.662542391497693
 31
0.0
  0
LINE
  5
ACE
330
1F
100
AcDbEntity
  8
0
  6
Continuous
 62
     7
370
    15
100
AcDbLine
 10
3.011303137402172
 20
8.412052576157164
 30
0.0
 11
3.011303137402172
 21
8.399065399046775
 31
0.0
  0
LINE
  5
ACF
330
1F
100
AcDbEntity
  8
0
  6
Continuous
 62
     7
370
    15
100
AcDbLine
 10
3.011303137402172
 20
8.412052576157164
 30
0.0
 11
3.138331722234121
 21
8.412052576157164
 31
0.0
  0
LINE
  5
AD0
330
1F
100
AcDbEntity
  8
0
  6
Continuous
 62
     7
370
    15
100
AcDbLine
 10
3.011303137402172
 20
8.399065399046775
 30
0.0
 11
3.138331722234121
 21
8.399065399046775
 31
0.0
  0
LINE
  5
AD1
330
1F
100
AcDbEntity
  8
0
  6
Continuous
 62
     7
370
    15
100
AcDbLine
 10
2.67363551665488
 20
8.399065399046775
 30
0.0
 11
2.67363551665488
 21
8.412052576157164
 31
0.0
  0
LINE
  5
AD2
330
1F
100
AcDbEntity
  8
0
  6
Continuous
 62
     7
370
    15
100
AcDbLine
 10
2.54660693182293
 20
8.412052576157164
 30
0.0
 11
2.67363551665488
 21
8.412052576157164
 31
0.0
  0
LINE
  5
AD3
330
1F
100
AcDbEntity
  8
0
  6
Continuous
 62
     7
370
    15
100
AcDbLine
 10
2.54660693182293
 20
8.399065399046775
 30
0.0
 11
2.67363551665488
 21
8.399065399046775
 31
0.0
  0
LINE
  5
AD4
330
1F
100
AcDbEntity
  8
0
  6
Continuous
 62
     7
370
    15
100
AcDbLine
 10
2.292677153158047
 20
10.25190825412009
 30
0.0
 11
2.292677153158047
 21
10.26922459185499
 31
0.0
  0
LINE
  5
AD5
330
1F
100
AcDbEntity
  8
0
  6
Continuous
 62
     7
370
    15
100
AcDbLine
 10
2.279689976047659
 20
10.26922459185499
 30
0.0
 11
2.279689976047659
 21
10.25104242199518
 31
0.0
  0
LINE
  5
AD6
330
1F
100
AcDbEntity
  8
0
  6
Continuous
 62
     7
370
    15
100
AcDbLine
 10
3.432326681204116
 20
9.256221672470023
 30
0.0
 11
3.405248678009392
 21
9.256221672470023
 31
0.0
  0
LINE
  5
AD7
330
1F
100
AcDbEntity
  8
0
  6
Continuous
 62
     7
370
    15
100
AcDbLine
 10
3.491830163508474
 20
9.42938455457893
 30
0.0
 11
3.405248678009392
 21
9.42938455457893
 31
0.0
  0
ARC
  5
AD8
330
1F
100
AcDbEntity
  8
0
  6
Continuous
 62
     7
370
    15
100
AcDbCircle
 10
3.491830142784579
 20
9.342803113524475
 30
0.0
 40
0.0865814421008069
100
AcDbArc
 50
0.0
 51
90.0
  0
ARC
  5
AD9
330
1F
100
AcDbEntity
  8
0
  6
Continuous
 62
     7
370
    15
100
AcDbCircle
 10
3.491830142784579
 20
9.342803113524475
 30
0.0
 40
0.0865814421008064
100
AcDbArc
 50
333.3245417934015
 51
0.000000000000458
  0
LINE
  5
ADA
330
1F
100
AcDbEntity
  8
0
  6
Continuous
 62
     7
370
    15
100
AcDbLine
 10
2.734074088511236
 20
8.412052576157164
 30
0.0
 11
2.734074088511236
 21
8.399065399046775
 31
0.0
  0
LINE
  5
ADB
330
1F
100
AcDbEntity
  8
0
  6
Continuous
 62
     7
370
    15
100
AcDbLine
 10
2.67363551665488
 20
8.399065399046775
 30
0.0
 11
2.734074088511236
 21
8.399065399046775
 31
0.0
  0
LINE
  5
ADC
330
1F
100
AcDbEntity
  8
0
  6
Continuous
 62
     7
370
    15
100
AcDbLine
 10
2.950864565545814
 20
8.412052576157164
 30
0.0
 11
2.950864565545814
 21
8.399065399046775
 31
0.0
  0
LINE
  5
ADD
330
1F
100
AcDbEntity
  8
0
  6
Continuous
 62
     7
370
    15
100
AcDbLine
 10
2.950864565545814
 20
8.399065399046775
 30
0.0
 11
3.011303137402172
 21
8.399065399046775
 31
0.0
  0
LINE
  5
ADE
330
1F
100
AcDbEntity
  8
0
  6
Continuous
 62
     7
370
    15
100
AcDbLine
 10
2.842469327028526
 20
8.412052576157164
 30
0.0
 11
2.842469327028526
 21
8.399065399046775
 31
0.0
  0
LINE
  5
ADF
330
1F
100
AcDbEntity
  8
0
  6
Continuous
 62
     7
370
    15
100
AcDbLine
 10
2.842469327028526
 20
8.399065399046775
 30
0.0
 11
2.950864565545814
 21
8.399065399046775
 31
0.0
  0
LINE
  5
AE0
330
1F
100
AcDbEntity
  8
0
  6
Continuous
 62
     7
370
    15
100
AcDbLine
 10
2.734074088511236
 20
8.399065399046775
 30
0.0
 11
2.842469327028526
 21
8.399065399046775
 31
0.0
  0
CIRCLE
  5
AE1
330
1F
100
AcDbEntity
  8
0
  6
Continuous
 62
     7
370
    15
100
AcDbCircle
 10
3.3013509701628
 20
10.21727567874263
 30
0.0
 40
0.0307005362683967
  0
CIRCLE
  5
AE2
330
1F
100
AcDbEntity
  8
0
  6
Continuous
 62
     7
370
    15
100
AcDbCircle
 10
3.217886459977622
 20
10.21727567874263
 30
0.0
 40
0.0307005362683963
  0
CIRCLE
  5
AE3
330
1F
100
AcDbEntity
  8
0
  6
Continuous
 62
     7
370
    15
100
AcDbCircle
 10
3.134421949792444
 20
10.21727567874263
 30
0.0
 40
0.0307005362683963
  0
CIRCLE
  5
AEA
330
1F
100
AcDbEntity
  8
0
  6
Continuous
 62
     7
370
    15
100
AcDbCircle
 10
2.550170378496198
 20
10.21727567874263
 30
0.0
 40
0.0307005362683981
  0
CIRCLE
  5
AEB
330
1F
100
AcDbEntity
  8
0
  6
Continuous
 62
     7
370
    15
100
AcDbCircle
 10
2.466705868311019
 20
10.21727567874263
 30
0.0
 40
0.030700536268399
  0
CIRCLE
  5
AEC
330
1F
100
AcDbEntity
  8
0
  6
Continuous
 62
     7
370
    15
100
AcDbCircle
 10
2.383241358125841
 20
10.21727567874263
 30
0.0
 40
0.0307005362683976
  0
CIRCLE
  5
AED
330
1F
100
AcDbEntity
  8
0
  6
Continuous
 62
     7
370
    15
100
AcDbCircle
 10
3.301350970162799
 20
10.13381116855745
 30
0.0
 40
0.0307005362683981
  0
CIRCLE
  5
AF8
330
1F
100
AcDbEntity
  8
0
  6
Continuous
 62
     7
370
    15
100
AcDbCircle
 10
2.383241358125841
 20
10.13381116855745
 30
0.0
 40
0.0307005362683963
  0
LWPOLYLINE
  5
B05
330
1F
100
AcDbEntity
  8
0
  6
Continuous
 62
     7
370
    15
100
AcDbPolyline
 90
       29
 70
   128
 43
0.0
 10
3.47627947111522
 20
9.375111481042357
 10
3.47782197903315
 20
9.370352372621541
 10
3.479488271586091
 20
9.363218727471228
 10
3.481258386787355
 20
9.35379579356033
 10
3.483111143597631
 20
9.3421961820157
 10
3.485024446688142
 20
9.328558515380472
 10
3.48697543882222
 20
9.313045772349314
 10
3.488940754824612
 20
9.295843336669178
 10
3.490896927932336
 20
9.277156793310795
 10
3.492820643763994
 20
9.257209447952535
 10
3.494688791113625
 20
9.236239692048983
 10
3.496479173064732
 20
9.214498129803244
 10
3.498170303814851
 20
9.192244565456189
 10
3.499742018201855
 20
9.169744968353356
 10
3.501175471703961
 20
9.14726820309026
 10
3.502453648378316
 20
9.125082905690048
 10
3.503561157685565
 20
9.103454169304184
 10
3.504484844016162
 20
9.082640496580895
 10
3.50521358351493
 20
9.062890599652038
 10
3.505738741225793
 20
9.044440517581577
 10
3.506054018710204
 20
9.027510746512553
 10
3.506155657222577
 20
9.012303598386387
 10
3.506042437710293
 20
8.999000788234572
 10
3.505715731607549
 20
8.987761326233514
 10
3.505179399247649
 20
8.97871953674402
 10
3.504439840656861
 20
8.971983432907802
 10
3.503505944760553
 20
8.967633522991779
 10
3.502388886207763
 20
8.965721845304767
 10
3.502088338942536
 20
8.96562853698531
  0
LWPOLYLINE
  5
B06
330
1F
100
AcDbEntity
  8
0
  6
Continuous
 62
     7
370
    15
100
AcDbPolyline
 90
        8
 70
   128
 43
0.0
 10
3.470638254312225
 20
8.994238990913832
 10
3.471611718624895
 20
8.992182499934074
 10
3.472812942602475
 20
8.991454344564689
 10
3.473848324629578
 20
8.993143494354296
 10
3.474703794807193
 20
8.997227015875442
 10
3.475367772135407
 20
9.003649594615394
 10
3.475831215307271
 20
9.012324169899387
 10
3.475840104232642
 20
9.012566964546636
  0
ARC
  5
B07
330
1F
100
AcDbEntity
  8
0
  6
Continuous
 62
     7
370
    15
100
AcDbCircle
 10
3.299023386510207
 20
9.301534790182863
 30
0.0
 40
0.1577578727669872
100
AcDbArc
 50
8.130260357908115
 51
15.76625519111641
  0
LWPOLYLINE
  5
B08
330
1F
100
AcDbEntity
  8
0
  6
Continuous
 62
     7
370
    15
100
AcDbPolyline
 90
       29
 70
   128
 43
0.0
 10
3.533142333058357
 20
8.967725891624841
 10
3.533439832692029
 20
8.967818996768859
 10
3.53455689124482
 20
8.969730699852802
 10
3.535490787141126
 20
8.974080584371894
 10
3.536230345731915
 20
8.980816688208114
 10
3.536766678091815
 20
8.989858503094537
 10
3.537093384194559
 20
9.001097965095594
 10
3.537206603706844
 20
9.014400749850479
 10
3.537104965194471
 20
9.029607897976645
 10
3.536789687710058
 20
9.046537669045671
 10
3.536264529999195
 20
9.06498775111613
 10
3.535535790500429
 20
9.084737648044989
 10
3.534612104169832
 20
9.105551320768278
 10
3.533504594862581
 20
9.12718005715414
 10
3.532226418188226
 20
9.149365367252818
 10
3.53079296468612
 20
9.171842132515915
 10
3.529221250299116
 20
9.194341729618747
 10
3.527530119548998
 20
9.216595281267336
 10
3.52573978839175
 20
9.238336849862307
 10
3.52387159024826
 20
9.259306605765863
 10
3.521947874416602
 20
9.279253944774887
 10
3.519991701308877
 20
9.297940494482505
 10
3.518026385306488
 20
9.31514293016264
 10
3.516075393172407
 20
9.330655672400141
 10
3.514162090081896
 20
9.344293339382597
 10
3.512309333271621
 20
9.355892950580001
 10
3.510539218070357
 20
9.365315883697246
 10
3.508872976311275
 20
9.372449530434867
 10
3.507330417599485
 20
9.377208635681066
  0
LWPOLYLINE
  5
B09
330
1F
100
AcDbEntity
  8
0
  6
Continuous
 62
     7
370
    15
100
AcDbPolyline
 90
        4
 70
   128
 43
0.0
 10
3.473806775252705
 20
8.993542581706482
 10
3.472783685339541
 20
8.991886320940743
 10
3.471585813756673
 20
8.992611327090856
 10
3.471556556493741
 20
8.992656127274723
  0
LWPOLYLINE
  5
B0A
330
1F
100
AcDbEntity
  8
0
  6
Continuous
 62
     7
370
    15
100
AcDbPolyline
 90
       26
 70
   128
 43
0.0
 10
3.467048042752188
 20
8.996672143756912
 10
3.467766471097526
 20
8.99723054604866
 10
3.46869919873507
 20
9.000078202180212
 10
3.469445563702999
 20
9.00529988710267
 10
3.469995000878588
 20
9.012822432261771
 10
3.470339840389087
 20
9.022540389605702
 10
3.470475307611727
 20
9.03431753000393
 10
3.470399472379855
 20
9.047988798810797
 10
3.470113401364517
 20
9.06336250000147
 10
3.469621056486734
 20
9.080223191421902
 10
3.468929396505225
 20
9.098334503848045
 10
3.468048072253248
 20
9.117442569571327
 10
3.466989477432463
 20
9.137279527174952
 10
3.465768443849773
 20
9.157567331073349
 10
3.464402038241888
 20
9.17802158644853
 10
3.462909511481467
 20
9.19835558736192
 10
3.461311689050804
 20
9.218284304072295
 10
3.459631021835692
 20
9.237528389401437
 10
3.457891027392968
 20
9.25581808351206
 10
3.456116137568935
 20
9.27289700439956
 10
3.454331241354627
 20
9.288525766954495
 10
3.452561278534939
 20
9.302485284563415
 10
3.450831188894771
 20
9.314579886582003
 10
3.449165099517268
 20
9.32464003421921
 10
3.447586426371544
 20
9.33252471261058
 10
3.446117264786381
 20
9.338123396699332
  0
LWPOLYLINE
  5
B0B
330
1F
100
AcDbEntity
  8
0
  6
Continuous
 62
     7
370
    15
100
AcDbPolyline
 90
       26
 70
   128
 43
0.0
 10
3.442697974562745
 20
9.337793007644963
 10
3.444168304406673
 20
9.332149707896914
 10
3.445747536284846
 20
9.32422664998295
 10
3.447413524074631
 20
9.314134684754842
 10
3.449143054982349
 20
9.30201501914133
 10
3.450911798749412
 20
9.28803721891769
 10
3.452695120354083
 20
9.272396856315149
 10
3.454467978423748
 20
9.255312754454003
 10
3.456205636348946
 20
9.237023949235919
 10
3.457883763871094
 20
9.217786333774601
 10
3.459478843433356
 20
9.197869045682559
 10
3.460968627325378
 20
9.177550778167072
 10
3.462332188477146
 20
9.157115811759944
 10
3.463550529985295
 20
9.136850039698002
 10
3.464606534319259
 20
9.117037031399015
 10
3.465485522053708
 20
9.097953981651418
 10
3.466175099486988
 20
9.079867888376397
 10
3.466665615785838
 20
9.063031806580774
 10
3.466950315366977
 20
9.047681292786853
 10
3.467025083927803
 20
9.034031128828506
 10
3.466888956384993
 20
9.02227229961654
 10
3.466543862905198
 20
9.012569326461094
 10
3.465994527317328
 20
9.005057955951028
 10
3.465248721081851
 20
8.999843305978077
 10
3.464316856939913
 20
8.996998291127206
 10
3.463621793769834
 20
8.996440320583263
  0
LWPOLYLINE
  5
B0C
330
1F
100
AcDbEntity
  8
0
  6
Continuous
 62
     7
370
    15
100
AcDbPolyline
 90
        8
 70
   128
 43
0.0
 10
3.441940638121216
 20
9.020368266405344
 10
3.442130810330277
 20
9.01957773617679
 10
3.443500009600422
 20
9.014943482236646
 10
3.444729373376029
 20
9.012741543040905
 10
3.445799396815149
 20
9.013006890161666
 10
3.446693114768784
 20
9.01573535850247
 10
3.447396254162485
 20
9.020883544710582
 10
3.447400673228239
 20
9.020929690931718
  0
LWPOLYLINE
  5
B0D
330
1F
100
AcDbEntity
  8
0
  6
Continuous
 62
     7
370
    15
100
AcDbPolyline
 90
       26
 70
   128
 43
0.0
 10
3.542720226335383
 20
9.344647886571826
 10
3.544189337126689
 20
9.339049202086246
 10
3.54576806106627
 20
9.331164524488528
 10
3.547434099649915
 20
9.321104376851324
 10
3.549164240083942
 20
9.309009774832736
 10
3.55093420290363
 20
9.295050257223814
 10
3.552719099117937
 20
9.27942149466888
 10
3.554493988941971
 20
9.262342567432146
 10
3.556233983384695
 20
9.244052879670758
 10
3.557914650599807
 20
9.224808800690848
 10
3.559512473030469
 20
9.204880083980475
 10
3.561004999790891
 20
9.184546083067085
 10
3.562371405398776
 20
9.164091814993437
 10
3.563592438981467
 20
9.14380401109504
 10
3.564651033802251
 20
9.12396704079295
 10
3.565532358054228
 20
9.104859000466599
 10
3.566224018035737
 20
9.086747688040456
 10
3.56671631211966
 20
9.069886996620022
 10
3.567002433928858
 20
9.054513270032421
 10
3.56707826916073
 20
9.040842026622482
 10
3.566942801938089
 20
9.029064886224255
 10
3.56659796242759
 20
9.019346928880324
 10
3.566048474458144
 20
9.011824383721223
 10
3.565302160284073
 20
9.006602673401835
 10
3.564369432646529
 20
9.003755042667214
 10
3.563678636160626
 20
9.003198138794312
  0
LWPOLYLINE
  5
B0E
330
1F
100
AcDbEntity
  8
0
  6
Continuous
 62
     7
370
    15
100
AcDbPolyline
 90
       26
 70
   128
 43
0.0
 10
3.567122205848988
 20
9.003430673081994
 10
3.567820011887465
 20
9.003988821404445
 10
3.568751876029403
 20
9.006833810858385
 10
3.569497682264882
 20
9.012048486228267
 10
3.570047017852752
 20
9.019559856738333
 10
3.570392162126407
 20
9.02926282989378
 10
3.570528238875357
 20
9.041021659105745
 10
3.570453470314529
 20
9.054671823064092
 10
3.57016882152725
 20
9.070022336858012
 10
3.569678254434542
 20
9.086858418653637
 10
3.568988677001262
 20
9.104944486531728
 10
3.568109740060671
 20
9.124027536279327
 10
3.567053684932848
 20
9.143840569975241
 10
3.565835343424699
 20
9.16410632933872
 10
3.564471782272932
 20
9.184541308444313
 10
3.56298199838091
 20
9.204859575959798
 10
3.561386918818647
 20
9.224776851353374
 10
3.559708791296499
 20
9.244014473163926
 10
3.557971133371301
 20
9.262303278382012
 10
3.556198275301637
 20
9.279387380243158
 10
3.554414953696966
 20
9.295027742845699
 10
3.552646209929903
 20
9.309005543069338
 10
3.550916729816045
 20
9.321125210270159
 10
3.549250691232399
 20
9.331217173910957
 10
3.547671459354225
 20
9.339140232618576
 10
3.546201129510299
 20
9.3447835319698
  0
LWPOLYLINE
  5
B0F
330
1F
100
AcDbEntity
  8
0
  6
Continuous
 62
     7
370
    15
100
AcDbPolyline
 90
        3
 70
   128
 43
0.0
 10
3.433204297504367
 20
9.19216422226931
 10
3.433289123249327
 20
9.192274711611658
 10
3.433933646529446
 20
9.192182723932543
  0
LWPOLYLINE
  5
B10
330
1F
100
AcDbEntity
  8
0
  6
Continuous
 62
     7
370
    15
100
AcDbPolyline
 90
       12
 70
   128
 43
0.0
 10
3.433438558783263
 20
9.201725899606767
 10
3.433200081614048
 20
9.198636947246813
 10
3.432643025359573
 20
9.195418432450358
 10
3.431900469931088
 20
9.194669184930916
 10
3.430994917008245
 20
9.19641194763897
 10
3.429953896862764
 20
9.200593767976244
 10
3.428809104862818
 20
9.207087610500734
 10
3.427595233214283
 20
9.215696128370762
 10
3.426349209052838
 20
9.226157771306545
 10
3.425108873803629
 20
9.238154671336849
 10
3.423911967304086
 20
9.251322306330714
 10
3.423502975149345
 20
9.256221672470023
  0
LWPOLYLINE
  5
B11
330
1F
100
AcDbEntity
  8
0
  6
Continuous
 62
     7
370
    15
100
AcDbPolyline
 90
       10
 70
   128
 43
0.0
 10
3.441874555310322
 20
9.115598600098703
 10
3.440751706257577
 20
9.129631597374274
 10
3.439549872753685
 20
9.142921023344174
 10
3.438303543829086
 20
9.155084539931309
 10
3.437048681536128
 20
9.165772228239252
 10
3.435821247927173
 20
9.174676633037919
 10
3.434656697115975
 20
9.181541575498144
 10
3.433588400668073
 20
9.1861695817936
 10
3.432647190456032
 20
9.188427495822244
 10
3.432068038872778
 20
9.188550658232478
  0
LWPOLYLINE
  5
B12
330
1F
100
AcDbEntity
  8
0
  6
Continuous
 62
     7
370
    15
100
AcDbPolyline
 90
       12
 70
   128
 43
0.0
 10
3.443468111056808
 20
9.019029924404698
 10
3.44377648057636
 20
9.0189232065064
 10
3.444477740597268
 20
9.020320342399135
 10
3.444992739536281
 20
9.024118554812832
 10
3.445306747174209
 20
9.030208611553157
 10
3.445410671410251
 20
9.038415299202596
 10
3.445301515406705
 20
9.048502527903327
 10
3.44498247917671
 20
9.06018008694048
 10
3.444462654821069
 20
9.073112051125857
 10
3.443757077322124
 20
9.086926380837324
 10
3.442886013429716
 20
9.101225690316982
 10
3.441874555310322
 20
9.115598600098703
  0
LWPOLYLINE
  5
B13
330
1F
100
AcDbEntity
  8
0
  6
Continuous
 62
     7
370
    15
100
AcDbPolyline
 90
       20
 70
   128
 43
0.0
 10
3.420309616011687
 20
9.175052215531734
 10
3.420353959050818
 20
9.175097688734233
 10
3.421133847965857
 20
9.174496187852906
 10
3.422059058112233
 20
9.17145768649366
 10
3.423098097297203
 20
9.1660856517478
 10
3.424215663788587
 20
9.158563017699443
 10
3.42537361139808
 20
9.149145963177755
 10
3.426532574884757
 20
9.138155175213157
 10
3.427653036626117
 20
9.125964941056056
 10
3.428696850433859
 20
9.11299036082276
 10
3.429628460606501
 20
9.099673277596494
 10
3.430416171775865
 20
9.086467204349637
 10
3.431033164784267
 20
9.07382184451512
 10
3.431458410973969
 20
9.062167828431734
 10
3.431677434095088
 20
9.051902008521852
 10
3.431682767450309
 20
9.043373973521819
 10
3.431474207864198
 20
9.036874137321936
 10
3.43105891727091
 20
9.032623859560848
 10
3.430451016363316
 20
9.030767877340509
 10
3.430053402033048
 20
9.03078349645223
  0
ARC
  5
B14
330
1F
100
AcDbEntity
  8
0
  6
Continuous
 62
     7
370
    15
100
AcDbCircle
 10
3.326543774184785
 20
9.050219698935594
 30
0.0
 40
0.2599595982681193
100
AcDbArc
 50
355.9772555498114
 51
2.465892403941222
  0
ARC
  5
B15
330
1F
100
AcDbEntity
  8
0
  6
Continuous
 62
     7
370
    15
100
AcDbCircle
 10
3.303891218343981
 20
9.11852997258749
 30
0.0
 40
0.2911012830200291
100
AcDbArc
 50
1.119630351276435
 51
13.46429240672242
  0
ARC
  5
B16
330
1F
100
AcDbEntity
  8
0
  6
Continuous
 62
     7
370
    15
100
AcDbCircle
 10
3.150277058120397
 20
9.073378165167853
 30
0.0
 40
0.4475568047674174
100
AcDbArc
 50
355.9849704065478
 51
6.522555944818833
  0
LWPOLYLINE
  5
B17
330
1F
100
AcDbEntity
  8
0
  6
Continuous
 62
     7
370
    15
100
AcDbPolyline
 90
        8
 70
   128
 43
0.0
 10
3.421793964960769
 20
9.147922720062185
 10
3.420952666269886
 20
9.154371546528912
 10
3.419907379440227
 20
9.160971624410038
 10
3.41895286123706
 20
9.165333178818296
 10
3.418125835620629
 20
9.167288577319667
 10
3.417458048752973
 20
9.166762695796308
 10
3.416975202326871
 20
9.163775737505743
 10
3.416900179796746
 20
9.162858286121368
  0
LWPOLYLINE
  5
B18
330
1F
100
AcDbEntity
  8
0
  6
Continuous
 62
     7
370
    15
100
AcDbPolyline
 90
        5
 70
   128
 43
0.0
 10
3.425363655801664
 20
9.04095979218517
 10
3.425586945606961
 20
9.040109249011902
 10
3.426413971223391
 20
9.038153837812068
 10
3.427081758091049
 20
9.03867970663696
 10
3.42717882515609
 20
9.039021320737398
  0
ARC
  5
B21
330
1F
100
AcDbEntity
  8
0
  6
Continuous
 62
     7
370
    15
100
AcDbCircle
 10
2.466705868311019
 20
10.13381116855745
 30
0.0
 40
0.0307005362683967
100
AcDbArc
 50
44.7211980647983
 51
208.9717287953343
  0
ARC
  5
B22
330
1F
100
AcDbEntity
  8
0
  6
Continuous
 62
     7
370
    15
100
AcDbCircle
 10
2.633634888681375
 20
10.21727567874263
 30
0.0
 40
0.0307005362683981
100
AcDbArc
 50
300.3310303622699
 51
240.0279108791975
  0
ARC
  5
B23
330
1F
100
AcDbEntity
  8
0
  6
Continuous
 62
     7
370
    15
100
AcDbCircle
 10
2.383241358125841
 20
10.05034665837227
 30
0.0
 40
0.0307005362683963
100
AcDbArc
 50
51.79226413769204
 51
253.316029491035
  0
ARC
  5
B24
330
1F
100
AcDbEntity
  8
0
  6
Continuous
 62
     7
370
    15
100
AcDbCircle
 10
3.301350970162797
 20
10.05034665837227
 30
0.0
 40
0.0307005362683981
100
AcDbArc
 50
146.4981021047405
 51
147.1174144242695
  0
ARC
  5
B25
330
1F
100
AcDbEntity
  8
0
  6
Continuous
 62
     7
370
    15
100
AcDbCircle
 10
3.217886459977621
 20
10.13381116855745
 30
0.0
 40
0.0307005362683976
100
AcDbArc
 50
316.2719551295112
 51
146.5930188541365
  0
ARC
  5
B31
330
1F
100
AcDbEntity
  8
0
  6
Continuous
 62
     7
370
    15
100
AcDbCircle
 10
2.633634888681375
 20
10.21727567874263
 30
0.0
 40
0.0307005362683981
100
AcDbArc
 50
300.3772929182308
 51
300.3772929182308
  0
ARC
  5
B34
330
1F
100
AcDbEntity
  8
0
  6
Continuous
 62
     7
370
    15
100
AcDbCircle
 10
2.717099398866553
 20
10.21727567874263
 30
0.0
 40
0.0307005362683981
100
AcDbArc
 50
300.3310303622691
 51
239.668969637734
  0
ARC
  5
B35
330
1F
100
AcDbEntity
  8
0
  6
Continuous
 62
     7
370
    15
100
AcDbCircle
 10
2.800563909051732
 20
10.21727567874263
 30
0.0
 40
0.0307005362683976
100
AcDbArc
 50
300.3310303622684
 51
239.6689696377347
  0
ARC
  5
B36
330
1F
100
AcDbEntity
  8
0
  6
Continuous
 62
     7
370
    15
100
AcDbCircle
 10
2.884028419236909
 20
10.21727567874263
 30
0.0
 40
0.0307005362683976
100
AcDbArc
 50
300.3310303622684
 51
239.6689696377347
  0
ARC
  5
B37
330
1F
100
AcDbEntity
  8
0
  6
Continuous
 62
     7
370
    15
100
AcDbCircle
 10
2.967492929422087
 20
10.21727567874263
 30
0.0
 40
0.0307005362683976
100
AcDbArc
 50
300.3310303622684
 51
239.6689696377347
  0
ARC
  5
B3A
330
1F
100
AcDbEntity
  8
0
  6
Continuous
 62
     7
370
    15
100
AcDbCircle
 10
3.050957439607267
 20
10.21727567874263
 30
0.0
 40
0.0307005362683963
100
AcDbArc
 50
239.5298042125096
 51
239.817033080829
  0
ARC
  5
B3C
330
1F
100
AcDbEntity
  8
0
  6
Continuous
 62
     7
370
    15
100
AcDbCircle
 10
3.050957439607267
 20
10.21727567874263
 30
0.0
 40
0.0307005362683963
100
AcDbArc
 50
298.4103403928005
 51
239.5298042125096
  0
ARC
  5
B41
330
1F
100
AcDbEntity
  8
0
  6
Continuous
 62
     7
370
    15
100
AcDbCircle
 10
3.301350970162797
 20
10.05034665837227
 30
0.0
 40
0.0307005362683981
100
AcDbArc
 50
261.5234222875333
 51
146.4981021047405
  0
MTEXT
  5
B5D
330
1F
100
AcDbEntity
  8
0
  6
Continuous
100
AcDbMText
 10
4.922337218750729
 20
9.041913927712669
 30
0.0
 40
0.1
 41
3.557000000000001
 71
     1
 72
     5
  1
{\fCentury Gothic|b0|i0|c0|p34;2      HIGH SECURITY STAINLESS STEEL DISC-LOCK \P        MODEL 30-405}
 73
     1
 44
1.0
  0
LINE
  5
B5E
330
1F
100
AcDbEntity
  8
0
  6
Continuous
100
AcDbLine
 10
1.914238811947433
 20
0.7021496511055683
 30
0.0
 11
7.476238652288009
 21
0.7021496511055683
 31
0.0
  0
MTEXT
  5
B5F
330
1F
100
AcDbEntity
  8
0
  6
Continuous
100
AcDbMText
 10
2.525080588174751
 20
0.5703587826501435
 30
0.0
 40
0.134
 41
5.549347831018189
 71
     1
 72
     5
  1
{\fCentury Gothic|b0|i0|c0|p34;STAINLESS STEEL ENCLOSURE MODEL ENCL 4000\P                                     }
 73
     1
 44
1.0
  0
MTEXT
  5
BA1
330
1F
100
AcDbEntity
  8
DET-IMAGE
 62
     7
100
AcDbMText
 10
0.7698002975577793
 20
0.866649099793584
 30
0.0
 40
0.4
 41
0.0
 71
     1
 72
     5
  1
{\fCentury Gothic|b1|i0|c0|p34;2}
  7
SLDTEXTSTYLE0
 73
     1
 44
1.0
  0
CIRCLE
  5
BA2
330
1F
100
AcDbEntity
  8
0
  6
Continuous
100
AcDbCircle
 10
0.8560382840185574
 20
0.661269764524605
 30
0.0
 40
0.4
  0
LINE
  5
BB5
330
1F
100
AcDbEntity
  8
DET-IMAGE
 62
     0
100
AcDbLine
 10
1.015999011156707
 20
1.693781540202828
 30
0.0
 11
0.4382353016659897
 21
1.693781540202828
 31
0.0
  0
LINE
  5
BB6
330
1F
100
AcDbEntity
  8
DET-IMAGE
 62
     0
100
AcDbLine
 10
1.015999011156707
 20
1.728781540202828
 30
0.0
 11
0.4382353016659897
 21
1.728781540202828
 31
0.0
  0
LINE
  5
BB7
330
1F
100
AcDbEntity
  8
DET-IMAGE
 62
     0
100
AcDbLine
 10
1.015999011156707
 20
1.763781540202828
 30
0.0
 11
0.4382353016659897
 21
1.763781540202828
 31
0.0
  0
LINE
  5
BB8
330
1F
100
AcDbEntity
  8
DET-IMAGE
 62
     0
100
AcDbLine
 10
1.015999011156707
 20
1.798781540202828
 30
0.0
 11
0.4382353016659897
 21
1.798781540202828
 31
0.0
  0
LINE
  5
BB9
330
1F
100
AcDbEntity
  8
DET-IMAGE
 62
     0
100
AcDbLine
 10
1.015999011156707
 20
1.833781540202828
 30
0.0
 11
0.4382353016659897
 21
1.833781540202828
 31
0.0
  0
LINE
  5
BBA
330
1F
100
AcDbEntity
  8
DET-IMAGE
 62
     0
100
AcDbLine
 10
1.015999011156707
 20
1.868781540202828
 30
0.0
 11
0.4382353016659897
 21
1.868781540202828
 31
0.0
  0
LINE
  5
BBB
330
1F
100
AcDbEntity
  8
DET-IMAGE
 62
     0
100
AcDbLine
 10
1.015999011156707
 20
1.903781540202828
 30
0.0
 11
0.4382353016659897
 21
1.903781540202828
 31
0.0
  0
LINE
  5
BBC
330
1F
100
AcDbEntity
  8
DET-IMAGE
 62
     0
100
AcDbLine
 10
1.015999011156707
 20
1.938781540202828
 30
0.0
 11
0.4382353016659897
 21
1.938781540202828
 31
0.0
  0
MTEXT
  5
BC6
330
1F
100
AcDbEntity
  8
0
  6
Continuous
100
AcDbMText
 10
0.5193326705845283
 20
2.462914544141432
 30
0.0
 40
0.125
 41
0.20305609
 71
     1
 72
     5
  1
{\fCentury Gothic|b0|i0|c0|p0;7}
 73
     1
 44
1.0
  0
LEADER
  5
BC8
330
1F
100
AcDbEntity
  8
DET-IMAGE
 62
     0
100
AcDbLeader
  3
SLDDIMSTYLE1
 76
     2
 10
0.7614999636301886
 20
1.944319448665562
 30
0.0
 10
0.6112402691015933
 20
2.313423788612647
 30
0.0
1001
ACAD
1000
DSTYLE
1002
{
1070
   176
1070
     0
1070
    77
1070
     0
1070
    40
1040
1.0
1070
   147
1040
1.5
1002
}
  0
CIRCLE
  5
BCD
330
1F
100
AcDbEntity
  8
0
  6
Continuous
100
AcDbCircle
 10
4.511719730881552
 20
2.406688899784097
 30
0.0
 40
0.1068339234739888
  0
CIRCLE
  5
BCF
330
1F
100
AcDbEntity
  8
0
  6
Continuous
100
AcDbCircle
 10
4.958239635482061
 20
5.002186044136566
 30
0.0
 40
0.1068339234739888
  0
MTEXT
  5
BF4
330
1F
100
AcDbEntity
  8
0
 62
     7
100
AcDbMText
 10
7.446158433263817
 20
0.1964728069603752
 30
0.0
 40
0.0899999999999999
 41
0.0
 71
     1
 72
     5
  1
{\fCentury Gothic|b0|i0|c0|p34;NOT TO SCALE}
 73
     1
 44
1.0
  0
MTEXT
  5
C28
330
1F
100
AcDbEntity
  8
0
  6
Continuous
100
AcDbMText
 10
4.926097348554868
 20
6.379639057591959
 30
0.0
 40
0.0999999999999996
 41
3.556999999999998
 71
     1
 72
     5
  1
{\fCentury Gothic|b0|i0|c0|p34;5      12" X 18"  (30 x 45 cm) CONCRETE \P         BASE USING 90 Lb. (40 kg) BAG OF\P         CONCRETE  \H1.25x; }
 73
     1
 44
1.0
  0
MTEXT
  5
C29
330
1F
100
AcDbEntity
  8
0
  6
Continuous
100
AcDbMText
 10
4.927324900005177
 20
5.038524522296337
 30
0.0
 40
0.0999999999999996
 41
3.190394413314537
 71
     1
 72
     5
  1
{\fCentury Gothic|b0|i0|c0|p34;7      DIRECT BURIAL CONTROL WIRES TO\P        CONTROL VALVES.}
 73
     1
 44
1.0
  0
MTEXT
  5
C2A
330
1F
100
AcDbEntity
  8
0
  6
Continuous
100
AcDbMText
 10
4.928585395487286
 20
8.424767014124162
 30
0.0
 40
0.0999999999999996
 41
3.556999999999998
 71
     1
 72
     5
  1
{\fCentury Gothic|b0|i0|c0|p0;3      HEAVY-DUTY STAINLESS STEEL ENCLOSURE \P        WITH LIGHT ACCESS THROUGH GRID ON TOP\P        AND INTERNAL CLAMP TO SECURE COLUMN\P        MOUNTING MODEL ENCL 4000}
 73
     1
 44
1.0
  0
MTEXT
  5
C2B
330
1F
100
AcDbEntity
  8
0
  6
Continuous
100
AcDbMText
 10
4.932513206860942
 20
7.449825244799076
 30
0.0
 40
0.0999999999999996
 41
3.613
 71
     1
 72
     5
  1
{\fCentury Gothic|b0|i0|c0|p34;4      GALVANIZED STEEL MOUNTING COLUMN\P         FOR LEIT 4000 AND 4000E}
 73
     1
 44
1.0
  0
MTEXT
  5
C2C
102
{ACAD_XDICTIONARY
360
C5C
102
}
330
1F
100
AcDbEntity
  8
0
  6
Continuous
100
AcDbMText
 10
5.362813350604107
 20
7.047283577206986
 30
0.0
 40
0.0999999999999996
 41
3.347579456799959
 71
     1
 72
     5
  1
a. MODEL MCOL 4000 32" (81 cm) SHORT}
 73
     1
 44
1.0
  0
MTEXT
  5
C2D
330
1F
100
AcDbEntity
  8
0
  6
Continuous
100
AcDbMText
 10
5.381319857721501
 20
6.854915873151953
 30
0.0
 40
0.0999999999999996
 41
3.477027874826858
 71
     1
 72
     5
  1
{\fCentury Gothic|b0|i0|c0|p34;b. MODEL MCOL 4000L 48" (124 cm) LONG}
 73
     1
 44
1.0
  0
ENDSEC
  0
SECTION
  2
OBJECTS
  0
DICTIONARY
  5
C
330
0
100
AcDbDictionary
281
     1
  3
ACAD_COLOR
350
6C
  3
ACAD_GROUP
350
D
  3
ACAD_LAYOUT
350
1A
  3
ACAD_MATERIAL
350
6B
  3
ACAD_MLEADERSTYLE
350
B55
  3
ACAD_MLINESTYLE
350
17
  3
ACAD_PLOTSETTINGS
350
19
  3
ACAD_PLOTSTYLENAME
350
E
  3
ACAD_TABLESTYLE
350
92
  3
ACADDIM
350
8B9
  3
ACDBHEADERROUNDTRIPXREC
350
C58
  3
AcDbVariableDictionary
350
59
  3
ASE_INDEX_DICTIONARY
350
8E2
  3
DWGPROPS
350
C5B
  0
DICTIONARY
  5
C5C
330
C2C
100
AcDbDictionary
280
     1
281
     1
  3
ACAD_MTEXT_RT
360
C5D
  0
DICTIONARY
  5
6C
102
{ACAD_REACTORS
330
C
102
}
330
C
100
AcDbDictionary
281
     1
  0
DICTIONARY
  5
D
102
{ACAD_REACTORS
330
C
102
}
330
C
100
AcDbDictionary
281
     1
  0
DICTIONARY
  5
1A
102
{ACAD_REACTORS
330
C
102
}
330
C
100
AcDbDictionary
281
     1
  3
Layout1
350
74
  3
Model
350
22
  0
DICTIONARY
  5
6B
102
{ACAD_REACTORS
330
C
102
}
330
C
100
AcDbDictionary
281
     1
  0
DICTIONARY
  5
B55
102
{ACAD_REACTORS
330
C
102
}
330
C
100
AcDbDictionary
281
     1
  0
DICTIONARY
  5
17
102
{ACAD_REACTORS
330
C
102
}
330
C
100
AcDbDictionary
281
     1
  3
Standard
350
18
  0
DICTIONARY
  5
19
102
{ACAD_REACTORS
330
C
102
}
330
C
100
AcDbDictionary
281
     1
  0
ACDBDICTIONARYWDFLT
  5
E
102
{ACAD_REACTORS
330
C
102
}
330
C
100
AcDbDictionary
281
     1
  3
Normal
350
F
100
AcDbDictionaryWithDefault
340
F
  0
DICTIONARY
  5
92
102
{ACAD_REACTORS
330
C
102
}
330
C
100
AcDbDictionary
281
     1
  0
XRECORD
  5
8B9
102
{ACAD_REACTORS
330
C
102
}
330
C
100
AcDbXrecord
280
     1
 90
   990106
  3

 60
     0
 61
     0
 62
     1
 63
     3
 64
     0
 65
     0
 66
     0
 67
     3
 68
     1
 69
     0
 70
     0
 71
     0
 72
     0
 40
0.0
170
     0
  0
DICTIONARY
  5
C58
102
{ACAD_REACTORS
330
C
102
}
330
C
100
AcDbDictionary
281
     1
  3
COLORDICT
350
C59
  3
MATERIALDICT
350
C5A
  0
DICTIONARY
  5
59
102
{ACAD_REACTORS
330
C
102
}
330
C
100
AcDbDictionary
281
     1
  3
CTABLESTYLE
350
98
  3
DIMASSOC
350
B4A
  3
HIDETEXT
350
938
  0
DICTIONARY
  5
8E2
102
{ACAD_REACTORS
330
C
102
}
330
C
100
AcDbDictionary
281
     1
  3
ASEBLOCKHIERARCHYINDEXRECORD
350
8E3
  0
XRECORD
  5
C5B
102
{ACAD_REACTORS
330
C
102
}
330
C
100
AcDbXrecord
280
     1
  1
DWGPROPS COOKIE
  2

  3

  4

  6

  7

  8
fottrem
  9

300
=
301
=
302
=
303
=
304
=
305
=
306
=
307
=
308
=
309
=
 40
0.0
 41
2453353.717125822
 42
2454510.761566019
  1

 90
        0
  0
XRECORD
  5
C5D
102
{ACAD_REACTORS
330
C5C
102
}
330
C5C
100
AcDbXrecord
280
     1
 40
44946.0
  1
{\fCentury Gothic|b0|i0|c0|p34;\pt17.4167;a. MODEL MCOL 4000 32" (81 cm) SHORT}
  0
LAYOUT
  5
74
102
{ACAD_REACTORS
330
1A
102
}
330
1A
100
AcDbPlotSettings
  1

  2
\\ADSCCNDC1\hq601xrx1
  4

  6

 40
0.0
 41
0.0
 42
0.0
 43
0.0
 44
0.0
 45
0.0
 46
0.0
 47
0.0
 48
0.0
 49
0.0
140
0.0
141
0.0
142
1.0
143
1.0
 70
   688
 72
     0
 73
     0
 74
     5
  7

 75
    16
147
1.0
148
0.0
149
0.0
100
AcDbLayout
  1
Layout1
 70
     1
 71
     1
 10
0.0
 20
0.0
 11
12.0
 21
9.0
 12
0.0
 22
0.0
 32
0.0
 14
1.000000000000000E+20
 24
1.000000000000000E+20
 34
1.000000000000000E+20
 15
-1.000000000000000E+20
 25
-1.000000000000000E+20
 35
-1.000000000000000E+20
146
0.0
 13
0.0
 23
0.0
 33
0.0
 16
1.0
 26
0.0
 36
0.0
 17
0.0
 27
1.0
 37
0.0
 76
     0
330
73
  0
LAYOUT
  5
22
102
{ACAD_REACTORS
330
1A
102
}
330
1A
100
AcDbPlotSettings
  1

  2
none_device
  4
Sun_Hi-Res_(1280.00_x_1600.00_Pixels)
  6

 40
7.143749713897705
 41
6.720414161682129
 42
7.14373779296875
 43
5.027069091796875
 44
1280.0
 45
1600.0
 46
0.0
 47
0.0
 48
-0.095
 49
-0.087
140
8.595
141
11.087
142
1.0
143
0.00698375
 70
 11952
 72
     2
 73
     0
 74
     4
  7

 75
     0
147
143.1895471630571
148
0.0
149
-0.0000000000000397
100
AcDbLayout
  1
Model
 70
     1
 71
     0
 10
0.0
 20
0.0
 11
0.0
 21
0.0
 12
0.0
 22
0.0
 32
0.0
 14
0.0
 24
0.0
 34
0.0
 15
8.500000000000002
 25
11.0
 35
9.014866294703786
146
0.0
 13
0.0
 23
0.0
 33
0.0
 16
1.0
 26
0.0
 36
0.0
 17
0.0
 27
1.0
 37
0.0
 76
     0
330
1F
331
97
  0
MLINESTYLE
  5
18
102
{ACAD_REACTORS
330
17
102
}
330
17
100
AcDbMlineStyle
  2
Standard
 70
     0
  3

 62
     0
 51
90.0000000000002
 52
90.0000000000002
 71
     2
 49
0.5
 62
   256
  6
BYLAYER
 49
-0.5
 62
   256
  6
BYLAYER
  0
ACDBPLACEHOLDER
  5
F
102
{ACAD_REACTORS
330
E
102
}
330
E
  0
XRECORD
  5
C59
102
{ACAD_REACTORS
330
C58
102
}
330
C58
100
AcDbXrecord
280
     1
340
6C
  0
XRECORD
  5
C5A
102
{ACAD_REACTORS
330
C58
102
}
330
C58
100
AcDbXrecord
280
     1
340
6B
  0
DICTIONARYVAR
  5
98
102
{ACAD_REACTORS
330
59
102
}
330
59
100
DictionaryVariables
280
     0
  1

  0
DICTIONARYVAR
  5
B4A
102
{ACAD_REACTORS
330
59
102
}
330
59
100
DictionaryVariables
280
     0
  1
2
  0
DICTIONARYVAR
  5
938
102
{ACAD_REACTORS
330
59
102
}
330
59
100
DictionaryVariables
280
     0
  1
2
  0
XRECORD
  5
8E3
102
{ACAD_REACTORS
330
8E2
102
}
330
8E2
100
AcDbXrecord
280
     1
  0
ENDSEC
  0
EOF
