  0
SECTION
  2
HEADER
  9
$ACADVER
  1
AC1015
  9
$ACADMAINTVER
 70
     6
  9
$DWGCODEPAGE
  3
ANSI_1252
  9
$INSBASE
 10
0.0
 20
0.0
 30
0.0
  9
$EXTMIN
 10
0.0
 20
0.0
 30
0.0
  9
$EXTMAX
 10
8.500000000000002
 20
11.0
 30
9.014866294703786
  9
$LIMMIN
 10
0.0
 20
0.0
  9
$LIMMAX
 10
0.0
 20
0.0
  9
$ORTHOMODE
 70
     1
  9
$REGENMODE
 70
     1
  9
$FILLMODE
 70
     1
  9
$QTEXTMODE
 70
     0
  9
$MIRRTEXT
 70
     1
  9
$LTSCALE
 40
1.0
  9
$ATTMODE
 70
     1
  9
$TEXTSIZE
 40
0.2
  9
$TRACEWID
 40
0.05
  9
$TEXTSTYLE
  7
Standard
  9
$CLAYER
  8
0
  9
$CELTYPE
  6
Continuous
  9
$CECOLOR
 62
   256
  9
$CELTSCALE
 40
1.0
  9
$DISPSILH
 70
     0
  9
$DIMSCALE
 40
1.0
  9
$DIMASZ
 40
0.125
  9
$DIMEXO
 40
0.05
  9
$DIMDLI
 40
0.38
  9
$DIMRND
 40
0.0
  9
$DIMDLE
 40
0.125
  9
$DIMEXE
 40
0.18
  9
$DIMTP
 40
0.0
  9
$DIMTM
 40
0.0
  9
$DIMTXT
 40
0.1
  9
$DIMCEN
 40
0.09
  9
$DIMTSZ
 40
0.0
  9
$DIMTOL
 70
     0
  9
$DIMLIM
 70
     0
  9
$DIMTIH
 70
     1
  9
$DIMTOH
 70
     1
  9
$DIMSE1
 70
     0
  9
$DIMSE2
 70
     0
  9
$DIMTAD
 70
     0
  9
$DIMZIN
 70
     0
  9
$DIMBLK
  1

  9
$DIMASO
 70
     1
  9
$DIMSHO
 70
     1
  9
$DIMPOST
  1

  9
$DIMAPOST
  1

  9
$DIMALT
 70
     0
  9
$DIMALTD
 70
     2
  9
$DIMALTF
 40
25.4
  9
$DIMLFAC
 40
8.0
  9
$DIMTOFL
 70
     0
  9
$DIMTVP
 40
0.0
  9
$DIMTIX
 70
     0
  9
$DIMSOXD
 70
     0
  9
$DIMSAH
 70
     0
  9
$DIMBLK1
  1

  9
$DIMBLK2
  1

  9
$DIMSTYLE
  2
Standard
  9
$DIMCLRD
 70
     0
  9
$DIMCLRE
 70
     0
  9
$DIMCLRT
 70
     0
  9
$DIMTFAC
 40
1.0
  9
$DIMGAP
 40
0.05
  9
$DIMJUST
 70
     0
  9
$DIMSD1
 70
     0
  9
$DIMSD2
 70
     0
  9
$DIMTOLJ
 70
     1
  9
$DIMTZIN
 70
     0
  9
$DIMALTZ
 70
     0
  9
$DIMALTTZ
 70
     0
  9
$DIMUPT
 70
     0
  9
$DIMDEC
 70
     4
  9
$DIMTDEC
 70
     4
  9
$DIMALTU
 70
     2
  9
$DIMALTTD
 70
     2
  9
$DIMTXSTY
  7
Standard
  9
$DIMAUNIT
 70
     0
  9
$DIMADEC
 70
     0
  9
$DIMALTRND
 40
0.0
  9
$DIMAZIN
 70
     0
  9
$DIMDSEP
 70
    46
  9
$DIMATFIT
 70
     3
  9
$DIMFRAC
 70
     0
  9
$DIMLDRBLK
  1

  9
$DIMLUNIT
 70
     2
  9
$DIMLWD
 70
    -2
  9
$DIMLWE
 70
    -2
  9
$DIMTMOVE
 70
     0
  9
$LUNITS
 70
     2
  9
$LUPREC
 70
     3
  9
$SKETCHINC
 40
0.1
  9
$FILLETRAD
 40
0.0
  9
$AUNITS
 70
     0
  9
$AUPREC
 70
     2
  9
$MENU
  1
.
  9
$ELEVATION
 40
0.0
  9
$PELEVATION
 40
0.0
  9
$THICKNESS
 40
0.0
  9
$LIMCHECK
 70
     0
  9
$CHAMFERA
 40
0.0
  9
$CHAMFERB
 40
0.0
  9
$CHAMFERC
 40
0.0
  9
$CHAMFERD
 40
0.0
  9
$SKPOLY
 70
     0
  9
$TDCREATE
 40
2453353.383792488
  9
$TDUCREATE
 40
2453353.717125822
  9
$TDUPDATE
 40
2454510.42544897
  9
$TDUUPDATE
 40
2454510.758782303
  9
$TDINDWG
 40
0.1351947106
  9
$TDUSRTIMER
 40
0.1349865278
  9
$USRTIMER
 70
     1
  9
$ANGBASE
 50
0.0
  9
$ANGDIR
 70
     0
  9
$PDMODE
 70
     0
  9
$PDSIZE
 40
-1.0
  9
$PLINEWID
 40
0.0
  9
$SPLFRAME
 70
     0
  9
$SPLINETYPE
 70
     6
  9
$SPLINESEGS
 70
     8
  9
$HANDSEED
  5
C36
  9
$SURFTAB1
 70
     6
  9
$SURFTAB2
 70
     6
  9
$SURFTYPE
 70
     6
  9
$SURFU
 70
     6
  9
$SURFV
 70
     6
  9
$UCSBASE
  2

  9
$UCSNAME
  2

  9
$UCSORG
 10
0.0
 20
0.0
 30
0.0
  9
$UCSXDIR
 10
1.0
 20
0.0
 30
0.0
  9
$UCSYDIR
 10
0.0
 20
1.0
 30
0.0
  9
$UCSORTHOREF
  2

  9
$UCSORTHOVIEW
 70
     0
  9
$UCSORGTOP
 10
0.0
 20
0.0
 30
0.0
  9
$UCSORGBOTTOM
 10
0.0
 20
0.0
 30
0.0
  9
$UCSORGLEFT
 10
0.0
 20
0.0
 30
0.0
  9
$UCSORGRIGHT
 10
0.0
 20
0.0
 30
0.0
  9
$UCSORGFRONT
 10
0.0
 20
0.0
 30
0.0
  9
$UCSORGBACK
 10
0.0
 20
0.0
 30
0.0
  9
$PUCSBASE
  2

  9
$PUCSNAME
  2

  9
$PUCSORG
 10
0.0
 20
0.0
 30
0.0
  9
$PUCSXDIR
 10
1.0
 20
0.0
 30
0.0
  9
$PUCSYDIR
 10
0.0
 20
1.0
 30
0.0
  9
$PUCSORTHOREF
  2

  9
$PUCSORTHOVIEW
 70
     0
  9
$PUCSORGTOP
 10
0.0
 20
0.0
 30
0.0
  9
$PUCSORGBOTTOM
 10
0.0
 20
0.0
 30
0.0
  9
$PUCSORGLEFT
 10
0.0
 20
0.0
 30
0.0
  9
$PUCSORGRIGHT
 10
0.0
 20
0.0
 30
0.0
  9
$PUCSORGFRONT
 10
0.0
 20
0.0
 30
0.0
  9
$PUCSORGBACK
 10
0.0
 20
0.0
 30
0.0
  9
$USERI1
 70
     0
  9
$USERI2
 70
     0
  9
$USERI3
 70
     0
  9
$USERI4
 70
     0
  9
$USERI5
 70
     0
  9
$USERR1
 40
0.0
  9
$USERR2
 40
0.0
  9
$USERR3
 40
0.0
  9
$USERR4
 40
0.0
  9
$USERR5
 40
0.0
  9
$WORLDVIEW
 70
     1
  9
$SHADEDGE
 70
     3
  9
$SHADEDIF
 70
    70
  9
$TILEMODE
 70
     1
  9
$MAXACTVP
 70
    16
  9
$PINSBASE
 10
0.0
 20
0.0
 30
0.0
  9
$PLIMCHECK
 70
     0
  9
$PEXTMIN
 10
1.000000000000000E+20
 20
1.000000000000000E+20
 30
1.000000000000000E+20
  9
$PEXTMAX
 10
-1.000000000000000E+20
 20
-1.000000000000000E+20
 30
-1.000000000000000E+20
  9
$PLIMMIN
 10
0.0
 20
0.0
  9
$PLIMMAX
 10
12.0
 20
9.0
  9
$UNITMODE
 70
     0
  9
$VISRETAIN
 70
     0
  9
$PLINEGEN
 70
     1
  9
$PSLTSCALE
 70
     1
  9
$TREEDEPTH
 70
  3020
  9
$CMLSTYLE
  2
Standard
  9
$CMLJUST
 70
     0
  9
$CMLSCALE
 40
1.0
  9
$PROXYGRAPHICS
 70
     1
  9
$MEASUREMENT
 70
     0
  9
$CELWEIGHT
370
    -1
  9
$ENDCAPS
280
     0
  9
$JOINSTYLE
280
     0
  9
$LWDISPLAY
290
     0
  9
$INSUNITS
 70
     0
  9
$HYPERLINKBASE
  1

  9
$STYLESHEET
  1

  9
$XEDIT
290
     0
  9
$CEPSNTYPE
380
     0
  9
$PSTYLEMODE
290
     1
  9
$FINGERPRINTGUID
  2
{922A710D-219C-4589-9DE0-00C6606D2B5C}
  9
$VERSIONGUID
  2
{83CA4EDD-271F-4068-9B3C-AEE76AD11738}
  9
$EXTNAMES
290
     1
  9
$PSVPSCALE
 40
0.0
  9
$OLESTARTUP
290
     0
  0
ENDSEC
  0
SECTION
  2
CLASSES
  0
CLASS
  1
ACDBDICTIONARYWDFLT
  2
AcDbDictionaryWithDefault
  3
ObjectDBX Classes
 90
        0
280
     0
281
     0
  0
CLASS
  1
ACDBPLACEHOLDER
  2
AcDbPlaceHolder
  3
ObjectDBX Classes
 90
        0
280
     0
281
     0
  0
CLASS
  1
LAYOUT
  2
AcDbLayout
  3
ObjectDBX Classes
 90
        0
280
     0
281
     0
  0
CLASS
  1
DICTIONARYVAR
  2
AcDbDictionaryVar
  3
ObjectDBX Classes
 90
        0
280
     0
281
     0
  0
CLASS
  1
TABLESTYLE
  2
AcDbTableStyle
  3
ObjectDBX Classes
 90
     4095
280
     0
281
     0
  0
ENDSEC
  0
SECTION
  2
TABLES
  0
TABLE
  2
VPORT
  5
8
330
0
100
AcDbSymbolTable
 70
     2
  0
VPORT
  5
97
330
8
100
AcDbSymbolTableRecord
100
AcDbViewportTableRecord
  2
*Active
 70
     0
 10
0.0
 20
0.0
 11
1.0
 21
1.0
 12
4.250000000000001
 22
5.500000000000001
 13
0.0
 23
0.0
 14
1.0
 24
1.0
 15
0.0
 25
0.0
 16
0.0
 26
0.0
 36
1.0
 17
0.0
 27
0.0
 37
0.0
 40
11.22
 41
1.704119850187266
 42
50.0
 43
0.0
 44
0.0
 50
0.0
 51
0.0
 71
    16
 72
  2000
 73
     1
 74
     1
 75
     0
 76
     0
 77
     0
 78
     0
281
     0
 65
     0
110
0.0
120
0.0
130
0.0
111
1.0
121
0.0
131
0.0
112
0.0
122
1.0
132
0.0
 79
     0
146
0.0
  0
ENDTAB
  0
TABLE
  2
LTYPE
  5
5
330
0
100
AcDbSymbolTable
 70
     6
  0
LTYPE
  5
14
330
5
100
AcDbSymbolTableRecord
100
AcDbLinetypeTableRecord
  2
ByBlock
 70
     0
  3

 72
    65
 73
     0
 40
0.0
  0
LTYPE
  5
15
330
5
100
AcDbSymbolTableRecord
100
AcDbLinetypeTableRecord
  2
ByLayer
 70
     0
  3

 72
    65
 73
     0
 40
0.0
  0
LTYPE
  5
16
330
5
100
AcDbSymbolTableRecord
100
AcDbLinetypeTableRecord
  2
Continuous
 70
     0
  3
Solid line
 72
    65
 73
     0
 40
0.0
  0
LTYPE
  5
C2B
330
5
100
AcDbSymbolTableRecord
100
AcDbLinetypeTableRecord
  2
HIDDEN
 70
     0
  3
Hidden __ __ __ __ __ __ __ __ __ __ __ __ __ __
 72
    65
 73
     2
 40
0.075
 49
0.05
 74
     4
 75
     0
340
0
 46
1.0
 50
0.0
 44
0.0
 45
0.0
 49
-0.025
 74
     4
 75
     0
340
0
 46
1.0
 50
0.0
 44
0.0
 45
0.0
  0
LTYPE
  5
C2C
330
5
100
AcDbSymbolTableRecord
100
AcDbLinetypeTableRecord
  2
PHANTOM
 70
     0
  3
Phantom ______  __  __  ______  __  __  ______
 72
    65
 73
     6
 40
0.4999999999999999
 49
0.25
 74
     4
 75
     0
340
0
 46
1.0
 50
0.0
 44
0.0
 45
0.0
 49
-0.05
 74
     4
 75
     0
340
0
 46
1.0
 50
0.0
 44
0.0
 45
0.0
 49
0.05
 74
     4
 75
     0
340
0
 46
1.0
 50
0.0
 44
0.0
 45
0.0
 49
-0.05
 74
     4
 75
     0
340
0
 46
1.0
 50
0.0
 44
0.0
 45
0.0
 49
0.05
 74
     4
 75
     0
340
0
 46
1.0
 50
0.0
 44
0.0
 45
0.0
 49
-0.05
 74
     4
 75
     0
340
0
 46
1.0
 50
0.0
 44
0.0
 45
0.0
  0
LTYPE
  5
C2D
330
5
100
AcDbSymbolTableRecord
100
AcDbLinetypeTableRecord
  2
CENTER
 70
     0
  3
Center ____ _ ____ _ ____ _ ____ _ ____ _ ____
 72
    65
 73
     4
 40
0.4
 49
0.25
 74
     4
 75
     0
340
0
 46
1.0
 50
0.0
 44
0.0
 45
0.0
 49
-0.05
 74
     4
 75
     0
340
0
 46
1.0
 50
0.0
 44
0.0
 45
0.0
 49
0.05
 74
     4
 75
     0
340
0
 46
1.0
 50
0.0
 44
0.0
 45
0.0
 49
-0.05
 74
     4
 75
     0
340
0
 46
1.0
 50
0.0
 44
0.0
 45
0.0
  0
LTYPE
  5
C2E
330
5
100
AcDbSymbolTableRecord
100
AcDbLinetypeTableRecord
  2
CENTERX2
 70
     0
  3
Center (2x) ________  __  ________  __  _____
 72
    65
 73
     4
 40
0.7999999999999999
 49
0.5
 74
     4
 75
     0
340
0
 46
1.0
 50
0.0
 44
0.0
 45
0.0
 49
-0.1
 74
     4
 75
     0
340
0
 46
1.0
 50
0.0
 44
0.0
 45
0.0
 49
0.1
 74
     4
 75
     0
340
0
 46
1.0
 50
0.0
 44
0.0
 45
0.0
 49
-0.1
 74
     4
 75
     0
340
0
 46
1.0
 50
0.0
 44
0.0
 45
0.0
  0
LTYPE
  5
C2F
330
5
100
AcDbSymbolTableRecord
100
AcDbLinetypeTableRecord
  2
DOT2
 70
     0
  3
Dot (.5x) ........................................
 72
    65
 73
     2
 40
0.025
 49
0.0
 74
     4
 75
     0
340
0
 46
1.0
 50
0.0
 44
0.0
 45
0.0
 49
-0.025
 74
     4
 75
     0
340
0
 46
1.0
 50
0.0
 44
0.0
 45
0.0
  0
ENDTAB
  0
TABLE
  2
LAYER
  5
2
330
0
100
AcDbSymbolTable
 70
     3
  0
LAYER
  5
10
330
2
100
AcDbSymbolTableRecord
100
AcDbLayerTableRecord
  2
0
 70
     0
 62
     7
  6
Continuous
370
    -3
390
F
  0
LAYER
  5
26
330
2
100
AcDbSymbolTableRecord
100
AcDbLayerTableRecord
  2
DEFPOINTS
 70
     0
 62
     7
  6
Continuous
290
     0
370
    -3
390
F
  0
LAYER
  5
875
330
2
100
AcDbSymbolTableRecord
100
AcDbLayerTableRecord
  2
DET-IMAGE
 70
     0
 62
     5
  6
Continuous
370
    -3
390
F
  0
ENDTAB
  0
TABLE
  2
STYLE
  5
3
330
0
100
AcDbSymbolTable
 70
     2
  0
STYLE
  5
11
330
3
100
AcDbSymbolTableRecord
100
AcDbTextStyleTableRecord
  2
Standard
 70
     0
 40
0.0
 41
1.0
 50
0.0
 71
     0
 42
0.2
  3
txt
  4

  0
STYLE
  5
B98
330
3
100
AcDbSymbolTableRecord
100
AcDbTextStyleTableRecord
  2
SLDTEXTSTYLE0
 70
     0
 40
0.0
 41
0.75
 50
0.0
 71
     0
 42
0.2
  3
SIMPLEX
  4

  0
ENDTAB
  0
TABLE
  2
VIEW
  5
6
330
0
100
AcDbSymbolTable
 70
     0
  0
ENDTAB
  0
TABLE
  2
UCS
  5
7
330
0
100
AcDbSymbolTable
 70
     0
  0
ENDTAB
  0
TABLE
  2
APPID
  5
9
330
0
100
AcDbSymbolTable
 70
     2
  0
APPID
  5
12
330
9
100
AcDbSymbolTableRecord
100
AcDbRegAppTableRecord
  2
ACAD
 70
     0
  0
APPID
  5
C2A
330
9
100
AcDbSymbolTableRecord
100
AcDbRegAppTableRecord
  2
DCO15
 70
     0
  0
ENDTAB
  0
TABLE
  2
DIMSTYLE
  5
A
330
0
100
AcDbSymbolTable
 70
     2
100
AcDbDimStyleTable
  0
DIMSTYLE
105
27
330
A
100
AcDbSymbolTableRecord
100
AcDbDimStyleTableRecord
  2
Standard
 70
     0
289
     0
340
11
  0
DIMSTYLE
105
BBE
330
A
100
AcDbSymbolTableRecord
100
AcDbDimStyleTableRecord
  2
SLDDIMSTYLE1
 70
     0
 41
0.09
 44
0.0
140
6.0
147
1.5
173
     1
271
     0
272
     0
289
     0
340
11
  0
ENDTAB
  0
TABLE
  2
BLOCK_RECORD
  5
1
330
0
100
AcDbSymbolTable
 70
     0
  0
BLOCK_RECORD
  5
1F
330
1
100
AcDbSymbolTableRecord
100
AcDbBlockTableRecord
  2
*Model_Space
340
22
  0
BLOCK_RECORD
  5
73
330
1
100
AcDbSymbolTableRecord
100
AcDbBlockTableRecord
  2
*Paper_Space
340
74
  0
ENDTAB
  0
ENDSEC
  0
SECTION
  2
BLOCKS
  0
BLOCK
  5
20
330
1F
100
AcDbEntity
  8
0
100
AcDbBlockBegin
  2
*Model_Space
 70
     0
 10
0.0
 20
0.0
 30
0.0
  3
*Model_Space
  1

  0
ENDBLK
  5
21
330
1F
100
AcDbEntity
  8
0
100
AcDbBlockEnd
  0
BLOCK
  5
75
330
73
100
AcDbEntity
 67
     1
  8
0
100
AcDbBlockBegin
  2
*Paper_Space
 70
     0
 10
0.0
 20
0.0
 30
0.0
  3
*Paper_Space
  1

  0
ENDBLK
  5
76
330
73
100
AcDbEntity
 67
     1
  8
0
100
AcDbBlockEnd
  0
ENDSEC
  0
SECTION
  2
ENTITIES
  0
LINE
  5
B46
330
1F
100
AcDbEntity
  8
0
  6
Continuous
 62
     5
100
AcDbLine
 10
1.339371193553681
 20
0.3561587337694335
 30
0.0
 11
1.339371193553681
 21
0.3541172327795174
 31
0.0
  0
LINE
  5
28
330
1F
100
AcDbEntity
  8
0
  6
Continuous
 62
     7
100
AcDbLine
 10
0.0
 20
11.0
 30
0.0
 11
8.500000000000002
 21
11.0
 31
0.0
  0
LINE
  5
29
330
1F
100
AcDbEntity
  8
0
  6
Continuous
 62
     7
100
AcDbLine
 10
0.0
 20
11.0
 30
0.0
 11
0.0
 21
0.0
 31
0.0
  0
LINE
  5
2A
330
1F
100
AcDbEntity
  8
0
  6
Continuous
 62
     7
100
AcDbLine
 10
8.500000000000002
 20
0.0000000000000016
 30
0.0
 11
0.0
 21
0.0
 31
0.0
  0
LINE
  5
2B
330
1F
100
AcDbEntity
  8
0
  6
Continuous
 62
     7
100
AcDbLine
 10
8.500000000000002
 20
0.0000000000000016
 30
0.0
 11
8.500000000000002
 21
11.0
 31
0.0
  0
LINE
  5
2C
330
1F
100
AcDbEntity
  8
0
  6
Continuous
 62
     7
100
AcDbLine
 10
8.499999999999996
 20
11.0
 30
0.0
 11
8.499999999999996
 21
10.75
 31
0.0
  0
ARC
  5
2D
330
1F
100
AcDbEntity
  8
0
  6
Continuous
 62
     7
100
AcDbCircle
 10
1.559308450113946
 20
3.525905261401058
 30
0.0
 40
1.1015625
100
AcDbArc
 50
270.0000000000008
 51
0.0
  0
ARC
  5
2E
330
1F
100
AcDbEntity
  8
0
  6
Continuous
 62
     7
100
AcDbCircle
 10
1.559308450113946
 20
3.525905261401058
 30
0.0
 40
1.3984375
100
AcDbArc
 50
270.0000000000008
 51
0.0
  0
LINE
  5
2F
330
1F
100
AcDbEntity
  8
0
  6
Continuous
 62
     7
100
AcDbLine
 10
2.957745950113946
 20
3.525905261401058
 30
0.0
 11
2.957745950113946
 21
8.18804287519303
 31
0.0
  0
LINE
  5
30
330
1F
100
AcDbEntity
  8
0
  6
Continuous
 62
     7
100
AcDbLine
 10
2.660870950113946
 20
8.18804287519303
 30
0.0
 11
2.660870950113946
 21
3.525905261401058
 31
0.0
  0
LINE
  5
31
330
1F
100
AcDbEntity
  8
0
  6
Continuous
 62
     7
100
AcDbLine
 10
1.207745950113946
 20
2.127467761401058
 30
0.0
 11
1.559308450113946
 21
2.127467761401058
 31
0.0
  0
LINE
  5
32
330
1F
100
AcDbEntity
  8
0
  6
Continuous
 62
     7
100
AcDbLine
 10
1.559308450113946
 20
2.424342761401058
 30
0.0
 11
1.207745950113946
 21
2.424342761401058
 31
0.0
  0
LWPOLYLINE
  5
33
330
1F
100
AcDbEntity
  8
0
  6
Continuous
 62
     7
100
AcDbPolyline
 90
        5
 70
   128
 43
0.0
 10
3.24181395757316
 20
9.74397051790689
 10
3.229469016117125
 20
9.764296813804101
 10
3.216567258255304
 20
9.782161521086401
 10
3.20366185679646
 20
9.797691061086825
 10
3.190958009956979
 20
9.81101503616735
  0
LWPOLYLINE
  5
3A
330
1F
100
AcDbEntity
  8
0
  6
Continuous
 62
     7
100
AcDbPolyline
 90
       11
 70
   128
 43
0.0
 10
3.175941283923101
 20
9.824617146237825
 10
3.158240693305815
 20
9.838184488832317
 10
3.141678805997397
 20
9.84895010730306
 10
3.131434655748575
 20
9.854873914501693
 10
3.121094222386439
 20
9.860354221290724
 10
3.108787466423021
 20
9.866239868146634
 10
3.09109837040641
 20
9.873497281261223
 10
3.069915585955309
 20
9.880398776940492
 10
3.045130130473321
 20
9.88614468648037
 10
3.019396090638275
 20
9.889616019682657
 10
2.994820240169901
 20
9.89070040126116
  0
LINE
  5
47
330
1F
100
AcDbEntity
  8
0
  6
Continuous
 62
     7
100
AcDbLine
 10
2.994820240169903
 20
9.89070040126116
 30
0.0
 11
2.619820240169903
 21
9.89070040126116
 31
0.0
  0
LINE
  5
48
330
1F
100
AcDbEntity
  8
0
  6
Continuous
 62
     7
100
AcDbLine
 10
2.423682470381908
 20
9.811015036166456
 30
0.0
 11
2.420465158543654
 21
9.807640673794083
 31
0.0
  0
LWPOLYLINE
  5
49
330
1F
100
AcDbEntity
  8
0
  6
Continuous
 62
     7
100
AcDbPolyline
 90
        3
 70
   128
 43
0.0
 10
2.412786437939843
 20
9.799587122513977
 10
2.410978623542637
 20
9.797691061086038
 10
2.406041316160738
 20
9.79174981913966
  0
LINE
  5
4E
330
1F
100
AcDbEntity
  8
0
  6
Continuous
 62
     7
100
AcDbLine
 10
2.377346973913739
 20
9.751413568806063
 30
0.0
 11
2.372826522766426
 21
9.743970517906488
 31
0.0
  0
LINE
  5
4F
330
1F
100
AcDbEntity
  8
0
  6
Continuous
 62
     7
100
AcDbLine
 10
2.44027085388886
 20
9.825821807473352
 30
0.0
 11
2.438699196413868
 21
9.824617146235436
 31
0.0
  0
LINE
  5
50
330
1F
100
AcDbEntity
  8
0
  6
Continuous
 62
     7
100
AcDbLine
 10
2.248214700113947
 20
8.526167875193032
 30
0.0
 11
2.248214700113947
 21
8.52116787519303
 31
0.0
  0
LINE
  5
51
330
1F
100
AcDbEntity
  8
0
  6
Continuous
 62
     7
100
AcDbLine
 10
2.271652200113947
 20
8.52116787519303
 30
0.0
 11
2.271652200113947
 21
8.526167875193032
 31
0.0
  0
LINE
  5
52
330
1F
100
AcDbEntity
  8
0
  6
Continuous
 62
     7
100
AcDbLine
 10
2.277433450113943
 20
8.526167875193032
 30
0.0
 11
2.277433450113943
 21
8.60366787519303
 31
0.0
  0
LINE
  5
53
330
1F
100
AcDbEntity
  8
0
  6
Continuous
 62
     7
100
AcDbLine
 10
2.277433450113943
 20
8.681167875193033
 30
0.0
 11
2.277433450113943
 21
8.758667875193032
 31
0.0
  0
LINE
  5
54
330
1F
100
AcDbEntity
  8
0
  6
Continuous
 62
     7
100
AcDbLine
 10
2.277433450113943
 20
8.83616787519303
 30
0.0
 11
2.277433450113943
 21
8.913667875193033
 31
0.0
  0
LINE
  5
55
330
1F
100
AcDbEntity
  8
0
  6
Continuous
 62
     7
100
AcDbLine
 10
2.277433450113943
 20
8.991167875193032
 30
0.0
 11
2.277433450113943
 21
9.068667875193032
 31
0.0
  0
LINE
  5
56
330
1F
100
AcDbEntity
  8
0
  6
Continuous
 62
     7
100
AcDbLine
 10
2.277433450113943
 20
9.146167875193031
 30
0.0
 11
2.277433450113943
 21
9.223667875193033
 31
0.0
  0
LINE
  5
57
330
1F
100
AcDbEntity
  8
0
  6
Continuous
 62
     7
100
AcDbLine
 10
2.277433450113943
 20
9.301167875193032
 30
0.0
 11
2.277433450113943
 21
9.378667875193031
 31
0.0
  0
LINE
  5
58
330
1F
100
AcDbEntity
  8
0
  6
Continuous
 62
     7
100
AcDbLine
 10
2.277433450113943
 20
9.456167875193033
 30
0.0
 11
2.277433450113943
 21
9.533667875193032
 31
0.0
  0
LINE
  5
B47
330
1F
100
AcDbEntity
  8
0
  6
Continuous
 62
     7
100
AcDbLine
 10
2.277433450113943
 20
9.611167875193031
 30
0.0
 11
2.277433450113943
 21
9.688667875193032
 31
0.0
  0
LINE
  5
B48
330
1F
100
AcDbEntity
  8
0
  6
Continuous
 62
     7
100
AcDbLine
 10
2.277433450113943
 20
9.766167875193032
 30
0.0
 11
2.277433450113943
 21
9.843667875193033
 31
0.0
  0
ARC
  5
5B
330
1F
100
AcDbEntity
  8
0
  6
Continuous
 62
     7
100
AcDbCircle
 10
1.2527001892792
 20
8.488153918649074
 30
0.0
 40
0.0078124999999999
100
AcDbArc
 50
180.0000000000004
 51
221.3471034620583
  0
LINE
  5
5C
330
1F
100
AcDbEntity
  8
0
  6
Continuous
 62
     7
100
AcDbLine
 10
1.244887689279199
 20
9.930230375193032
 30
0.0
 11
1.2448876892792
 21
9.172417875193034
 31
0.0
  0
LINE
  5
5D
330
1F
100
AcDbEntity
  8
0
  6
Continuous
 62
     7
100
AcDbLine
 10
1.2448876892792
 20
9.123229932672489
 30
0.0
 11
1.2448876892792
 21
9.096605817713575
 31
0.0
  0
LINE
  5
B49
330
1F
100
AcDbEntity
  8
0
  6
Continuous
 62
     7
100
AcDbLine
 10
1.2448876892792
 20
9.047417875193034
 30
0.0
 11
1.2448876892792
 21
8.488153918649074
 31
0.0
  0
ARC
  5
5F
330
1F
100
AcDbEntity
  8
0
  6
Continuous
 62
     7
100
AcDbCircle
 10
1.252700189279199
 20
9.930230375193032
 30
0.0
 40
0.0078125
100
AcDbArc
 50
90.0
 51
180.0000000000004
  0
LINE
  5
60
330
1F
100
AcDbEntity
  8
0
  6
Continuous
 62
     7
100
AcDbLine
 10
1.246835179237127
 20
8.482992832188222
 30
0.0
 11
1.504051798532921
 21
8.190694288732182
 31
0.0
  0
ARC
  5
61
330
1F
100
AcDbEntity
  8
0
  6
Continuous
 62
     7
100
AcDbCircle
 10
1.509916808574993
 20
8.195855375193032
 30
0.0
 40
0.0078125
100
AcDbArc
 50
221.347103462059
 51
270.0000000000024
  0
LWPOLYLINE
  5
62
330
1F
100
AcDbEntity
  8
0
  6
Continuous
 62
     7
100
AcDbPolyline
 90
       11
 70
   128
 43
0.0
 10
3.400525703468432
 20
8.85404441939705
 10
3.400695840736858
 20
8.852750127720988
 10
3.400855326739805
 20
8.851860522288463
 10
3.401147352776036
 20
8.850612895183513
 10
3.402018327989151
 20
8.848056985432882
 10
3.403631245915965
 20
8.844977893678934
 10
3.40699832263949
 20
8.84098313774535
 10
3.410912865824711
 20
8.838193884036132
 10
3.415594639916882
 20
8.836363604205332
 10
3.420809436677515
 20
8.835760840255606
 10
3.421853028592958
 20
8.835928868682313
  0
LINE
  5
6F
330
1F
100
AcDbEntity
  8
0
  6
Continuous
 62
     7
100
AcDbLine
 10
3.4217964600117
 20
8.83580155343004
 30
0.0
 11
3.444247426889731
 21
8.837283710325265
 31
0.0
  0
LWPOLYLINE
  5
70
330
1F
100
AcDbEntity
  8
0
  6
Continuous
 62
     7
100
AcDbPolyline
 90
       11
 70
   128
 43
0.0
 10
3.444248346223711
 20
8.837402065508636
 10
3.448893324780927
 20
8.83814995213704
 10
3.45338131352958
 20
8.840188055651165
 10
3.456835294051539
 20
8.842864538620622
 10
3.459369688052419
 20
8.845848542257208
 10
3.461094587804494
 20
8.848867344530275
 10
3.462142889211602
 20
8.85167617250071
 10
3.462667679583808
 20
8.85398807365767
 10
3.462863233459601
 20
8.855536235385866
 10
3.462918694434578
 20
8.856357704752632
 10
3.462936287817573
 20
8.856902335421147
  0
LWPOLYLINE
  5
7D
330
1F
100
AcDbEntity
  8
0
  6
Continuous
 62
     7
100
AcDbPolyline
 90
        5
 70
   128
 43
0.0
 10
3.396479251573344
 20
8.858187223169264
 10
3.397357955070051
 20
8.85820742987315
 10
3.398512810944441
 20
8.857820313989333
 10
3.399315931984635
 20
8.857248622789058
 10
3.399621642851179
 20
8.856894426341535
  0
LWPOLYLINE
  5
84
330
1F
100
AcDbEntity
  8
0
  6
Continuous
 62
     7
100
AcDbPolyline
 90
        5
 70
   128
 43
0.0
 10
3.463209804848501
 20
8.8606960086873
 10
3.46371445050015
 20
8.861501288503637
 10
3.464604480380499
 20
8.86228647878146
 10
3.465840093213111
 20
8.862787187829648
 10
3.466362139142877
 20
8.862799192820589
  0
LWPOLYLINE
  5
8B
330
1F
100
AcDbEntity
  8
0
  6
Continuous
 62
     7
100
AcDbPolyline
 90
        9
 70
   128
 43
0.0
 10
3.380850910799151
 20
8.868544789911901
 10
3.38095461586028
 20
8.86799422422802
 10
3.38119252675314
 20
8.867051714586516
 10
3.381781779575662
 20
8.865452862271594
 10
3.383138824499067
 20
8.863129347654858
 10
3.386327368728148
 20
8.860110698687253
 10
3.389770076594423
 20
8.858533750747815
 10
3.393896392617266
 20
8.858075139963832
 10
3.394023674906871
 20
8.85810542397651
  0
LINE
  5
96
330
1F
100
AcDbEntity
  8
0
  6
Continuous
 62
     7
100
AcDbLine
 10
3.394018569439301
 20
8.858082605230294
 30
0.0
 11
3.396513121314638
 21
8.858247289329764
 31
0.0
  0
LINE
  5
B4A
330
1F
100
AcDbEntity
  8
0
  6
Continuous
 62
     7
100
AcDbLine
 10
3.466360573824067
 20
8.862858444114902
 30
0.0
 11
3.468855125699404
 21
8.863023128214373
 31
0.0
  0
LWPOLYLINE
  5
B4B
330
1F
100
AcDbEntity
  8
0
  6
Continuous
 62
     7
100
AcDbPolyline
 90
       12
 70
   128
 43
0.0
 10
3.468727587245149
 20
8.863016258855337
 10
3.468732948877371
 20
8.86301566294791
 10
3.473026781818322
 20
8.864037285764551
 10
3.476041669807336
 20
8.865899151691563
 10
3.478102810061262
 20
8.868090497647838
 10
3.479405438565799
 20
8.870307414264266
 10
3.48011788092509
 20
8.87229734808204
 10
3.480409485039704
 20
8.87372565671244
 10
3.480494318437077
 20
8.874463638568573
 10
3.480528018181486
 20
8.874972746048893
 10
3.48054257021246
 20
8.875465172365494
 10
3.480542197126356
 20
8.875550597902537
  0
LINE
  5
A6
330
1F
100
AcDbEntity
  8
0
  6
Continuous
 62
     7
100
AcDbLine
 10
3.371261999699542
 20
8.9964361133532
 30
0.0
 11
3.362751843534079
 21
8.98672275419848
 31
0.0
  0
LINE
  5
A7
330
1F
100
AcDbEntity
  8
0
  6
Continuous
 62
     7
100
AcDbLine
 10
3.369638263619216
 20
8.882410727760604
 30
0.0
 11
3.37935150010422
 21
8.873900431583886
 31
0.0
  0
LINE
  5
A8
330
1F
100
AcDbEntity
  8
0
  6
Continuous
 62
     7
100
AcDbLine
 10
3.481327253379531
 20
8.880632616735808
 30
0.0
 11
3.489837409544993
 21
8.890345975890527
 31
0.0
  0
LINE
  5
A9
330
1F
100
AcDbEntity
  8
0
  6
Continuous
 62
     7
100
AcDbLine
 10
3.482950989459856
 20
8.994658002328402
 30
0.0
 11
3.473237752974851
 21
9.003168298505122
 31
0.0
  0
LWPOLYLINE
  5
AA
330
1F
100
AcDbEntity
  8
0
  6
Continuous
 62
     7
100
AcDbPolyline
 90
        4
 70
   128
 43
0.0
 10
3.36722629025149
 20
8.88637840868524
 10
3.367368150592926
 20
8.885863149708928
 10
3.368114798590753
 20
8.884227557838285
 10
3.369549125878341
 20
8.882553335192371
  0
LWPOLYLINE
  5
B0
330
1F
100
AcDbEntity
  8
0
  6
Continuous
 62
     7
100
AcDbPolyline
 90
        4
 70
   128
 43
0.0
 10
3.362361778516441
 20
8.98618376099755
 10
3.361644162503869
 20
8.985071544152952
 10
3.361131590763557
 20
8.983754225631591
 10
3.360970004524357
 20
8.983006006309253
  0
LWPOLYLINE
  5
B6
330
1F
100
AcDbEntity
  8
0
  6
Continuous
 62
     7
100
AcDbPolyline
 90
        3
 70
   128
 43
0.0
 10
3.485218001561399
 20
8.991212373202563
 10
3.484474454488316
 20
8.992841172250724
 10
3.483237981748221
 20
8.994284448607827
  0
LWPOLYLINE
  5
BB
330
1F
100
AcDbEntity
  8
0
  6
Continuous
 62
     7
100
AcDbPolyline
 90
        4
 70
   128
 43
0.0
 10
3.490024456726693
 20
8.890570316334369
 10
3.490945090575204
 20
8.891997185936052
 10
3.491457662315515
 20
8.893314504457416
 10
3.491609745687557
 20
8.894018721092015
  0
LINE
  5
C1
330
1F
100
AcDbEntity
  8
0
  6
Continuous
 62
     7
100
AcDbLine
 10
3.625593962968165
 20
8.96915537073742
 30
0.0
 11
3.625609948503042
 21
8.969489253892535
 31
0.0
  0
LINE
  5
C2
330
1F
100
AcDbEntity
  8
0
  6
Continuous
 62
     7
100
AcDbLine
 10
1.207745950113946
 20
2.275905261401058
 30
0.0
 11
1.207745950113946
 21
2.424342761401058
 31
0.0
  0
LINE
  5
C3
330
1F
100
AcDbEntity
  8
0
  6
Continuous
 62
     7
100
AcDbLine
 10
1.207745950113946
 20
2.127467761401058
 30
0.0
 11
1.207745950113946
 21
2.275905261401058
 31
0.0
  0
LINE
  5
C4
330
1F
100
AcDbEntity
  8
0
  6
Continuous
 62
     7
100
AcDbLine
 10
2.343685696355705
 20
9.613146101718772
 30
0.0
 11
2.343685696355705
 21
8.72856226680309
 31
0.0
  0
LINE
  5
C5
330
1F
100
AcDbEntity
  8
0
  6
Continuous
 62
     7
100
AcDbLine
 10
2.40617617730298
 20
9.613146101718772
 30
0.0
 11
2.343685696355706
 21
9.613146101718772
 31
0.0
  0
LINE
  5
C6
330
1F
100
AcDbEntity
  8
0
  6
Continuous
 62
     7
100
AcDbLine
 10
2.40617617730298
 20
9.550646101718772
 30
0.0
 11
2.40617617730298
 21
9.613146101718772
 31
0.0
  0
LINE
  5
C7
330
1F
100
AcDbEntity
  8
0
  6
Continuous
 62
     7
100
AcDbLine
 10
2.40617617730298
 20
8.73832896483877
 30
0.0
 11
2.40617617730298
 21
9.550646101718772
 31
0.0
  0
LINE
  5
C8
330
1F
100
AcDbEntity
  8
0
  6
Continuous
 62
     7
100
AcDbLine
 10
2.40617617730298
 20
8.72856226680309
 30
0.0
 11
2.40617617730298
 21
8.73832896483877
 31
0.0
  0
LINE
  5
C9
330
1F
100
AcDbEntity
  8
0
  6
Continuous
 62
     7
100
AcDbLine
 10
2.40617617730298
 20
8.728562266803094
 30
0.0
 11
2.343685696355705
 21
8.728562266803094
 31
0.0
  0
LINE
  5
CA
330
1F
100
AcDbEntity
  8
0
  6
Continuous
 62
     7
100
AcDbLine
 10
3.211020545391396
 20
8.73832896483877
 30
0.0
 11
3.211020545391396
 21
8.72856226680309
 31
0.0
  0
LINE
  5
CB
330
1F
100
AcDbEntity
  8
0
  6
Continuous
 62
     7
100
AcDbLine
 10
3.211020545391396
 20
9.550646101718772
 30
0.0
 11
3.211020545391396
 21
8.73832896483877
 31
0.0
  0
LINE
  5
CC
330
1F
100
AcDbEntity
  8
0
  6
Continuous
 62
     7
100
AcDbLine
 10
3.211020545391396
 20
9.613146101718772
 30
0.0
 11
3.211020545391396
 21
9.550646101718772
 31
0.0
  0
LINE
  5
CD
330
1F
100
AcDbEntity
  8
0
  6
Continuous
 62
     7
100
AcDbLine
 10
3.27351102633867
 20
9.613146101718772
 30
0.0
 11
3.211020545391396
 21
9.613146101718772
 31
0.0
  0
LINE
  5
CE
330
1F
100
AcDbEntity
  8
0
  6
Continuous
 62
     7
100
AcDbLine
 10
3.273511026338671
 20
8.72856226680309
 30
0.0
 11
3.273511026338671
 21
9.613146101718772
 31
0.0
  0
LINE
  5
CF
330
1F
100
AcDbEntity
  8
0
  6
Continuous
 62
     7
100
AcDbLine
 10
3.27351102633867
 20
8.728562266803094
 30
0.0
 11
3.211020545391396
 21
8.728562266803094
 31
0.0
  0
LWPOLYLINE
  5
D0
330
1F
100
AcDbEntity
  8
0
  6
Continuous
 62
     7
100
AcDbPolyline
 90
        5
 70
   128
 43
0.0
 10
3.187491458015896
 20
9.740014709390277
 10
3.19778509227
 20
9.709415460677961
 10
3.205137818409051
 20
9.677761239641171
 10
3.209549636433049
 20
9.645519725722242
 10
3.211020546341993
 20
9.613146101718776
  0
LINE
  5
D7
330
1F
100
AcDbEntity
  8
0
  6
Continuous
 62
     7
100
AcDbLine
 10
3.211020545391396
 20
9.613146101718772
 30
0.0
 11
3.148520545391395
 21
9.613146101718772
 31
0.0
  0
LINE
  5
D8
330
1F
100
AcDbEntity
  8
0
  6
Continuous
 62
     7
100
AcDbLine
 10
3.148520545391395
 20
9.613146101718772
 30
0.0
 11
2.46867617730298
 21
9.613146101718772
 31
0.0
  0
LINE
  5
D9
330
1F
100
AcDbEntity
  8
0
  6
Continuous
 62
     7
100
AcDbLine
 10
2.46867617730298
 20
9.613146101718772
 30
0.0
 11
2.40617617730298
 21
9.613146101718772
 31
0.0
  0
LWPOLYLINE
  5
DA
330
1F
100
AcDbEntity
  8
0
  6
Continuous
 62
     7
100
AcDbPolyline
 90
        5
 70
   128
 43
0.0
 10
2.406176176352387
 20
9.613146101718776
 10
2.407647551790817
 20
9.645519887414379
 10
2.41205952499131
 20
9.677761450867944
 10
2.419412095953866
 20
9.709415613619488
 10
2.429705264678484
 20
9.740014709390286
  0
LINE
  5
E1
330
1F
100
AcDbEntity
  8
0
  6
Continuous
 62
     7
100
AcDbLine
 10
2.429705264678524
 20
9.740014709390268
 30
0.0
 11
3.187491458015876
 21
9.740014709390268
 31
0.0
  0
ARC
  5
E2
330
1F
100
AcDbEntity
  8
0
  6
Continuous
 62
     7
100
AcDbCircle
 10
2.46867617730298
 20
9.550646101718772
 30
0.0
 40
0.0625
100
AcDbArc
 50
90.0
 51
180.0000000000004
  0
LINE
  5
E3
330
1F
100
AcDbEntity
  8
0
  6
Continuous
 62
     7
100
AcDbLine
 10
3.219367245625965
 20
8.600398249913525
 30
0.0
 11
3.221159756672498
 21
8.60219076096006
 31
0.0
  0
LINE
  5
E4
330
1F
100
AcDbEntity
  8
0
  6
Continuous
 62
     7
100
AcDbLine
 10
3.219367245625964
 20
8.600398249913525
 30
0.0
 11
3.175186530700721
 21
8.644578964838768
 31
0.0
  0
LINE
  5
E5
330
1F
100
AcDbEntity
  8
0
  6
Continuous
 62
     7
100
AcDbLine
 10
3.176979041747257
 20
8.646371475885301
 30
0.0
 11
3.175186530700721
 21
8.64457896483877
 31
0.0
  0
LINE
  5
E6
330
1F
100
AcDbEntity
  8
0
  6
Continuous
 62
     7
100
AcDbLine
 10
3.176979041747255
 20
8.646371475885301
 30
0.0
 11
3.221159756672498
 21
8.602190760960058
 31
0.0
  0
LWPOLYLINE
  5
E7
330
1F
100
AcDbEntity
  8
0
  6
Continuous
 62
     7
100
AcDbPolyline
 90
       13
 70
   128
 43
0.0
 10
2.649445666498972
 20
8.392249421051062
 10
2.62942183382674
 20
8.416971926117473
 10
2.606840064498075
 20
8.44472132636023
 10
2.581700358512975
 20
8.475517210956617
 10
2.554002715871442
 20
8.509306520449963
 10
2.543854853338286
 20
8.521618998401888
 10
2.532606647104683
 20
8.535224719867514
 10
2.520258097170631
 20
8.550146040414516
 10
2.506809203536132
 20
8.566397497990394
 10
2.492259966201184
 20
8.583983355247453
 10
2.476610385165789
 20
8.602894947664696
 10
2.459860460429946
 20
8.62310786012725
 10
2.442010191993655
 20
8.644578964838768
  0
LINE
  5
F6
330
1F
100
AcDbEntity
  8
0
  6
Continuous
 62
     7
100
AcDbLine
 10
2.499926177302979
 20
8.64457896483877
 30
0.0
 11
2.442010191993654
 21
8.64457896483877
 31
0.0
  0
LINE
  5
F7
330
1F
100
AcDbEntity
  8
0
  6
Continuous
 62
     7
100
AcDbLine
 10
3.117270545391396
 20
8.64457896483877
 30
0.0
 11
2.499926177302979
 21
8.64457896483877
 31
0.0
  0
LINE
  5
F8
330
1F
100
AcDbEntity
  8
0
  6
Continuous
 62
     7
100
AcDbLine
 10
3.175186530700721
 20
8.64457896483877
 30
0.0
 11
3.117270545391396
 21
8.64457896483877
 31
0.0
  0
LWPOLYLINE
  5
F9
330
1F
100
AcDbEntity
  8
0
  6
Continuous
 62
     7
100
AcDbPolyline
 90
       15
 70
   128
 43
0.0
 10
3.175186530700722
 20
8.644578964838768
 10
3.158199772734279
 20
8.624166555142281
 10
3.143012240112195
 20
8.605885241391707
 10
3.129623932834467
 20
8.589755524351526
 10
3.118034850901098
 20
8.575774708748686
 10
3.103039052061314
 20
8.557641887390213
 10
3.088900311768359
 20
8.540515424467296
 10
3.075618630022232
 20
8.524403832374075
 10
3.063194006822934
 20
8.509306520449963
 10
3.044444004188145
 20
8.48645170264305
 10
3.026831139232103
 20
8.464913571867271
 10
3.010355411954808
 20
8.444719711183263
 10
2.995016822356261
 20
8.425881700649823
 10
2.98081537043646
 20
8.408396767197019
 10
2.967751056195407
 20
8.392249421051062
  0
LINE
  5
10A
330
1F
100
AcDbEntity
  8
0
  6
Continuous
 62
     7
100
AcDbLine
 10
2.967751056195405
 20
8.392249421051062
 30
0.0
 11
2.649445666498971
 21
8.392249421051062
 31
0.0
  0
LINE
  5
10B
330
1F
100
AcDbEntity
  8
0
  6
Continuous
 62
     7
100
AcDbLine
 10
2.442010191993654
 20
8.64457896483877
 30
0.0
 11
2.44021768094712
 21
8.646371475885301
 31
0.0
  0
LWPOLYLINE
  5
10C
330
1F
100
AcDbEntity
  8
0
  6
Continuous
 62
     7
100
AcDbPolyline
 90
        7
 70
   128
 43
0.0
 10
2.440217680947121
 20
8.646371475885301
 10
2.430193528889895
 20
8.657801996313406
 10
2.421747194809978
 20
8.670443381471033
 10
2.415023141864503
 20
8.684079417508112
 10
2.410136375913767
 20
8.69847687841226
 10
2.407170478501047
 20
8.713389515025296
 10
2.40617617730298
 20
8.72856226680309
  0
ARC
  5
115
330
1F
100
AcDbEntity
  8
0
  6
Continuous
 62
     7
100
AcDbCircle
 10
2.49992617730298
 20
8.73832896483877
 30
0.0
 40
0.09375
100
AcDbArc
 50
180.0000000000004
 51
270.0000000000006
  0
LINE
  5
116
330
1F
100
AcDbEntity
  8
0
  6
Continuous
 62
     7
100
AcDbLine
 10
2.442010191993655
 20
8.64457896483877
 30
0.0
 11
2.397829477068411
 21
8.600398249913525
 31
0.0
  0
LINE
  5
117
330
1F
100
AcDbEntity
  8
0
  6
Continuous
 62
     7
100
AcDbLine
 10
2.396036966021877
 20
8.60219076096006
 30
0.0
 11
2.397829477068411
 21
8.600398249913525
 31
0.0
  0
LINE
  5
118
330
1F
100
AcDbEntity
  8
0
  6
Continuous
 62
     7
100
AcDbLine
 10
2.396036966021877
 20
8.60219076096006
 30
0.0
 11
2.440217680947121
 21
8.646371475885301
 31
0.0
  0
LWPOLYLINE
  5
119
330
1F
100
AcDbEntity
  8
0
  6
Continuous
 62
     7
100
AcDbPolyline
 90
        7
 70
   128
 43
0.0
 10
3.211020545391396
 20
8.72856226680309
 10
3.210026244193329
 20
8.713389515025296
 10
3.207060346780609
 20
8.69847687841226
 10
3.202173580829874
 20
8.684079417508112
 10
3.195449527884398
 20
8.670443381471033
 10
3.187003193804481
 20
8.657801996313406
 10
3.176979041747256
 20
8.646371475885301
  0
ARC
  5
122
330
1F
100
AcDbEntity
  8
0
  6
Continuous
 62
     7
100
AcDbCircle
 10
3.117270545391396
 20
8.73832896483877
 30
0.0
 40
0.09375
100
AcDbArc
 50
270.0000000000008
 51
0.0
  0
LWPOLYLINE
  5
123
330
1F
100
AcDbEntity
  8
0
  6
Continuous
 62
     7
100
AcDbPolyline
 90
        5
 70
   128
 43
0.0
 10
2.429705264678524
 20
9.740014709390266
 10
2.412634486347936
 20
9.74005640349589
 10
2.397638172632529
 20
9.740181335704998
 10
2.385449693349326
 20
9.740383027338144
 10
2.377558517546608
 20
9.740645978400181
  0
LWPOLYLINE
  5
12A
330
1F
100
AcDbEntity
  8
0
  6
Continuous
 62
     7
100
AcDbPolyline
 90
        5
 70
   128
 43
0.0
 10
2.374119647899883
 20
9.740378891779072
 10
2.360633144951482
 20
9.709293821227902
 10
2.351123052117543
 20
9.677398241785655
 10
2.345517095806644
 20
9.645194043584576
 10
2.343685695405109
 20
9.613146101718776
  0
ARC
  5
131
330
1F
100
AcDbEntity
  8
0
  6
Continuous
 62
     7
100
AcDbCircle
 10
3.148520545391395
 20
9.550646101718772
 30
0.0
 40
0.0625000000000004
100
AcDbArc
 50
0.0
 51
90.0
  0
LWPOLYLINE
  5
132
330
1F
100
AcDbEntity
  8
0
  6
Continuous
 62
     7
100
AcDbPolyline
 90
        7
 70
   128
 43
0.0
 10
2.397829477068411
 20
8.600398249913525
 10
2.436093176840687
 20
8.562052106698898
 10
2.473613384933114
 20
8.52428581471834
 10
2.5098220009462
 20
8.487671212922853
 10
2.544174686592525
 20
8.452758741266765
 10
2.576150404535051
 20
8.420077915009823
 10
2.605264951573728
 20
8.390123630090436
  0
LWPOLYLINE
  5
13B
330
1F
100
AcDbEntity
  8
0
  6
Continuous
 62
     7
100
AcDbPolyline
 90
        5
 70
   128
 43
0.0
 10
2.649445666498971
 20
8.392249421051064
 10
2.635997498194153
 20
8.386623502701527
 10
2.623885959610251
 20
8.3844147572823
 10
2.613328326226808
 20
8.385586986527512
 10
2.605264951573728
 20
8.390123630090438
  0
LWPOLYLINE
  5
142
330
1F
100
AcDbEntity
  8
0
  6
Continuous
 62
     7
100
AcDbPolyline
 90
       12
 70
   128
 43
0.0
 10
3.011931771120647
 20
8.390123630090436
 10
3.027430845695203
 20
8.406096732020838
 10
3.043842856562318
 20
8.422944315423472
 10
3.061093939145013
 20
8.440590555365532
 10
3.079106452505339
 20
8.458956032447466
 10
3.097799328778398
 20
8.477958090241204
 10
3.117088438029741
 20
8.497511207297121
 10
3.136886966894044
 20
8.517527382045413
 10
3.157105809290937
 20
8.53791652885962
 10
3.177653967459528
 20
8.558586883499718
 10
3.198438961506702
 20
8.57944541611009
 10
3.219367245625965
 20
8.600398249913525
  0
LWPOLYLINE
  5
150
330
1F
100
AcDbEntity
  8
0
  6
Continuous
 62
     7
100
AcDbPolyline
 90
        5
 70
   128
 43
0.0
 10
3.011931771120647
 20
8.390123630090438
 10
3.003868396467568
 20
8.385586986527512
 10
2.993310763084125
 20
8.3844147572823
 10
2.981518052842026
 20
8.386507210255376
 10
2.967751056195405
 20
8.392249421051064
  0
LWPOLYLINE
  5
157
330
1F
100
AcDbEntity
  8
0
  6
Continuous
 62
     7
100
AcDbPolyline
 90
        5
 70
   128
 43
0.0
 10
3.273511027289266
 20
9.613146101718776
 10
3.271619390073447
 20
9.64570735139059
 10
3.265901392652351
 20
9.678117254655742
 10
3.256331443106191
 20
9.709919634917549
 10
3.242938866344822
 20
9.74064597840014
  0
LWPOLYLINE
  5
15E
330
1F
100
AcDbEntity
  8
0
  6
Continuous
 62
     7
100
AcDbPolyline
 90
        5
 70
   128
 43
0.0
 10
3.23963849228301
 20
9.740645976690466
 10
3.231766113042887
 20
9.740385016122865
 10
3.219560863821294
 20
9.740181363348484
 10
3.204265710168691
 20
9.740055697426964
 10
3.187491458015877
 20
9.740014709390266
  0
LINE
  5
165
330
1F
100
AcDbEntity
  8
0
  6
Continuous
 62
     7
100
AcDbLine
 10
3.242938866344801
 20
9.740645978400181
 30
0.0
 11
3.239638205147746
 21
9.740645978400181
 31
0.0
  0
LWPOLYLINE
  5
166
330
1F
100
AcDbEntity
  8
0
  6
Continuous
 62
     7
100
AcDbPolyline
 90
        7
 70
   128
 43
0.0
 10
3.221159756672499
 20
8.60219076096006
 10
3.236449564687649
 20
8.619605218712225
 10
3.249459733078821
 20
8.639027568867883
 10
3.259901795397821
 20
8.660169740953835
 10
3.267239201933997
 20
8.681646355914243
 10
3.271889262397021
 20
8.704556962468772
 10
3.27351102633867
 20
8.728562266803094
  0
LWPOLYLINE
  5
16F
330
1F
100
AcDbEntity
  8
0
  6
Continuous
 62
     7
100
AcDbPolyline
 90
        7
 70
   128
 43
0.0
 10
2.343685696355705
 20
8.728562266803094
 10
2.345307476075725
 20
8.704556846106115
 10
2.3499575515854
 20
8.681646242604005
 10
2.357294927296554
 20
8.660169740953835
 10
2.367737042559201
 20
8.639027477433983
 10
2.38074722242772
 20
8.61960513496582
 10
2.396036966021877
 20
8.60219076096006
  0
ARC
  5
178
330
1F
100
AcDbEntity
  8
0
  6
Continuous
 62
     7
100
AcDbCircle
 10
3.148520545391395
 20
9.550646101718772
 30
0.0
 40
0.0617908879872915
100
AcDbArc
 50
0.0
 51
49.38229733280657
  0
LINE
  5
179
330
1F
100
AcDbEntity
  8
0
  6
Continuous
 62
     7
100
AcDbLine
 10
3.211020545391396
 20
9.550646101718772
 30
0.0
 11
3.210311433378687
 21
9.550646101718772
 31
0.0
  0
LINE
  5
17A
330
1F
100
AcDbEntity
  8
0
  6
Continuous
 62
     7
100
AcDbLine
 10
2.46867617730298
 20
9.613146101718772
 30
0.0
 11
2.46867617730298
 21
9.612436989706065
 31
0.0
  0
ARC
  5
17B
330
1F
100
AcDbEntity
  8
0
  6
Continuous
 62
     7
100
AcDbCircle
 10
3.117270545391396
 20
8.73832896483877
 30
0.0
 40
0.093040887987291
100
AcDbArc
 50
270.0000000000008
 51
0.0
  0
LINE
  5
17C
330
1F
100
AcDbEntity
  8
0
  6
Continuous
 62
     7
100
AcDbLine
 10
3.211020545391396
 20
8.73832896483877
 30
0.0
 11
3.210311433378687
 21
8.73832896483877
 31
0.0
  0
LINE
  5
17D
330
1F
100
AcDbEntity
  8
0
  6
Continuous
 62
     7
100
AcDbLine
 10
3.117270545391396
 20
8.64457896483877
 30
0.0
 11
3.117270545391396
 21
8.645288076851479
 31
0.0
  0
LINE
  5
17E
330
1F
100
AcDbEntity
  8
0
  6
Continuous
 62
     7
100
AcDbLine
 10
3.210311433378687
 20
8.73832896483877
 30
0.0
 11
3.210311433378687
 21
9.550646101718772
 31
0.0
  0
LINE
  5
17F
330
1F
100
AcDbEntity
  8
0
  6
Continuous
 62
     7
100
AcDbLine
 10
2.712282901034713
 20
8.644971707618648
 30
0.0
 11
2.714506744602413
 21
8.644971707618648
 31
0.0
  0
LINE
  5
180
330
1F
100
AcDbEntity
  8
0
  6
Continuous
 62
     7
100
AcDbLine
 10
2.905230190892492
 20
8.645288076851479
 30
0.0
 11
2.904913821659661
 21
8.644971707618648
 31
0.0
  0
LINE
  5
181
330
1F
100
AcDbEntity
  8
0
  6
Continuous
 62
     7
100
AcDbLine
 10
2.905230190892492
 20
8.645288076851479
 30
0.0
 11
3.117270545391396
 21
8.645288076851479
 31
0.0
  0
LINE
  5
182
330
1F
100
AcDbEntity
  8
0
  6
Continuous
 62
     7
100
AcDbLine
 10
2.499926177302979
 20
8.64457896483877
 30
0.0
 11
2.499926177302979
 21
8.645288076851479
 31
0.0
  0
LINE
  5
183
330
1F
100
AcDbEntity
  8
0
  6
Continuous
 62
     7
100
AcDbLine
 10
2.499926177302979
 20
8.645288076851479
 30
0.0
 11
2.711966531801883
 21
8.645288076851479
 31
0.0
  0
LINE
  5
184
330
1F
100
AcDbEntity
  8
0
  6
Continuous
 62
     7
100
AcDbLine
 10
2.712282901034713
 20
8.644971707618648
 30
0.0
 11
2.711966531801883
 21
8.645288076851479
 31
0.0
  0
ARC
  5
185
330
1F
100
AcDbEntity
  8
0
  6
Continuous
 62
     7
100
AcDbCircle
 10
2.46867617730298
 20
9.550646101718772
 30
0.0
 40
0.0617908879872912
100
AcDbArc
 50
125.4739007532863
 51
180.0000000000004
  0
LINE
  5
186
330
1F
100
AcDbEntity
  8
0
  6
Continuous
 62
     7
100
AcDbLine
 10
2.40617617730298
 20
9.550646101718772
 30
0.0
 11
2.406885289315689
 21
9.550646101718772
 31
0.0
  0
LINE
  5
187
330
1F
100
AcDbEntity
  8
0
  6
Continuous
 62
     7
100
AcDbLine
 10
2.40617617730298
 20
8.73832896483877
 30
0.0
 11
2.406885289315689
 21
8.738328964838772
 31
0.0
  0
LINE
  5
188
330
1F
100
AcDbEntity
  8
0
  6
Continuous
 62
     7
100
AcDbLine
 10
2.406885289315689
 20
9.550646101718772
 30
0.0
 11
2.406885289315689
 21
8.738328964838772
 31
0.0
  0
ARC
  5
189
330
1F
100
AcDbEntity
  8
0
  6
Continuous
 62
     7
100
AcDbCircle
 10
2.49992617730298
 20
8.73832896483877
 30
0.0
 40
0.093040887987291
100
AcDbArc
 50
180.0000000000004
 51
270.0000000000006
  0
LWPOLYLINE
  5
18A
330
1F
100
AcDbEntity
  8
0
  6
Continuous
 62
     7
100
AcDbPolyline
 90
        9
 70
   128
 43
0.0
 10
2.435131055749747
 20
9.740315597912632
 10
2.425793827109426
 20
9.740331560481499
 10
2.41681145970603
 20
9.740378841530912
 10
2.408525328280401
 20
9.74045564414528
 10
2.401250347135304
 20
9.740559049442377
 10
2.395263001821987
 20
9.74068512750541
 10
2.390790841310881
 20
9.740829086739451
 10
2.38800382999633
 20
9.740985455975933
 10
2.387007888202285
 20
9.741148292404322
  0
LINE
  5
195
330
1F
100
AcDbEntity
  8
0
  6
Continuous
 62
     7
100
AcDbLine
 10
3.182065666944629
 20
9.740315597912632
 30
0.0
 11
2.435131055749747
 21
9.740315597912632
 31
0.0
  0
LWPOLYLINE
  5
196
330
1F
100
AcDbEntity
  8
0
  6
Continuous
 62
     7
100
AcDbPolyline
 90
        7
 70
   128
 43
0.0
 10
3.222199339966914
 20
9.740692059003935
 10
3.221933720872389
 20
9.74068512750541
 10
3.215946375559072
 20
9.740559049442377
 10
3.208671394413975
 20
9.74045564414528
 10
3.200385262988346
 20
9.740378841530912
 10
3.19140289558495
 20
9.740331560481499
 10
3.182065666944629
 20
9.740315597912632
  0
LINE
  5
19F
330
1F
100
AcDbEntity
  8
0
  6
Continuous
 62
     7
100
AcDbLine
 10
3.237408525888088
 20
9.740645978400183
 30
0.0
 11
3.238529753703072
 21
9.740698189476884
 31
0.0
  0
LINE
  5
1A0
330
1F
100
AcDbEntity
  8
0
  6
Continuous
 62
     7
100
AcDbLine
 10
3.239638205147747
 20
9.740645978400181
 30
0.0
 11
3.237408525888088
 21
9.740645978400181
 31
0.0
  0
LINE
  5
1A1
330
1F
100
AcDbEntity
  8
0
  6
Continuous
 62
     7
100
AcDbLine
 10
2.905230190892492
 20
8.647840470913518
 30
0.0
 11
2.905230190892492
 21
8.645288076851479
 31
0.0
  0
LINE
  5
1A2
330
1F
100
AcDbEntity
  8
0
  6
Continuous
 62
     7
100
AcDbLine
 10
2.711966531801883
 20
8.645288076851479
 30
0.0
 11
2.711966531801883
 21
8.648005031179384
 31
0.0
  0
LINE
  5
1A3
330
1F
100
AcDbEntity
  8
0
  6
Continuous
 62
     7
100
AcDbLine
 10
2.343685696355705
 20
9.613146101718772
 30
0.0
 11
2.339913817840669
 21
9.613146101718772
 31
0.0
  0
ARC
  5
1A4
330
1F
100
AcDbEntity
  8
0
  6
Continuous
 62
     7
100
AcDbCircle
 10
2.621098361347189
 20
9.613146101718772
 30
0.0
 40
0.2811845435065197
100
AcDbArc
 50
153.0354952895918
 51
180.0000000000004
  0
LINE
  5
1A5
330
1F
100
AcDbEntity
  8
0
  6
Continuous
 62
     7
100
AcDbLine
 10
2.343685696355705
 20
8.72856226680309
 30
0.0
 11
2.339913817840669
 21
8.724790388288056
 31
0.0
  0
LINE
  5
1A6
330
1F
100
AcDbEntity
  8
0
  6
Continuous
 62
     7
100
AcDbLine
 10
2.339913817840669
 20
9.613146101718772
 30
0.0
 11
2.339913817840669
 21
8.724790388288055
 31
0.0
  0
LINE
  5
1A7
330
1F
100
AcDbEntity
  8
0
  6
Continuous
 62
     7
100
AcDbLine
 10
2.392257205164455
 20
8.598411000102635
 30
0.0
 11
2.396036966021877
 21
8.60219076096006
 31
0.0
  0
LWPOLYLINE
  5
1A8
330
1F
100
AcDbEntity
  8
0
  6
Continuous
 62
     7
100
AcDbPolyline
 90
        8
 70
   128
 43
0.0
 10
2.339913817840669
 20
8.724790388288055
 10
2.341037496085391
 20
8.704777897787523
 10
2.344394405387505
 20
8.685017662992776
 10
2.349942347017554
 20
8.66575808406214
 10
2.357611579416613
 20
8.647241267554843
 10
2.367305694897123
 20
8.62969998297995
 10
2.378902831555864
 20
8.613354736718625
 10
2.392257205164455
 20
8.598411000102635
  0
LINE
  5
1B2
330
1F
100
AcDbEntity
  8
0
  6
Continuous
 62
     7
100
AcDbLine
 10
3.221159756672498
 20
8.60219076096006
 30
0.0
 11
3.224939517529921
 21
8.598411000102635
 31
0.0
  0
LINE
  5
1B3
330
1F
100
AcDbEntity
  8
0
  6
Continuous
 62
     7
100
AcDbLine
 10
3.277282904853706
 20
8.724790388288056
 30
0.0
 11
3.273511026338671
 21
8.72856226680309
 31
0.0
  0
LWPOLYLINE
  5
1B4
330
1F
100
AcDbEntity
  8
0
  6
Continuous
 62
     7
100
AcDbPolyline
 90
        8
 70
   128
 43
0.0
 10
3.224939517529921
 20
8.598411000102635
 10
3.238293891138512
 20
8.613354736718625
 10
3.249891027797253
 20
8.62969998297995
 10
3.259585143277764
 20
8.647241267554845
 10
3.267254375676823
 20
8.66575808406214
 10
3.272802317306872
 20
8.685017662992777
 10
3.276159226608986
 20
8.704777897787524
 10
3.277282904853707
 20
8.724790388288056
  0
LINE
  5
1BE
330
1F
100
AcDbEntity
  8
0
  6
Continuous
 62
     7
100
AcDbLine
 10
3.014291959319184
 20
8.3877634418919
 30
0.0
 11
3.011931771120648
 21
8.390123630090436
 31
0.0
  0
LINE
  5
1BF
330
1F
100
AcDbEntity
  8
0
  6
Continuous
 62
     7
100
AcDbLine
 10
3.014291959319184
 20
8.3877634418919
 30
0.0
 11
3.224939517529921
 21
8.598411000102635
 31
0.0
  0
LINE
  5
1C0
330
1F
100
AcDbEntity
  8
0
  6
Continuous
 62
     7
100
AcDbLine
 10
2.605264951573728
 20
8.390123630090438
 30
0.0
 11
2.602904763375191
 21
8.3877634418919
 31
0.0
  0
LINE
  5
1C1
330
1F
100
AcDbEntity
  8
0
  6
Continuous
 62
     7
100
AcDbLine
 10
2.392257205164455
 20
8.598411000102635
 30
0.0
 11
2.602904763375191
 21
8.3877634418919
 31
0.0
  0
ARC
  5
1C2
330
1F
100
AcDbEntity
  8
0
  6
Continuous
 62
     7
100
AcDbCircle
 10
2.996098361347187
 20
9.613146101718772
 30
0.0
 40
0.2811845435065212
100
AcDbArc
 50
0.0
 51
26.96450471040917
  0
LINE
  5
1C3
330
1F
100
AcDbEntity
  8
0
  6
Continuous
 62
     7
100
AcDbLine
 10
3.277282904853708
 20
9.613146101718772
 30
0.0
 11
3.273511026338671
 21
9.613146101718772
 31
0.0
  0
LINE
  5
1C4
330
1F
100
AcDbEntity
  8
0
  6
Continuous
 62
     7
100
AcDbLine
 10
3.246714659606488
 20
9.740645978400181
 30
0.0
 11
3.243317766291206
 21
9.740645978400153
 31
0.0
  0
LINE
  5
1C5
330
1F
100
AcDbEntity
  8
0
  6
Continuous
 62
     7
100
AcDbLine
 10
3.277282904853708
 20
8.724790388288056
 30
0.0
 11
3.277282904853708
 21
9.613146101718772
 31
0.0
  0
LINE
  5
1C6
330
1F
100
AcDbEntity
  8
0
  6
Continuous
 62
     7
100
AcDbLine
 10
2.649445666498971
 20
8.371813864068404
 30
0.0
 11
2.750221528763977
 21
8.371813864068404
 31
0.0
  0
LINE
  5
1C7
330
1F
100
AcDbEntity
  8
0
  6
Continuous
 62
     7
100
AcDbLine
 10
2.649445666498971
 20
8.392249421051062
 30
0.0
 11
2.649445666498971
 21
8.371813864068404
 31
0.0
  0
LINE
  5
1C8
330
1F
100
AcDbEntity
  8
0
  6
Continuous
 62
     7
100
AcDbLine
 10
2.967751056195405
 20
8.371813864068404
 30
0.0
 11
2.967751056195405
 21
8.392249421051062
 31
0.0
  0
LINE
  5
1C9
330
1F
100
AcDbEntity
  8
0
  6
Continuous
 62
     7
100
AcDbLine
 10
2.866975193930399
 20
8.371813864068404
 30
0.0
 11
2.967751056195405
 21
8.371813864068404
 31
0.0
  0
LWPOLYLINE
  5
1CA
330
1F
100
AcDbEntity
  8
0
  6
Continuous
 62
     7
100
AcDbPolyline
 90
        9
 70
   128
 43
0.0
 10
2.649445666498971
 20
8.371813864068404
 10
2.643321711857231
 20
8.372116521497523
 10
2.637256711394992
 20
8.37301784961004
 10
2.631309051750765
 20
8.374509171486805
 10
2.625535989944694
 20
8.37657613044773
 10
2.619993102175803
 20
8.379198828260925
 10
2.614733748800202
 20
8.382352016699263
 10
2.609808560640799
 20
8.386005340600429
 10
2.605264951573728
 20
8.390123630090438
  0
LWPOLYLINE
  5
1D5
330
1F
100
AcDbEntity
  8
0
  6
Continuous
 62
     7
100
AcDbPolyline
 90
        9
 70
   128
 43
0.0
 10
3.011931771120648
 20
8.390123630090436
 10
3.007388162053576
 20
8.38600534060043
 10
3.002462973894173
 20
8.382352016699263
 10
2.997203620518572
 20
8.379198828260925
 10
2.991660732749681
 20
8.376576130447733
 10
2.98588767094361
 20
8.374509171486805
 10
2.979940011299384
 20
8.373017849610042
 10
2.973875010837145
 20
8.372116521497523
 10
2.967751056195405
 20
8.371813864068404
  0
LINE
  5
1E0
330
1F
100
AcDbEntity
  8
0
  6
Continuous
 62
     7
100
AcDbLine
 10
2.967751056195405
 20
8.371813864068404
 30
0.0
 11
2.970103362051555
 21
8.369461558212254
 31
0.0
  0
LWPOLYLINE
  5
1E1
330
1F
100
AcDbEntity
  8
0
  6
Continuous
 62
     7
100
AcDbPolyline
 90
        3
 70
   128
 43
0.0
 10
2.996995708649522
 20
8.37554287519303
 10
3.004822644995941
 20
8.379992345597497
 10
3.014291959319185
 20
8.3877634418919
  0
LINE
  5
1E6
330
1F
100
AcDbEntity
  8
0
  6
Continuous
 62
     7
100
AcDbLine
 10
2.64709336064282
 20
8.369461558212254
 30
0.0
 11
2.649445666498971
 21
8.371813864068404
 31
0.0
  0
LWPOLYLINE
  5
1E7
330
1F
100
AcDbEntity
  8
0
  6
Continuous
 62
     7
100
AcDbPolyline
 90
        3
 70
   128
 43
0.0
 10
2.602904763375191
 20
8.3877634418919
 10
2.612374077698434
 20
8.379992345597497
 10
2.620201014044855
 20
8.37554287519303
  0
LINE
  5
1EC
330
1F
100
AcDbEntity
  8
0
  6
Continuous
 62
     7
100
AcDbLine
 10
3.14899574726563
 20
9.612445797846847
 30
0.0
 11
3.148948725321881
 21
9.611983636408056
 31
0.0
  0
LWPOLYLINE
  5
1ED
330
1F
100
AcDbEntity
  8
0
  6
Continuous
 62
     7
100
AcDbPolyline
 90
       10
 70
   128
 43
0.0
 10
3.209569362242994
 20
9.551769487530462
 10
3.208657231071619
 20
9.562297638609119
 10
3.205930759220864
 20
9.57250746561921
 10
3.201472789158253
 20
9.582088748133463
 10
3.195418774048296
 20
9.590750363731043
 10
3.187952662076631
 20
9.598229133605003
 10
3.17930130727748
 20
9.604297819117168
 10
3.16972757668862
 20
9.60877202632915
 10
3.159522363269453
 20
9.611515808718874
 10
3.14899574726563
 20
9.612445797846847
  0
LWPOLYLINE
  5
1F9
330
1F
100
AcDbEntity
  8
0
  6
Continuous
 62
     7
100
AcDbPolyline
 90
       10
 70
   128
 43
0.0
 10
3.148948725321881
 20
9.611983636408056
 10
3.159407148134265
 20
9.61105967190629
 10
3.16954625046207
 20
9.608333664201014
 10
3.1790579608117
 20
9.60388844165693
 10
3.18765327067734
 20
9.597859070111642
 10
3.195071015918159
 20
9.59042874896855
 10
3.201085812098574
 20
9.581823244775665
 10
3.205514902680276
 20
9.572304031423284
 10
3.208223711987171
 20
9.562160345392174
 10
3.209129934219193
 20
9.551700397449432
  0
LINE
  5
205
330
1F
100
AcDbEntity
  8
0
  6
Continuous
 62
     7
100
AcDbLine
 10
3.209129934219193
 20
9.551700397449432
 30
0.0
 11
3.208443462980769
 21
8.739387421889402
 31
0.0
  0
LWPOLYLINE
  5
206
330
1F
100
AcDbEntity
  8
0
  6
Continuous
 62
     7
100
AcDbPolyline
 90
       12
 70
   128
 43
0.0
 10
3.208443462980769
 20
8.739387421889402
 10
3.2075013054991
 20
8.726368998260249
 10
3.20471601727975
 20
8.713617177915374
 10
3.200144298758757
 20
8.701391551143786
 10
3.193879216941462
 20
8.68994099645076
 10
3.186048310826659
 20
8.679498614109171
 10
3.176810995080379
 20
8.670276980910149
 10
3.166355314812996
 20
8.662463822712636
 10
3.154894117523062
 20
8.656218192886241
 10
3.142660720136039
 20
8.651667234443321
 10
3.129904159344518
 20
8.648903591773896
 10
3.116884121939333
 20
8.647983524673027
  0
LINE
  5
214
330
1F
100
AcDbEntity
  8
0
  6
Continuous
 62
     7
100
AcDbLine
 10
3.116884121939333
 20
8.647983524673027
 30
0.0
 11
2.499541303464927
 21
8.648509180136747
 31
0.0
  0
LWPOLYLINE
  5
215
330
1F
100
AcDbEntity
  8
0
  6
Continuous
 62
     7
100
AcDbPolyline
 90
       12
 70
   128
 43
0.0
 10
2.499541303464927
 20
8.648509180136747
 10
2.48652283986096
 20
8.649451418517353
 10
2.473770968435038
 20
8.652236781123197
 10
2.461545280516033
 20
8.656808566003946
 10
2.450094655854004
 20
8.663073704803365
 10
2.439652196146194
 20
8.67090465736267
 10
2.430430479758687
 20
8.680142008070352
 10
2.4226172342439
 20
8.690597711104322
 10
2.416371514748973
 20
8.70205891850257
 10
2.411820466111655
 20
8.714292313133857
 10
2.409056734558062
 20
8.727048858361691
 10
2.408136581692686
 20
8.740068867712067
  0
LINE
  5
223
330
1F
100
AcDbEntity
  8
0
  6
Continuous
 62
     7
100
AcDbLine
 10
2.408136581692686
 20
8.740068867712067
 30
0.0
 11
2.408823052931111
 21
9.552381843272094
 31
0.0
  0
LWPOLYLINE
  5
224
330
1F
100
AcDbEntity
  8
0
  6
Continuous
 62
     7
100
AcDbPolyline
 90
       10
 70
   128
 43
0.0
 10
2.408823052931111
 20
9.552381843272094
 10
2.409746952877916
 20
9.562840232901218
 10
2.412472902771177
 20
9.572979291340038
 10
2.416918076002787
 20
9.582490948428504
 10
2.422947408233466
 20
9.591086197279118
 10
2.430377701254378
 20
9.598503875604953
 10
2.438983189371989
 20
9.604518601003608
 10
2.448502399184434
 20
9.608947619087443
 10
2.458646094318514
 20
9.611656356383172
 10
2.469106063730538
 20
9.612562509278755
  0
LINE
  5
230
330
1F
100
AcDbEntity
  8
0
  6
Continuous
 62
     7
100
AcDbLine
 10
2.469106063730538
 20
9.612562509278755
 30
0.0
 11
3.148948725321881
 21
9.611983636408056
 31
0.0
  0
LWPOLYLINE
  5
231
330
1F
100
AcDbEntity
  8
0
  6
Continuous
 62
     7
100
AcDbPolyline
 90
        9
 70
   128
 43
0.0
 10
2.589777085385061
 20
9.161787346733853
 10
2.590385021557561
 20
9.167906786238776
 10
2.592175123702595
 20
9.17379003263106
 10
2.595078599198628
 20
9.179210996051204
 10
2.598983869110636
 20
9.183961351915087
 10
2.603740856106001
 20
9.18785854671089
 10
2.609166751842242
 20
9.190752813428185
 10
2.615053042189091
 20
9.192532927020146
 10
2.621173520309588
 20
9.193130478719732
  0
LINE
  5
23C
330
1F
100
AcDbEntity
  8
0
  6
Continuous
 62
     7
100
AcDbLine
 10
2.589724268017984
 20
9.099287666907445
 30
0.0
 11
2.589777085385061
 21
9.161787346733853
 31
0.0
  0
LWPOLYLINE
  5
23D
330
1F
100
AcDbEntity
  8
0
  6
Continuous
 62
     7
100
AcDbPolyline
 90
        9
 70
   128
 43
0.0
 10
2.621067682750708
 20
9.067891113153662
 10
2.614948223398329
 20
9.06849908692315
 10
2.609064950205148
 20
9.070289222070713
 10
2.603643954060601
 20
9.073192724706544
 10
2.598893560806394
 20
9.077098014852654
 10
2.594996325391234
 20
9.081855014398837
 10
2.592102016386531
 20
9.087280914520292
 10
2.59032186046419
 20
9.09316720091823
 10
2.589724268017984
 20
9.099287666907445
  0
LINE
  5
248
330
1F
100
AcDbEntity
  8
0
  6
Continuous
 62
     7
100
AcDbLine
 10
2.996066741452328
 20
9.06757180871179
 30
0.0
 11
2.621067682750708
 21
9.067891113153662
 31
0.0
  0
LWPOLYLINE
  5
249
330
1F
100
AcDbEntity
  8
0
  6
Continuous
 62
     7
100
AcDbPolyline
 90
        9
 70
   128
 43
0.0
 10
3.027463176376855
 20
9.098914940697671
 10
3.026855240204355
 20
9.092795501192747
 10
3.025065138059322
 20
9.086912254800465
 10
3.022161662563289
 20
9.08149129138032
 10
3.018256392651281
 20
9.076740935516435
 10
3.013499405655915
 20
9.07284374072063
 10
3.008073509919674
 20
9.069949474003339
 10
3.002187219572826
 20
9.068169360411378
 10
2.996066741452328
 20
9.06757180871179
  0
LINE
  5
254
330
1F
100
AcDbEntity
  8
0
  6
Continuous
 62
     7
100
AcDbLine
 10
3.027515993743932
 20
9.161414620524077
 30
0.0
 11
3.027463176376855
 21
9.098914940697671
 31
0.0
  0
LWPOLYLINE
  5
255
330
1F
100
AcDbEntity
  8
0
  6
Continuous
 62
     7
100
AcDbPolyline
 90
        9
 70
   128
 43
0.0
 10
2.996172579011208
 20
9.19281117427786
 10
3.002292038363587
 20
9.19220320050837
 10
3.008175311556767
 20
9.190413065360808
 10
3.013596307701314
 20
9.187509562724978
 10
3.018346700955521
 20
9.18360427257887
 10
3.02224393637068
 20
9.178847273032687
 10
3.025138245375382
 20
9.173421372911232
 10
3.026918401297724
 20
9.167535086513293
 10
3.027515993743932
 20
9.161414620524077
  0
LINE
  5
260
330
1F
100
AcDbEntity
  8
0
  6
Continuous
 62
     7
100
AcDbLine
 10
2.621173520309588
 20
9.193130478719732
 30
0.0
 11
2.996172579011208
 21
9.19281117427786
 31
0.0
  0
LINE
  5
261
330
1F
100
AcDbEntity
  8
0
  6
Continuous
 62
     7
100
AcDbLine
 10
2.469153085674287
 20
9.613024670717543
 30
0.0
 11
2.469106063730538
 21
9.612562509278755
 31
0.0
  0
LINE
  5
262
330
1F
100
AcDbEntity
  8
0
  6
Continuous
 62
     7
100
AcDbLine
 10
3.14899574726563
 20
9.612445797846847
 30
0.0
 11
2.469153085674287
 21
9.613024670717543
 31
0.0
  0
LINE
  5
263
330
1F
100
AcDbEntity
  8
0
  6
Continuous
 62
     7
100
AcDbLine
 10
3.20888289100457
 20
8.739456511970435
 30
0.0
 11
3.209569362242994
 21
9.551769487530462
 31
0.0
  0
LINE
  5
264
330
1F
100
AcDbEntity
  8
0
  6
Continuous
 62
     7
100
AcDbLine
 10
2.408477005004794
 20
9.5524516021707
 30
0.0
 11
2.408823052931111
 21
9.552381843272094
 31
0.0
  0
LWPOLYLINE
  5
265
330
1F
100
AcDbEntity
  8
0
  6
Continuous
 62
     7
100
AcDbPolyline
 90
       10
 70
   128
 43
0.0
 10
2.469153085674287
 20
9.613024670717543
 10
2.458624912986362
 20
9.61211260933471
 10
2.448415076813945
 20
9.609386209964663
 10
2.438833797862708
 20
9.604928312872635
 10
2.430172198445223
 20
9.598874369005964
 10
2.42269345687681
 20
9.591408324385593
 10
2.416624810935599
 20
9.582757030999312
 10
2.412150653357631
 20
9.573183354018902
 10
2.40940692915688
 20
9.562978184774893
 10
2.408477005004794
 20
9.5524516021707
  0
LINE
  5
271
330
1F
100
AcDbEntity
  8
0
  6
Continuous
 62
     7
100
AcDbLine
 10
3.027410256877557
 20
9.161435935743093
 30
0.0
 11
3.027515993743932
 21
9.161414620524077
 31
0.0
  0
LWPOLYLINE
  5
272
330
1F
100
AcDbEntity
  8
0
  6
Continuous
 62
     7
100
AcDbPolyline
 90
        9
 70
   128
 43
0.0
 10
3.027410256877557
 20
9.161435935743093
 10
3.026814950475966
 20
9.16753298835349
 10
3.025041604405202
 20
9.173396757208884
 10
3.022158367360261
 20
9.178801900960613
 10
3.018276040523843
 20
9.183540702965528
 10
3.013543819539036
 20
9.187431053720132
 10
3.008143561004426
 20
9.190323449226664
 10
3.002282793826999
 20
9.19210673634788
 10
2.996186744002627
 20
9.192712384359787
  0
LINE
  5
27D
330
1F
100
AcDbEntity
  8
0
  6
Continuous
 62
     7
100
AcDbLine
 10
2.996186744002627
 20
9.192712384359787
 30
0.0
 11
2.996172579011208
 21
9.19281117427786
 31
0.0
  0
LINE
  5
27E
330
1F
100
AcDbEntity
  8
0
  6
Continuous
 62
     7
100
AcDbLine
 10
2.996186744002627
 20
9.192712384359787
 30
0.0
 11
2.621187685301008
 21
9.193031688801657
 31
0.0
  0
LINE
  5
27F
330
1F
100
AcDbEntity
  8
0
  6
Continuous
 62
     7
100
AcDbLine
 10
2.621187685301008
 20
9.193031688801657
 30
0.0
 11
2.621173520309588
 21
9.193130478719732
 31
0.0
  0
LINE
  5
280
330
1F
100
AcDbEntity
  8
0
  6
Continuous
 62
     7
100
AcDbLine
 10
3.02735743951048
 20
9.09893625591669
 30
0.0
 11
3.027463176376855
 21
9.098914940697671
 31
0.0
  0
LINE
  5
281
330
1F
100
AcDbEntity
  8
0
  6
Continuous
 62
     7
100
AcDbLine
 10
3.02735743951048
 20
9.09893625591669
 30
0.0
 11
3.027410256877557
 21
9.161435935743093
 31
0.0
  0
LINE
  5
282
330
1F
100
AcDbEntity
  8
0
  6
Continuous
 62
     7
100
AcDbLine
 10
2.40779053376637
 20
8.740138626610669
 30
0.0
 11
2.408136581692686
 21
8.740068867712067
 31
0.0
  0
LINE
  5
283
330
1F
100
AcDbEntity
  8
0
  6
Continuous
 62
     7
100
AcDbLine
 10
2.408477005004794
 20
9.5524516021707
 30
0.0
 11
2.40779053376637
 21
8.740138626610669
 31
0.0
  0
LINE
  5
284
330
1F
100
AcDbEntity
  8
0
  6
Continuous
 62
     7
100
AcDbLine
 10
2.996081109268474
 20
9.067713024706977
 30
0.0
 11
2.996066741452328
 21
9.06757180871179
 31
0.0
  0
LWPOLYLINE
  5
285
330
1F
100
AcDbEntity
  8
0
  6
Continuous
 62
     7
100
AcDbPolyline
 90
        9
 70
   128
 43
0.0
 10
2.996081109268474
 20
9.067713024706977
 10
3.002178173963743
 20
9.068308290517823
 10
3.008041946752944
 20
9.070081594420135
 10
3.013447086136231
 20
9.072964789339437
 10
3.01818587563834
 20
9.076847075711886
 10
3.022076206236249
 20
9.081579259449402
 10
3.024968574706803
 20
9.086979485384795
 10
3.026751828951737
 20
9.09284022586385
 10
3.02735743951048
 20
9.09893625591669
  0
LINE
  5
290
330
1F
100
AcDbEntity
  8
0
  6
Continuous
 62
     7
100
AcDbLine
 10
2.621082050566854
 20
9.068032329148847
 30
0.0
 11
2.621067682750708
 21
9.067891113153662
 31
0.0
  0
LINE
  5
291
330
1F
100
AcDbEntity
  8
0
  6
Continuous
 62
     7
100
AcDbLine
 10
2.621082050566854
 20
9.068032329148847
 30
0.0
 11
2.996081109268474
 21
9.067713024706977
 31
0.0
  0
LWPOLYLINE
  5
292
330
1F
100
AcDbEntity
  8
0
  6
Continuous
 62
     7
100
AcDbPolyline
 90
        9
 70
   128
 43
0.0
 10
2.621187685301008
 20
9.193031688801657
 10
2.615090620605738
 20
9.192436422990813
 10
2.609226847816537
 20
9.1906631190885
 10
2.60382170843325
 20
9.1877799241692
 10
2.599082918931141
 20
9.183897637796752
 10
2.595192588333232
 20
9.179165454059232
 10
2.592300219862678
 20
9.17376522812384
 10
2.590516965617744
 20
9.167904487644787
 10
2.589911355059001
 20
9.161808457591944
  0
LINE
  5
29D
330
1F
100
AcDbEntity
  8
0
  6
Continuous
 62
     7
100
AcDbLine
 10
2.589911355059001
 20
9.161808457591944
 30
0.0
 11
2.589777085385061
 21
9.161787346733853
 31
0.0
  0
LINE
  5
29E
330
1F
100
AcDbEntity
  8
0
  6
Continuous
 62
     7
100
AcDbLine
 10
2.589911355059001
 20
9.161808457591944
 30
0.0
 11
2.589858537691924
 21
9.09930877776554
 31
0.0
  0
LINE
  5
29F
330
1F
100
AcDbEntity
  8
0
  6
Continuous
 62
     7
100
AcDbLine
 10
2.589858537691924
 20
9.09930877776554
 30
0.0
 11
2.589724268017984
 21
9.099287666907445
 31
0.0
  0
LWPOLYLINE
  5
2A0
330
1F
100
AcDbEntity
  8
0
  6
Continuous
 62
     7
100
AcDbPolyline
 90
       12
 70
   128
 43
0.0
 10
3.11693048009307
 20
8.64766021221388
 10
3.130006413317871
 20
8.648584229219274
 10
3.142817738807736
 20
8.651359736376284
 10
3.155103654920504
 20
8.65593023236309
 10
3.166614055833773
 20
8.662202675061621
 10
3.177114622978205
 20
8.67004937562677
 10
3.186391595087876
 20
8.679310597863042
 10
3.19425611976321
 20
8.68979780999287
 10
3.200548097961234
 20
8.701297522619912
 10
3.205139443150402
 20
8.713575634757515
 10
3.207936688783011
 20
8.726382199449704
 10
3.20888289100457
 20
8.739456511970435
  0
LWPOLYLINE
  5
2AE
330
1F
100
AcDbEntity
  8
0
  6
Continuous
 62
     7
100
AcDbPolyline
 90
        9
 70
   128
 43
0.0
 10
2.589858537691924
 20
9.09930877776554
 10
2.590453844093516
 20
9.093211725155145
 10
2.59222719016428
 20
9.087347956299748
 10
2.595110427209221
 20
9.081942812548021
 10
2.59899275404564
 20
9.07720401054311
 10
2.603724975030447
 20
9.073313659788502
 10
2.609125233565057
 20
9.070421264281972
 10
2.614986000742483
 20
9.068637977160758
 10
2.621082050566854
 20
9.068032329148847
  0
LINE
  5
2B9
330
1F
100
AcDbEntity
  8
0
  6
Continuous
 62
     7
100
AcDbLine
 10
2.902008835531272
 20
8.64784321383527
 30
0.0
 11
3.11693048009307
 21
8.64766021221388
 31
0.0
  0
LINE
  5
2BA
330
1F
100
AcDbEntity
  8
0
  6
Continuous
 62
     7
100
AcDbLine
 10
2.714509306180461
 20
8.648002866056206
 30
0.0
 11
2.902008835531272
 21
8.64784321383527
 31
0.0
  0
LINE
  5
2BB
330
1F
100
AcDbEntity
  8
0
  6
Continuous
 62
     7
100
AcDbLine
 10
2.499587661618664
 20
8.648185867677597
 30
0.0
 11
2.714509306180461
 21
8.648002866056206
 31
0.0
  0
LINE
  5
2BC
330
1F
100
AcDbEntity
  8
0
  6
Continuous
 62
     7
100
AcDbLine
 10
3.006718160261609
 20
9.1664535326469
 30
0.0
 11
3.006618078868131
 21
9.166363732854892
 31
0.0
  0
LINE
  5
2BD
330
1F
100
AcDbEntity
  8
0
  6
Continuous
 62
     7
100
AcDbLine
 10
3.006718160261609
 20
9.1664535326469
 30
0.0
 11
3.005389373141772
 21
9.158954697107495
 31
0.0
  0
LINE
  5
2BE
330
1F
100
AcDbEntity
  8
0
  6
Continuous
 62
     7
100
AcDbLine
 10
3.005389373141772
 20
9.158954697107495
 30
0.0
 11
3.005316355920613
 21
9.15901763041637
 31
0.0
  0
LINE
  5
2BF
330
1F
100
AcDbEntity
  8
0
  6
Continuous
 62
     7
100
AcDbLine
 10
3.006618078843978
 20
9.166363732854842
 30
0.0
 11
3.00531635589646
 21
9.159017630416319
 31
0.0
  0
LINE
  5
2C0
330
1F
100
AcDbEntity
  8
0
  6
Continuous
 62
     7
100
AcDbLine
 10
2.9077143141158
 20
9.166537832506068
 30
0.0
 11
2.907769174095782
 21
9.16644790078448
 31
0.0
  0
LINE
  5
2C1
330
1F
100
AcDbEntity
  8
0
  6
Continuous
 62
     7
100
AcDbLine
 10
2.9077143141158
 20
9.166537832506068
 30
0.0
 11
3.006718160261609
 21
9.1664535326469
 31
0.0
  0
LINE
  5
2C2
330
1F
100
AcDbEntity
  8
0
  6
Continuous
 62
     7
100
AcDbLine
 10
2.907769174106345
 20
9.166447913284417
 30
0.0
 11
3.006618078878695
 21
9.166363745354829
 31
0.0
  0
LINE
  5
2C3
330
1F
100
AcDbEntity
  8
0
  6
Continuous
 62
     7
100
AcDbLine
 10
2.965968527312435
 20
9.15905113433108
 30
0.0
 11
2.95445237227385
 21
9.0940612263229
 31
0.0
  0
LINE
  5
2C4
330
1F
100
AcDbEntity
  8
0
  6
Continuous
 62
     7
100
AcDbLine
 10
2.954452372239047
 20
9.094061213822918
 30
0.0
 11
2.934298978541681
 21
9.094078374047662
 31
0.0
  0
LINE
  5
2C5
330
1F
100
AcDbEntity
  8
0
  6
Continuous
 62
     7
100
AcDbLine
 10
2.934298978571189
 20
9.094078386539907
 30
0.0
 11
2.945815129180483
 21
9.15906826955197
 31
0.0
  0
LINE
  5
2C6
330
1F
100
AcDbEntity
  8
0
  6
Continuous
 62
     7
100
AcDbLine
 10
2.945815129172102
 20
9.159068282059595
 30
0.0
 11
2.906467446729535
 21
9.159101785849776
 31
0.0
  0
LINE
  5
2C7
330
1F
100
AcDbEntity
  8
0
  6
Continuous
 62
     7
100
AcDbLine
 10
2.906467446737917
 20
9.159101773342151
 30
0.0
 11
2.907769174114726
 21
9.166447900776792
 31
0.0
  0
LINE
  5
2C8
330
1F
100
AcDbEntity
  8
0
  6
Continuous
 62
     7
100
AcDbLine
 10
3.00531635591005
 20
9.159017617916437
 30
0.0
 11
2.965968527277631
 21
9.159051121831096
 31
0.0
  0
LINE
  5
2C9
330
1F
100
AcDbEntity
  8
0
  6
Continuous
 62
     7
100
AcDbLine
 10
3.005389373141772
 20
9.158954697107495
 30
0.0
 11
2.966041690699208
 21
9.158988200897676
 31
0.0
  0
LINE
  5
2CA
330
1F
100
AcDbEntity
  8
0
  6
Continuous
 62
     7
100
AcDbLine
 10
2.966041690699208
 20
9.158988200897676
 30
0.0
 11
2.965968527288195
 21
9.159051134331031
 31
0.0
  0
LINE
  5
2CB
330
1F
100
AcDbEntity
  8
0
  6
Continuous
 62
     7
100
AcDbLine
 10
2.966041690699208
 20
9.158988200897676
 30
0.0
 11
2.954525535660621
 21
9.093998292889498
 31
0.0
  0
LINE
  5
2CC
330
1F
100
AcDbEntity
  8
0
  6
Continuous
 62
     7
100
AcDbLine
 10
2.954525535660621
 20
9.093998292889498
 30
0.0
 11
2.95445237224961
 21
9.094061226322854
 31
0.0
  0
LINE
  5
2CD
330
1F
100
AcDbEntity
  8
0
  6
Continuous
 62
     7
100
AcDbLine
 10
2.934217054399944
 20
9.094015585168302
 30
0.0
 11
2.934298978552244
 21
9.094078386547597
 31
0.0
  0
LINE
  5
2CE
330
1F
100
AcDbEntity
  8
0
  6
Continuous
 62
     7
100
AcDbLine
 10
2.934217054399944
 20
9.094015585168302
 30
0.0
 11
2.945733209438528
 21
9.15900549317648
 31
0.0
  0
LINE
  5
2CF
330
1F
100
AcDbEntity
  8
0
  6
Continuous
 62
     7
100
AcDbLine
 10
2.945733209438528
 20
9.15900549317648
 30
0.0
 11
2.945815129161538
 21
9.159068269559658
 31
0.0
  0
LINE
  5
2D0
330
1F
100
AcDbEntity
  8
0
  6
Continuous
 62
     7
100
AcDbLine
 10
2.945733209438528
 20
9.15900549317648
 30
0.0
 11
2.906385526995964
 21
9.159038996966661
 31
0.0
  0
LINE
  5
2D1
330
1F
100
AcDbEntity
  8
0
  6
Continuous
 62
     7
100
AcDbLine
 10
2.906385526995964
 20
9.159038996966661
 30
0.0
 11
2.906467446718972
 21
9.15910177334984
 31
0.0
  0
LINE
  5
2D2
330
1F
100
AcDbEntity
  8
0
  6
Continuous
 62
     7
100
AcDbLine
 10
2.906385526995964
 20
9.159038996966661
 30
0.0
 11
2.9077143141158
 21
9.166537832506068
 31
0.0
  0
LINE
  5
2D3
330
1F
100
AcDbEntity
  8
0
  6
Continuous
 62
     7
100
AcDbLine
 10
2.88232871253995
 20
9.166559447854572
 30
0.0
 11
2.882228631146473
 21
9.166469648062566
 31
0.0
  0
LINE
  5
2D4
330
1F
100
AcDbEntity
  8
0
  6
Continuous
 62
     7
100
AcDbLine
 10
2.88232871253995
 20
9.166559447854572
 30
0.0
 11
2.869483770381529
 21
9.094070704306988
 31
0.0
  0
LINE
  5
2D5
330
1F
100
AcDbEntity
  8
0
  6
Continuous
 62
     7
100
AcDbLine
 10
2.869483770381529
 20
9.094070704306988
 30
0.0
 11
2.869410753160369
 21
9.094133637615865
 31
0.0
  0
LINE
  5
2D6
330
1F
100
AcDbEntity
  8
0
  6
Continuous
 62
     7
100
AcDbLine
 10
2.88222863112232
 20
9.166469648062515
 30
0.0
 11
2.869410753136217
 21
9.094133637615816
 31
0.0
  0
LINE
  5
2D7
330
1F
100
AcDbEntity
  8
0
  6
Continuous
 62
     7
100
AcDbLine
 10
2.862020231279271
 20
9.166576740133376
 30
0.0
 11
2.862075091259253
 21
9.166486808411792
 31
0.0
  0
LINE
  5
2D8
330
1F
100
AcDbEntity
  8
0
  6
Continuous
 62
     7
100
AcDbLine
 10
2.862020231279271
 20
9.166576740133376
 30
0.0
 11
2.88232871253995
 21
9.166559447854572
 31
0.0
  0
LINE
  5
2D9
330
1F
100
AcDbEntity
  8
0
  6
Continuous
 62
     7
100
AcDbLine
 10
2.862075091269817
 20
9.166486820911725
 30
0.0
 11
2.882228631157036
 21
9.166469660562504
 31
0.0
  0
LINE
  5
2DA
330
1F
100
AcDbEntity
  8
0
  6
Continuous
 62
     7
100
AcDbLine
 10
2.849257213292095
 20
9.094150797957399
 30
0.0
 11
2.862075091278198
 21
9.1664868084041
 31
0.0
  0
LINE
  5
2DB
330
1F
100
AcDbEntity
  8
0
  6
Continuous
 62
     7
100
AcDbLine
 10
2.869410753149805
 20
9.09413362511593
 30
0.0
 11
2.849257213262587
 21
9.094150785465152
 31
0.0
  0
LINE
  5
2DC
330
1F
100
AcDbEntity
  8
0
  6
Continuous
 62
     7
100
AcDbLine
 10
2.84917528912085
 20
9.094087996585792
 30
0.0
 11
2.84925721327315
 21
9.09415079796509
 31
0.0
  0
LINE
  5
2DD
330
1F
100
AcDbEntity
  8
0
  6
Continuous
 62
     7
100
AcDbLine
 10
2.84917528912085
 20
9.094087996585792
 30
0.0
 11
2.862020231279271
 21
9.166576740133376
 31
0.0
  0
LINE
  5
2DE
330
1F
100
AcDbEntity
  8
0
  6
Continuous
 62
     7
100
AcDbLine
 10
2.954525535660621
 20
9.093998292889498
 30
0.0
 11
2.934217054399944
 21
9.094015585168302
 31
0.0
  0
LINE
  5
2DF
330
1F
100
AcDbEntity
  8
0
  6
Continuous
 62
     7
100
AcDbLine
 10
2.836634629703422
 20
9.16659835548188
 30
0.0
 11
2.836534552739236
 21
9.166508580685992
 31
0.0
  0
LINE
  5
2E0
330
1F
100
AcDbEntity
  8
0
  6
Continuous
 62
     7
100
AcDbLine
 10
2.836634629703422
 20
9.16659835548188
 30
0.0
 11
2.835305842583586
 21
9.159099519942474
 31
0.0
  0
LINE
  5
2E1
330
1F
100
AcDbEntity
  8
0
  6
Continuous
 62
     7
100
AcDbLine
 10
2.835305842583586
 20
9.159099519942474
 30
0.0
 11
2.835232820933137
 21
9.159162428255236
 31
0.0
  0
LINE
  5
2E2
330
1F
100
AcDbEntity
  8
0
  6
Continuous
 62
     7
100
AcDbLine
 10
2.836534552715082
 20
9.166508580685942
 30
0.0
 11
2.835232820908983
 21
9.159162428255183
 31
0.0
  0
LINE
  5
2E3
330
1F
100
AcDbEntity
  8
0
  6
Continuous
 62
     7
100
AcDbLine
 10
2.741438623793991
 20
9.166679413038773
 30
0.0
 11
2.741493488203262
 21
9.166589506313308
 31
0.0
  0
LINE
  5
2E4
330
1F
100
AcDbEntity
  8
0
  6
Continuous
 62
     7
100
AcDbLine
 10
2.741438623793991
 20
9.166679413038773
 30
0.0
 11
2.836634629703422
 21
9.16659835548188
 31
0.0
  0
LINE
  5
2E5
330
1F
100
AcDbEntity
  8
0
  6
Continuous
 62
     7
100
AcDbLine
 10
2.741493488192699
 20
9.166589493813367
 30
0.0
 11
2.836534552728672
 21
9.166508568186057
 31
0.0
  0
LINE
  5
2E6
330
1F
100
AcDbEntity
  8
0
  6
Continuous
 62
     7
100
AcDbLine
 10
2.835232820943699
 20
9.159162440755171
 30
0.0
 11
2.760345150105094
 21
9.159226206157738
 31
0.0
  0
LINE
  5
2E7
330
1F
100
AcDbEntity
  8
0
  6
Continuous
 62
     7
100
AcDbLine
 10
2.760345150118769
 20
9.159226193657851
 30
0.0
 11
2.755888799976286
 21
9.1340773670884
 31
0.0
  0
LINE
  5
2E8
330
1F
100
AcDbEntity
  8
0
  6
Continuous
 62
     7
100
AcDbLine
 10
2.75588879996261
 20
9.134077379588287
 30
0.0
 11
2.795236628595028
 21
9.134043875673628
 31
0.0
  0
LINE
  5
2E9
330
1F
100
AcDbEntity
  8
0
  6
Continuous
 62
     7
100
AcDbLine
 10
2.795236628560312
 20
9.13404386317364
 30
0.0
 11
2.793934901183503
 21
9.126697735738999
 31
0.0
  0
LINE
  5
2EA
330
1F
100
AcDbEntity
  8
0
  6
Continuous
 62
     7
100
AcDbLine
 10
2.793934901218219
 20
9.126697748238987
 30
0.0
 11
2.754587072585802
 21
9.126731252153647
 31
0.0
  0
LINE
  5
2EB
330
1F
100
AcDbEntity
  8
0
  6
Continuous
 62
     7
100
AcDbLine
 10
2.754587072599477
 20
9.12673123965376
 30
0.0
 11
2.750130722456994
 21
9.101582413084312
 31
0.0
  0
LINE
  5
2EC
330
1F
100
AcDbEntity
  8
0
  6
Continuous
 62
     7
100
AcDbLine
 10
2.750130722443318
 20
9.1015824255842
 30
0.0
 11
2.825018393281923
 21
9.101518660181632
 31
0.0
  0
LINE
  5
2ED
330
1F
100
AcDbEntity
  8
0
  6
Continuous
 62
     7
100
AcDbLine
 10
2.825018393247207
 20
9.101518647681646
 30
0.0
 11
2.823716665870398
 21
9.094172520247003
 31
0.0
  0
LINE
  5
2EE
330
1F
100
AcDbEntity
  8
0
  6
Continuous
 62
     7
100
AcDbLine
 10
2.823716665905115
 20
9.09417253274699
 30
0.0
 11
2.728675601369142
 21
9.094253458374302
 31
0.0
  0
LINE
  5
2EF
330
1F
100
AcDbEntity
  8
0
  6
Continuous
 62
     7
100
AcDbLine
 10
2.728675601377523
 20
9.094253445866679
 30
0.0
 11
2.741493488222207
 21
9.166589506305616
 31
0.0
  0
LINE
  5
2F0
330
1F
100
AcDbEntity
  8
0
  6
Continuous
 62
     7
100
AcDbLine
 10
2.835305842583586
 20
9.159099519942474
 30
0.0
 11
2.760418317934833
 21
9.159163285220565
 31
0.0
  0
LINE
  5
2F1
330
1F
100
AcDbEntity
  8
0
  6
Continuous
 62
     7
100
AcDbLine
 10
2.760418317934833
 20
9.159163285220565
 30
0.0
 11
2.76034515009453
 21
9.1592261936578
 31
0.0
  0
LINE
  5
2F2
330
1F
100
AcDbEntity
  8
0
  6
Continuous
 62
     7
100
AcDbLine
 10
2.869483770381529
 20
9.094070704306988
 30
0.0
 11
2.84917528912085
 21
9.094087996585792
 31
0.0
  0
LINE
  5
2F3
330
1F
100
AcDbEntity
  8
0
  6
Continuous
 62
     7
100
AcDbLine
 10
2.760418317934833
 20
9.159163285220565
 30
0.0
 11
2.755989027535377
 21
9.134167166755882
 31
0.0
  0
LINE
  5
2F4
330
1F
100
AcDbEntity
  8
0
  6
Continuous
 62
     7
100
AcDbLine
 10
2.755989027535377
 20
9.134167166755882
 30
0.0
 11
2.755888799952047
 21
9.134077367088354
 31
0.0
  0
LINE
  5
2F5
330
1F
100
AcDbEntity
  8
0
  6
Continuous
 62
     7
100
AcDbLine
 10
2.795336709977942
 20
9.134133662965697
 30
0.0
 11
2.795236628584465
 21
9.134043863173693
 31
0.0
  0
LINE
  5
2F6
330
1F
100
AcDbEntity
  8
0
  6
Continuous
 62
     7
100
AcDbLine
 10
2.795336709977942
 20
9.134133662965697
 30
0.0
 11
2.794007922858106
 21
9.126634827426296
 31
0.0
  0
LINE
  5
2F7
330
1F
100
AcDbEntity
  8
0
  6
Continuous
 62
     7
100
AcDbLine
 10
2.794007922858106
 20
9.126634827426296
 30
0.0
 11
2.793934901207656
 21
9.126697735739052
 31
0.0
  0
LINE
  5
2F8
330
1F
100
AcDbEntity
  8
0
  6
Continuous
 62
     7
100
AcDbLine
 10
2.755989027535377
 20
9.134167166755882
 30
0.0
 11
2.795336709977942
 21
9.134133662965697
 31
0.0
  0
LINE
  5
2F9
330
1F
100
AcDbEntity
  8
0
  6
Continuous
 62
     7
100
AcDbLine
 10
2.728593681635569
 20
9.09419066949119
 30
0.0
 11
2.728675601358579
 21
9.094253445874365
 31
0.0
  0
LINE
  5
2FA
330
1F
100
AcDbEntity
  8
0
  6
Continuous
 62
     7
100
AcDbLine
 10
2.728593681635569
 20
9.09419066949119
 30
0.0
 11
2.741438623793991
 21
9.166679413038773
 31
0.0
  0
LINE
  5
2FB
330
1F
100
AcDbEntity
  8
0
  6
Continuous
 62
     7
100
AcDbLine
 10
2.794007922858106
 20
9.126634827426296
 30
0.0
 11
2.754660240415541
 21
9.126668331216475
 31
0.0
  0
LINE
  5
2FC
330
1F
100
AcDbEntity
  8
0
  6
Continuous
 62
     7
100
AcDbLine
 10
2.754660240415541
 20
9.126668331216475
 30
0.0
 11
2.754587072575238
 21
9.126731239653711
 31
0.0
  0
LINE
  5
2FD
330
1F
100
AcDbEntity
  8
0
  6
Continuous
 62
     7
100
AcDbLine
 10
2.825118474664838
 20
9.101608447473703
 30
0.0
 11
2.82501839327136
 21
9.101518647681697
 31
0.0
  0
LINE
  5
2FE
330
1F
100
AcDbEntity
  8
0
  6
Continuous
 62
     7
100
AcDbLine
 10
2.825118474664838
 20
9.101608447473703
 30
0.0
 11
2.823789687545001
 21
9.094109611934297
 31
0.0
  0
LINE
  5
2FF
330
1F
100
AcDbEntity
  8
0
  6
Continuous
 62
     7
100
AcDbLine
 10
2.823789687545001
 20
9.094109611934297
 30
0.0
 11
2.823716665894552
 21
9.094172520247055
 31
0.0
  0
LINE
  5
300
330
1F
100
AcDbEntity
  8
0
  6
Continuous
 62
     7
100
AcDbLine
 10
2.750230950016085
 20
9.101672212751788
 30
0.0
 11
2.750130722432755
 21
9.101582413084264
 31
0.0
  0
LINE
  5
301
330
1F
100
AcDbEntity
  8
0
  6
Continuous
 62
     7
100
AcDbLine
 10
2.750230950016085
 20
9.101672212751788
 30
0.0
 11
2.825118474664838
 21
9.101608447473703
 31
0.0
  0
LINE
  5
302
330
1F
100
AcDbEntity
  8
0
  6
Continuous
 62
     7
100
AcDbLine
 10
2.823789687545001
 20
9.094109611934297
 30
0.0
 11
2.728593681635569
 21
9.09419066949119
 31
0.0
  0
LINE
  5
303
330
1F
100
AcDbEntity
  8
0
  6
Continuous
 62
     7
100
AcDbLine
 10
2.610632554049827
 20
9.094353957237223
 30
0.0
 11
2.623450440894511
 21
9.166690017676162
 31
0.0
  0
LINE
  5
304
330
1F
100
AcDbEntity
  8
0
  6
Continuous
 62
     7
100
AcDbLine
 10
2.623450440865003
 20
9.166690005183915
 30
0.0
 11
2.643603980752222
 21
9.166672844834693
 31
0.0
  0
LINE
  5
305
330
1F
100
AcDbEntity
  8
0
  6
Continuous
 62
     7
100
AcDbLine
 10
2.643603980738633
 20
9.166672857334575
 30
0.0
 11
2.632087821270758
 21
9.101682924330278
 31
0.0
  0
LINE
  5
306
330
1F
100
AcDbEntity
  8
0
  6
Continuous
 62
     7
100
AcDbLine
 10
2.632087821305474
 20
9.101682936830269
 30
0.0
 11
2.704436785796643
 21
9.10162133308703
 31
0.0
  0
LINE
  5
307
330
1F
100
AcDbEntity
  8
0
  6
Continuous
 62
     7
100
AcDbLine
 10
2.704436785761927
 20
9.101621320587041
 30
0.0
 11
2.703135058385118
 21
9.0942751931524
 31
0.0
  0
LINE
  5
308
330
1F
100
AcDbEntity
  8
0
  6
Continuous
 62
     7
100
AcDbLine
 10
2.703135058419834
 20
9.094275205652389
 30
0.0
 11
2.610632554041446
 21
9.094353969744848
 31
0.0
  0
LINE
  5
309
330
1F
100
AcDbEntity
  8
0
  6
Continuous
 62
     7
100
AcDbLine
 10
2.754660240415541
 20
9.126668331216475
 30
0.0
 11
2.750230950016085
 21
9.101672212751788
 31
0.0
  0
LINE
  5
30A
330
1F
100
AcDbEntity
  8
0
  6
Continuous
 62
     7
100
AcDbLine
 10
2.643704057726973
 20
9.166762632130515
 30
0.0
 11
2.643603980762786
 21
9.166672857334628
 31
0.0
  0
LINE
  5
30B
330
1F
100
AcDbEntity
  8
0
  6
Continuous
 62
     7
100
AcDbLine
 10
2.643704057726973
 20
9.166762632130515
 30
0.0
 11
2.632187902688389
 21
9.101772724122338
 31
0.0
  0
LINE
  5
30C
330
1F
100
AcDbEntity
  8
0
  6
Continuous
 62
     7
100
AcDbLine
 10
2.632187902688389
 20
9.101772724122338
 30
0.0
 11
2.632087821294911
 21
9.101682924330333
 31
0.0
  0
LINE
  5
30D
330
1F
100
AcDbEntity
  8
0
  6
Continuous
 62
     7
100
AcDbLine
 10
2.623395576466294
 20
9.16677992440932
 30
0.0
 11
2.623450440875567
 21
9.166690017683853
 31
0.0
  0
LINE
  5
30E
330
1F
100
AcDbEntity
  8
0
  6
Continuous
 62
     7
100
AcDbLine
 10
2.623395576466294
 20
9.16677992440932
 30
0.0
 11
2.643704057726973
 21
9.166762632130515
 31
0.0
  0
LINE
  5
30F
330
1F
100
AcDbEntity
  8
0
  6
Continuous
 62
     7
100
AcDbLine
 10
2.610550634307873
 20
9.094291180861736
 30
0.0
 11
2.610632554030882
 21
9.094353957244913
 31
0.0
  0
LINE
  5
310
330
1F
100
AcDbEntity
  8
0
  6
Continuous
 62
     7
100
AcDbLine
 10
2.610550634307873
 20
9.094291180861736
 30
0.0
 11
2.623395576466294
 21
9.16677992440932
 31
0.0
  0
LINE
  5
311
330
1F
100
AcDbEntity
  8
0
  6
Continuous
 62
     7
100
AcDbLine
 10
2.704536867179558
 20
9.1017111203791
 30
0.0
 11
2.704436785786079
 21
9.101621320587094
 31
0.0
  0
LINE
  5
312
330
1F
100
AcDbEntity
  8
0
  6
Continuous
 62
     7
100
AcDbLine
 10
2.704536867179558
 20
9.1017111203791
 30
0.0
 11
2.703208080059721
 21
9.094212284839692
 31
0.0
  0
LINE
  5
313
330
1F
100
AcDbEntity
  8
0
  6
Continuous
 62
     7
100
AcDbLine
 10
2.703208080059721
 20
9.094212284839692
 30
0.0
 11
2.70313505840927
 21
9.094275193152452
 31
0.0
  0
LINE
  5
314
330
1F
100
AcDbEntity
  8
0
  6
Continuous
 62
     7
100
AcDbLine
 10
2.632187902688389
 20
9.101772724122338
 30
0.0
 11
2.704536867179558
 21
9.1017111203791
 31
0.0
  0
LINE
  5
315
330
1F
100
AcDbEntity
  8
0
  6
Continuous
 62
     7
100
AcDbLine
 10
2.703208080059721
 20
9.094212284839692
 30
0.0
 11
2.610550634307873
 21
9.094291180861736
 31
0.0
  0
LINE
  5
316
330
1F
100
AcDbEntity
  8
0
  6
Continuous
 62
     7
100
AcDbLine
 10
2.902043973039167
 20
8.644971707618648
 30
0.0
 11
2.902046399670934
 21
8.647843181850133
 31
0.0
  0
LWPOLYLINE
  5
317
330
1F
100
AcDbEntity
  8
0
  6
Continuous
 62
     7
100
AcDbPolyline
 90
       19
 70
   128
 43
0.0
 10
2.994820240169903
 20
9.89070040126116
 10
3.013304314297609
 20
9.889692007162944
 10
3.029236617545092
 20
9.887190000321118
 10
3.042617149912351
 20
9.883899091858128
 10
3.053445911399387
 20
9.88041173019132
 10
3.062292250170513
 20
9.876986119145881
 10
3.070777256468847
 20
9.873196827854274
 10
3.078900930294391
 20
9.869088351801167
 10
3.086663271647145
 20
9.864703710325355
 10
3.094064280527109
 20
9.860084325435839
 10
3.101103956934283
 20
9.85526992611744
 10
3.107782300868666
 20
9.850298476109856
 10
3.12072743207054
 20
9.839438545899805
 10
3.132721083547569
 20
9.827768389350062
 10
3.143763255299754
 20
9.815431382269908
 10
3.153853947327093
 20
9.802563841620055
 10
3.167029522937979
 20
9.782875189105193
 10
3.178508230567628
 20
9.762168794025433
 10
3.188290070216043
 20
9.740700277942565
  0
LINE
  5
32C
330
1F
100
AcDbEntity
  8
0
  6
Continuous
 62
     7
100
AcDbLine
 10
3.24356716451494
 20
9.740700277942565
 30
0.0
 11
3.239301062226779
 21
9.747623453378882
 31
0.0
  0
LWPOLYLINE
  5
32D
330
1F
100
AcDbEntity
  8
0
  6
Continuous
 62
     7
100
AcDbPolyline
 90
        3
 70
   128
 43
0.0
 10
3.194732193633221
 20
9.8069893020525
 10
3.181727394543264
 20
9.819610526270763
 10
3.172610929613282
 20
9.827008073823214
  0
LINE
  5
332
330
1F
100
AcDbEntity
  8
0
  6
Continuous
 62
     7
100
AcDbLine
 10
3.23654892027903
 20
9.740700277942569
 30
0.0
 11
3.24356716451494
 21
9.740700277942569
 31
0.0
  0
LWPOLYLINE
  5
333
330
1F
100
AcDbEntity
  8
0
  6
Continuous
 62
     7
100
AcDbPolyline
 90
       19
 70
   128
 43
0.0
 10
2.606218944379436
 20
9.89012400131315
 10
2.596025174091133
 20
9.889692006541866
 10
2.575522627702058
 20
9.8871899987795
 10
2.558342767788663
 20
9.883899090253498
 10
2.544444377160567
 20
9.88041173019132
 10
2.53306654689205
 20
9.876986117012631
 10
2.522150454305464
 20
9.873196823851485
 10
2.511701324616271
 20
9.869088346483938
 10
2.501721494720103
 20
9.864703704517323
 10
2.492210674798275
 20
9.860084320206031
 10
2.483166204914886
 20
9.855269922757156
 10
2.47458330498578
 20
9.850298476109856
 10
2.457934420235057
 20
9.83943853965969
 10
2.4425102783634
 20
9.827768380237185
 10
2.428317234961961
 20
9.81543137488816
 10
2.415348330967802
 20
9.802563841620053
 10
2.398403426826891
 20
9.782875189769106
 10
2.383645188999807
 20
9.762168794733597
 10
2.371073315824866
 20
9.740700277942565
  0
LWPOLYLINE
  5
348
330
1F
100
AcDbEntity
  8
0
  6
Continuous
 62
     7
100
AcDbPolyline
 90
       16
 70
   128
 43
0.0
 10
2.426350410123764
 20
9.740700277942565
 10
2.441659872488941
 20
9.772633775404755
 10
2.460786533012713
 20
9.802563841620055
 10
2.474453410056075
 20
9.819610534813679
 10
2.489810625542218
 20
9.835632458843339
 10
2.506858179471141
 20
9.850298476109856
 10
2.518783553255449
 20
9.858898234057753
 10
2.531814742761765
 20
9.86692878301101
 10
2.545951747990089
 20
9.874176328794448
 10
2.56119456894042
 20
9.88041173019132
 10
2.568130850737852
 20
9.882732697148631
 10
2.576200997898276
 20
9.885045056658251
 10
2.585405010421693
 20
9.88719023271549
 10
2.595742888308104
 20
9.888987053090046
 10
2.607214631557507
 20
9.890232061518267
 10
2.619820240169903
 20
9.89070040126116
  0
LINE
  5
35A
330
1F
100
AcDbEntity
  8
0
  6
Continuous
 62
     7
100
AcDbLine
 10
2.371073315824866
 20
9.740700277942569
 30
0.0
 11
2.426350410123763
 21
9.740700277942569
 31
0.0
  0
LINE
  5
35B
330
1F
100
AcDbEntity
  8
0
  6
Continuous
 62
     7
100
AcDbLine
 10
3.188290070216043
 20
9.740700277942569
 30
0.0
 11
2.426350410123763
 21
9.740700277942569
 31
0.0
  0
LINE
  5
35C
330
1F
100
AcDbEntity
  8
0
  6
Continuous
 62
     7
100
AcDbLine
 10
2.397323315824866
 20
9.740700277942569
 30
0.0
 11
2.397324440213374
 21
9.740635861768105
 31
0.0
  0
LWPOLYLINE
  5
35D
330
1F
100
AcDbEntity
  8
0
  6
Continuous
 62
     7
100
AcDbPolyline
 90
       30
 70
   128
 43
0.0
 10
2.769957086461019
 20
9.452290475054907
 10
2.771798393205789
 20
9.444032315184137
 10
2.775371913578973
 20
9.43636304062472
 10
2.780510553739603
 20
9.429641258131268
 10
2.786974036584957
 20
9.424181270782451
 10
2.794460136840831
 20
9.420238381518361
 10
2.802618812779464
 20
9.417996955458777
 10
2.811068573781681
 20
9.41756179919508
 10
2.819414318414255
 20
9.418953260150522
 10
2.827265808933795
 20
9.422106275157319
 10
2.834255918369913
 20
9.426873412738082
 10
2.840057796974322
 20
9.433031766837823
 10
2.844400155351809
 20
9.440293379663366
 10
2.847079949650824
 20
9.44831870626968
 10
2.847971875668323
 20
9.456732491304173
 10
2.847034227935033
 20
9.465141315529875
 10
2.844310849816843
 20
9.473151991671735
 10
2.839929083447741
 20
9.480389949416583
 10
2.834093815353163
 20
9.486516749904686
 10
2.827077896183776
 20
9.491245910754664
 10
2.819209382522307
 20
9.494356301661265
 10
2.810856197322342
 20
9.49570248420264
 10
2.802408926239933
 20
9.495221512379333
 10
2.794262554282424
 20
9.492935875899237
 10
2.786797996748508
 20
9.488952448583861
 10
2.78036428805221
 20
9.48345749106721
 10
2.775262261261616
 20
9.476707941455558
 10
2.771730481478959
 20
9.469019401187156
 10
2.769934090801583
 20
9.46075137785976
 10
2.769957086461019
 20
9.452290475054907
  0
LWPOLYLINE
  5
37D
330
1F
100
AcDbEntity
  8
0
  6
Continuous
 62
     7
100
AcDbPolyline
 90
       36
 70
   128
 43
0.0
 10
2.754047196886132
 20
9.45058610789788
 10
2.756020653302041
 20
9.440891014988361
 10
2.759693523403441
 20
9.431704088457229
 10
2.764947758123229
 20
9.423320603682217
 10
2.771614482034309
 20
9.416010012761953
 10
2.779479421144782
 20
9.410007284103783
 10
2.788289789840343
 20
9.405505350345846
 10
2.797762415621921
 20
9.402648907343327
 10
2.807592840502794
 20
9.401529763524616
 10
2.817465106538791
 20
9.402183889092875
 10
2.827061910976586
 20
9.404590259914132
 10
2.836074804625272
 20
9.408671533250217
 10
2.844214105667147
 20
9.414296533618028
 10
2.851218210269686
 20
9.421284468877477
 10
2.856862000747966
 20
9.429410741039636
 10
2.86096408103229
 20
9.438414165030888
 10
2.863392606887115
 20
9.448005363396119
 10
2.864069523493272
 20
9.4578760671282
 10
2.862973074194068
 20
9.467709023687547
 10
2.860138499772142
 20
9.477188193759751
 10
2.855656905781709
 20
9.486008909019212
 10
2.849672334341091
 20
9.493887664419775
 10
2.84237713450051
 20
9.50057123028021
 10
2.834005779985354
 20
9.505844791294503
 10
2.824827333017712
 20
9.509538850872556
 10
2.815136796435177
 20
9.511534678900047
 10
2.80524563205691
 20
9.511768127821998
 10
2.795471750044507
 20
9.510231694397982
 10
2.786129291007823
 20
9.50697476086242
 10
2.777518529267298
 20
9.502102007738962
 10
2.769916221790231
 20
9.495770049322312
 10
2.763566712994134
 20
9.488182399965932
 10
2.758674081316106
 20
9.479582932963277
 10
2.755395579963952
 20
9.470248042259474
 10
2.753836582668688
 20
9.46047775892252
 10
2.754047196886132
 20
9.45058610789788
  0
LINE
  5
3A3
330
1F
100
AcDbEntity
  8
0
  6
Continuous
 62
     7
100
AcDbLine
 10
2.80707577058436
 20
9.421726809738551
 30
0.0
 11
2.818256451388747
 21
9.422973463322528
 31
0.0
  0
LINE
  5
3A4
330
1F
100
AcDbEntity
  8
0
  6
Continuous
 62
     7
100
AcDbLine
 10
2.818256451388747
 20
9.422973463322528
 30
0.0
 11
2.812815265178704
 21
9.471770017502923
 31
0.0
  0
LINE
  5
3A5
330
1F
100
AcDbEntity
  8
0
  6
Continuous
 62
     7
100
AcDbLine
 10
2.812815265178704
 20
9.471770017502923
 30
0.0
 11
2.801634584374317
 21
9.470523363918947
 31
0.0
  0
LINE
  5
3A6
330
1F
100
AcDbEntity
  8
0
  6
Continuous
 62
     7
100
AcDbLine
 10
2.801634584374317
 20
9.470523363918947
 30
0.0
 11
2.80707577058436
 21
9.421726809738551
 31
0.0
  0
LINE
  5
3A7
330
1F
100
AcDbEntity
  8
0
  6
Continuous
 62
     7
100
AcDbLine
 10
2.801664452686627
 20
9.47052669425627
 30
0.0
 11
2.807101709500328
 21
9.421765378899563
 31
0.0
  0
LINE
  5
3A8
330
1F
100
AcDbEntity
  8
0
  6
Continuous
 62
     7
100
AcDbLine
 10
2.807101709500328
 20
9.421765378899563
 30
0.0
 11
2.80707577058436
 21
9.421726809738551
 31
0.0
  0
LINE
  5
3A9
330
1F
100
AcDbEntity
  8
0
  6
Continuous
 62
     7
100
AcDbLine
 10
2.807101709500328
 20
9.421765378899563
 30
0.0
 11
2.818252521992405
 21
9.423008702146216
 31
0.0
  0
LWPOLYLINE
  5
3AA
330
1F
100
AcDbEntity
  8
0
  6
Continuous
 62
     7
100
AcDbPolyline
 90
       20
 70
   128
 43
0.0
 10
2.854690398981295
 20
9.425905381215658
 10
2.856863278506572
 20
9.429412640967815
 10
2.860965358790895
 20
9.438416064959071
 10
2.863393884645721
 20
9.4480072633243
 10
2.864070801251877
 20
9.457877967056383
 10
2.862974351952673
 20
9.467710923615728
 10
2.860139777530746
 20
9.477190093687934
 10
2.855658183540313
 20
9.486010808947393
 10
2.849673612099695
 20
9.493889564347956
 10
2.842378412259114
 20
9.50057313020839
 10
2.834007057743958
 20
9.505846691222686
 10
2.824828610776316
 20
9.509540750800737
 10
2.815138074193781
 20
9.511536578828228
 10
2.805246909815514
 20
9.51177002775018
 10
2.795473027803111
 20
9.51023359432616
 10
2.786130568766427
 20
9.506976660790597
 10
2.777519807025902
 20
9.502103907667141
 10
2.769917499548835
 20
9.495771949250491
 10
2.763567990752738
 20
9.488184299894112
 10
2.763101451977889
 20
9.487501691265916
  0
LWPOLYLINE
  5
3C0
330
1F
100
AcDbEntity
  8
0
  6
Continuous
 62
     7
100
AcDbPolyline
 90
        5
 70
   128
 43
0.0
 10
2.363474919948175
 20
9.723711697206356
 10
2.35788830297778
 20
9.710917136070442
 10
2.348305204366209
 20
9.679273364258224
 10
2.342501852606643
 20
9.646723625871148
 10
2.342339472170341
 20
9.643965830360052
  0
LWPOLYLINE
  5
3C7
330
1F
100
AcDbEntity
  8
0
  6
Continuous
 62
     7
100
AcDbPolyline
 90
        6
 70
   128
 43
0.0
 10
3.217348613245285
 20
9.741145160779265
 10
3.216656464324873
 20
9.741130709124663
 10
3.209062777601053
 20
9.741024199665159
 10
3.200624003320861
 20
9.740948121257032
 10
3.191738473221611
 20
9.740902473900286
 10
3.182775755710447
 20
9.740887257594915
  0
LWPOLYLINE
  5
3CF
330
1F
100
AcDbEntity
  8
0
  6
Continuous
 62
     7
100
AcDbPolyline
 90
        6
 70
   128
 43
0.0
 10
2.397314147771572
 20
9.741225515364027
 10
2.396227573747245
 20
9.741250407226392
 10
2.39369791766252
 20
9.741321742267463
 10
2.391500930076704
 20
9.741400734635334
 10
2.389037145297021
 20
9.741532218634148
 10
2.387717976968104
 20
9.741719952086607
  0
LWPOLYLINE
  5
3D7
330
1F
100
AcDbEntity
  8
0
  6
Continuous
 62
     7
100
AcDbPolyline
 90
        5
 70
   128
 43
0.0
 10
3.278058450113007
 20
9.613717761401059
 10
3.276115047619371
 20
9.646723625871148
 10
3.270311695859805
 20
9.679273364258224
 10
3.260728597248235
 20
9.710917136070442
 10
3.247498186532802
 20
9.741217638082466
  0
LINE
  5
3DE
330
1F
100
AcDbEntity
  8
0
  6
Continuous
 62
     7
100
AcDbLine
 10
3.278058450113007
 20
8.725296591476859
 30
0.0
 11
3.278058450113008
 21
9.613717761401059
 31
0.0
  0
LWPOLYLINE
  5
3DF
330
1F
100
AcDbEntity
  8
0
  6
Continuous
 62
     7
100
AcDbPolyline
 90
        4
 70
   128
 43
0.0
 10
3.264455052991527
 20
8.656898231808231
 10
3.271965014917723
 20
8.679020499032536
 10
3.276526355643167
 20
8.701941345156854
 10
3.278058450113008
 20
8.725296591476859
  0
LWPOLYLINE
  5
3E5
330
1F
100
AcDbEntity
  8
0
  6
Continuous
 62
     7
100
AcDbPolyline
 90
        4
 70
   128
 43
0.0
 10
3.225715062789221
 20
8.598917203291439
 10
3.241126466002103
 20
8.616490256188676
 10
3.254108750165911
 20
8.635918414105184
 10
3.264455052991527
 20
8.656898231808231
  0
LINE
  5
3EB
330
1F
100
AcDbEntity
  8
0
  6
Continuous
 62
     7
100
AcDbLine
 10
3.015067504578485
 20
8.388269645080703
 30
0.0
 11
3.225715062789222
 21
8.598917203291439
 31
0.0
  0
LWPOLYLINE
  5
3EC
330
1F
100
AcDbEntity
  8
0
  6
Continuous
 62
     7
100
AcDbPolyline
 90
        3
 70
   128
 43
0.0
 10
2.996326163845977
 20
8.37554287519303
 10
3.005598190255241
 20
8.3804985487863
 10
3.015067504578485
 20
8.388269645080703
  0
LINE
  5
3F1
330
1F
100
AcDbEntity
  8
0
  6
Continuous
 62
     7
100
AcDbLine
 10
3.062710917354716
 20
8.209123011963465
 30
0.0
 11
3.056081791281092
 21
8.21575213803709
 31
0.0
  0
LINE
  5
3F2
330
1F
100
AcDbEntity
  8
0
  6
Continuous
 62
     7
100
AcDbLine
 10
3.056081791281092
 20
8.21575213803709
 30
0.0
 11
3.067130334737132
 21
8.226800681493128
 31
0.0
  0
LINE
  5
3F3
330
1F
100
AcDbEntity
  8
0
  6
Continuous
 62
     7
100
AcDbLine
 10
3.067130334737132
 20
8.226800681493128
 30
0.0
 11
3.073759460810757
 21
8.220171555419505
 31
0.0
  0
LINE
  5
3F4
330
1F
100
AcDbEntity
  8
0
  6
Continuous
 62
     7
100
AcDbLine
 10
3.073759460810757
 20
8.220171555419505
 30
0.0
 11
3.062710917354716
 21
8.209123011963465
 31
0.0
  0
LINE
  5
3F5
330
1F
100
AcDbEntity
  8
0
  6
Continuous
 62
     7
100
AcDbLine
 10
3.334308450113946
 20
9.916167875193032
 30
0.0
 11
2.290558450113946
 21
9.916167875193029
 31
0.0
  0
LINE
  5
3F6
330
1F
100
AcDbEntity
  8
0
  6
Continuous
 62
     7
100
AcDbLine
 10
2.290558450113946
 20
9.925542875193031
 30
0.0
 11
2.290558450113946
 21
9.916167875193029
 31
0.0
  0
LINE
  5
3F7
330
1F
100
AcDbEntity
  8
0
  6
Continuous
 62
     7
100
AcDbLine
 10
3.335870950113946
 20
9.925542875193031
 30
0.0
 11
2.290558450113946
 21
9.925542875193031
 31
0.0
  0
ARC
  5
3F8
330
1F
100
AcDbEntity
  8
0
  6
Continuous
 62
     7
100
AcDbCircle
 10
3.335870950113946
 20
9.917730375193031
 30
0.0
 40
0.0078125
100
AcDbArc
 50
0.0
 51
90.0
  0
LINE
  5
3F9
330
1F
100
AcDbEntity
  8
0
  6
Continuous
 62
     7
100
AcDbLine
 10
3.343683450113947
 20
8.490095544722697
 30
0.0
 11
3.343683450113946
 21
9.917730375193031
 31
0.0
  0
LINE
  5
3FA
330
1F
100
AcDbEntity
  8
0
  6
Continuous
 62
     7
100
AcDbLine
 10
3.073759460810757
 20
8.220171555419505
 30
0.0
 11
3.343683450113947
 21
8.490095544722697
 31
0.0
  0
LINE
  5
3FB
330
1F
100
AcDbEntity
  8
0
  6
Continuous
 62
     7
100
AcDbLine
 10
3.067130334737132
 20
8.226800681493128
 30
0.0
 11
3.334308450113946
 21
8.493978796869943
 31
0.0
  0
LINE
  5
3FC
330
1F
100
AcDbEntity
  8
0
  6
Continuous
 62
     7
100
AcDbLine
 10
3.334308450113946
 20
8.493978796869943
 30
0.0
 11
3.334308450113946
 21
9.916167875193032
 31
0.0
  0
LINE
  5
3FD
330
1F
100
AcDbEntity
  8
0
  6
Continuous
 62
     7
100
AcDbLine
 10
2.290558450113946
 20
9.916167875193029
 30
0.0
 11
2.274933450113946
 21
9.916167875193029
 31
0.0
  0
LINE
  5
3FE
330
1F
100
AcDbEntity
  8
0
  6
Continuous
 62
     7
100
AcDbLine
 10
2.274933450113946
 20
9.916167875193029
 30
0.0
 11
2.274933450113946
 21
9.925542875193031
 31
0.0
  0
LINE
  5
3FF
330
1F
100
AcDbEntity
  8
0
  6
Continuous
 62
     7
100
AcDbLine
 10
2.274933450113946
 20
9.925542875193031
 30
0.0
 11
2.290558450113946
 21
9.925542875193031
 31
0.0
  0
LINE
  5
400
330
1F
100
AcDbEntity
  8
0
  6
Continuous
 62
     7
100
AcDbLine
 10
2.562535108946801
 20
8.21575213803709
 30
0.0
 11
2.555905982873177
 21
8.209123011963465
 31
0.0
  0
LINE
  5
401
330
1F
100
AcDbEntity
  8
0
  6
Continuous
 62
     7
100
AcDbLine
 10
2.544857439417137
 20
8.220171555419505
 30
0.0
 11
2.551486565490761
 21
8.226800681493128
 31
0.0
  0
LINE
  5
402
330
1F
100
AcDbEntity
  8
0
  6
Continuous
 62
     7
100
AcDbLine
 10
2.555905982873177
 20
8.209123011963465
 30
0.0
 11
2.544857439417137
 21
8.220171555419505
 31
0.0
  0
LINE
  5
403
330
1F
100
AcDbEntity
  8
0
  6
Continuous
 62
     7
100
AcDbLine
 10
2.551486565490761
 20
8.226800681493128
 30
0.0
 11
2.562535108946801
 21
8.21575213803709
 31
0.0
  0
LINE
  5
404
330
1F
100
AcDbEntity
  8
0
  6
Continuous
 62
     7
100
AcDbLine
 10
2.290888230865194
 20
8.474140763971448
 30
0.0
 11
2.297517356938817
 21
8.480769890045071
 31
0.0
  0
LINE
  5
405
330
1F
100
AcDbEntity
  8
0
  6
Continuous
 62
     7
100
AcDbLine
 10
2.308565900394857
 20
8.469721346589031
 30
0.0
 11
2.301936774321233
 21
8.463092220515406
 31
0.0
  0
LINE
  5
406
330
1F
100
AcDbEntity
  8
0
  6
Continuous
 62
     7
100
AcDbLine
 10
2.301936774321233
 20
8.463092220515406
 30
0.0
 11
2.290888230865194
 21
8.474140763971448
 31
0.0
  0
LINE
  5
407
330
1F
100
AcDbEntity
  8
0
  6
Continuous
 62
     7
100
AcDbLine
 10
2.297517356938817
 20
8.480769890045071
 30
0.0
 11
2.308565900394857
 21
8.469721346589031
 31
0.0
  0
LINE
  5
408
330
1F
100
AcDbEntity
  8
0
  6
Continuous
 62
     7
100
AcDbLine
 10
2.301936774321233
 20
8.463092220515406
 30
0.0
 11
2.544857439417137
 21
8.220171555419505
 31
0.0
  0
LINE
  5
409
330
1F
100
AcDbEntity
  8
0
  6
Continuous
 62
     7
100
AcDbLine
 10
2.308565900394857
 20
8.469721346589031
 30
0.0
 11
2.551486565490761
 21
8.226800681493128
 31
0.0
  0
LINE
  5
40A
330
1F
100
AcDbEntity
  8
0
  6
Continuous
 62
     7
100
AcDbLine
 10
3.06624645126065
 20
8.205587478057533
 30
0.0
 11
3.348591920983067
 21
8.487932947779951
 31
0.0
  0
LINE
  5
40B
330
1F
100
AcDbEntity
  8
0
  6
Continuous
 62
     7
100
AcDbLine
 10
3.353895221841967
 20
8.482629646921053
 30
0.0
 11
3.348591920983067
 21
8.487932947779951
 31
0.0
  0
LINE
  5
40C
330
1F
100
AcDbEntity
  8
0
  6
Continuous
 62
     7
100
AcDbLine
 10
3.353895221841967
 20
8.482629646921053
 30
0.0
 11
3.071549752119549
 21
8.200284177198634
 31
0.0
  0
LINE
  5
40D
330
1F
100
AcDbEntity
  8
0
  6
Continuous
 62
     7
100
AcDbLine
 10
3.071549752119549
 20
8.200284177198634
 30
0.0
 11
3.06624645126065
 21
8.205587478057533
 31
0.0
  0
LINE
  5
40E
330
1F
100
AcDbEntity
  8
0
  6
Continuous
 62
     7
100
AcDbLine
 10
3.348683450113946
 20
8.48815391864907
 30
0.0
 11
3.356183450113946
 21
8.48815391864907
 31
0.0
  0
LINE
  5
40F
330
1F
100
AcDbEntity
  8
0
  6
Continuous
 62
     7
100
AcDbLine
 10
3.348683450113946
 20
8.48815391864907
 30
0.0
 11
3.348683450113946
 21
9.93023037519303
 31
0.0
  0
LINE
  5
410
330
1F
100
AcDbEntity
  8
0
  6
Continuous
 62
     7
100
AcDbLine
 10
3.356183450113946
 20
9.93023037519303
 30
0.0
 11
3.348683450113946
 21
9.93023037519303
 31
0.0
  0
LINE
  5
411
330
1F
100
AcDbEntity
  8
0
  6
Continuous
 62
     7
100
AcDbLine
 10
3.356183450113946
 20
9.93023037519303
 30
0.0
 11
3.356183450113946
 21
8.48815391864907
 31
0.0
  0
LINE
  5
412
330
1F
100
AcDbEntity
  8
0
  6
Continuous
 62
     7
100
AcDbLine
 10
2.269933450113946
 20
9.93023037519303
 30
0.0
 11
2.269933450113946
 21
9.916167875193029
 31
0.0
  0
ARC
  5
413
330
1F
100
AcDbEntity
  8
0
  6
Continuous
 62
     7
100
AcDbCircle
 10
2.270245950113946
 20
9.93023037519303
 30
0.0
 40
0.0003124999999997
100
AcDbArc
 50
90.0
 51
180.0000000000004
  0
LINE
  5
414
330
1F
100
AcDbEntity
  8
0
  6
Continuous
 62
     7
100
AcDbLine
 10
3.348370950113946
 20
9.93054287519303
 30
0.0
 11
2.270245950113946
 21
9.93054287519303
 31
0.0
  0
ARC
  5
415
330
1F
100
AcDbEntity
  8
0
  6
Continuous
 62
     7
100
AcDbCircle
 10
3.348370950113946
 20
9.93023037519303
 30
0.0
 40
0.0003125000000002
100
AcDbArc
 50
0.0
 51
90.0
  0
ARC
  5
416
330
1F
100
AcDbEntity
  8
0
  6
Continuous
 62
     7
100
AcDbCircle
 10
3.348370950113947
 20
8.48815391864907
 30
0.0
 40
0.0003124999999997
100
AcDbArc
 50
314.999999999929
 51
0.0
  0
LINE
  5
417
330
1F
100
AcDbEntity
  8
0
  6
Continuous
 62
     7
100
AcDbLine
 10
3.06624645126065
 20
8.205587478057533
 30
0.0
 11
3.062710917354716
 21
8.209123011963465
 31
0.0
  0
LINE
  5
418
330
1F
100
AcDbEntity
  8
0
  6
Continuous
 62
     7
100
AcDbLine
 10
2.274933450113946
 20
9.916167875193029
 30
0.0
 11
2.269933450113946
 21
9.916167875193029
 31
0.0
  0
LINE
  5
419
330
1F
100
AcDbEntity
  8
0
  6
Continuous
 62
     7
100
AcDbLine
 10
2.547067148108344
 20
8.200284177198634
 30
0.0
 11
2.264721678385927
 21
8.482629646921051
 31
0.0
  0
LWPOLYLINE
  5
41A
330
1F
100
AcDbEntity
  8
0
  6
Continuous
 62
     7
100
AcDbPolyline
 90
        3
 70
   128
 43
0.0
 10
2.263135171042661
 20
8.48491787519303
 10
2.264701906829196
 20
8.482649489495484
 10
2.264721678385927
 20
8.482629646921051
  0
LINE
  5
41F
330
1F
100
AcDbEntity
  8
0
  6
Continuous
 62
     7
100
AcDbLine
 10
2.263135171042661
 20
8.48491787519303
 30
0.0
 11
2.273040051831745
 21
8.48491787519303
 31
0.0
  0
LINE
  5
420
330
1F
100
AcDbEntity
  8
0
  6
Continuous
 62
     7
100
AcDbLine
 10
2.273040051831745
 20
8.48491787519303
 30
0.0
 11
2.552370448967244
 21
8.205587478057533
 31
0.0
  0
LINE
  5
421
330
1F
100
AcDbEntity
  8
0
  6
Continuous
 62
     7
100
AcDbLine
 10
2.552370448967244
 20
8.205587478057533
 30
0.0
 11
2.547067148108344
 21
8.200284177198634
 31
0.0
  0
LINE
  5
422
330
1F
100
AcDbEntity
  8
0
  6
Continuous
 62
     7
100
AcDbLine
 10
3.348370950113946
 20
9.93054287519303
 30
0.0
 11
3.348370950113946
 21
9.93804287519303
 31
0.0
  0
LINE
  5
423
330
1F
100
AcDbEntity
  8
0
  6
Continuous
 62
     7
100
AcDbLine
 10
2.270245950113946
 20
9.93804287519303
 30
0.0
 11
2.270245950113946
 21
9.93054287519303
 31
0.0
  0
LINE
  5
424
330
1F
100
AcDbEntity
  8
0
  6
Continuous
 62
     7
100
AcDbLine
 10
2.270245950113946
 20
9.93804287519303
 30
0.0
 11
3.348370950113946
 21
9.93804287519303
 31
0.0
  0
ARC
  5
425
330
1F
100
AcDbEntity
  8
0
  6
Continuous
 62
     7
100
AcDbCircle
 10
3.348370950113947
 20
8.48815391864907
 30
0.0
 40
0.0078124999999996
100
AcDbArc
 50
315.0000000000045
 51
0.0
  0
ARC
  5
426
330
1F
100
AcDbEntity
  8
0
  6
Continuous
 62
     7
100
AcDbCircle
 10
3.348370950113946
 20
9.93023037519303
 30
0.0
 40
0.0078125
100
AcDbArc
 50
0.0
 51
90.0
  0
LINE
  5
427
330
1F
100
AcDbEntity
  8
0
  6
Continuous
 62
     7
100
AcDbLine
 10
2.262433450113946
 20
9.92116787519303
 30
0.0
 11
2.262433450113946
 21
9.93023037519303
 31
0.0
  0
LINE
  5
428
330
1F
100
AcDbEntity
  8
0
  6
Continuous
 62
     7
100
AcDbLine
 10
2.269933450113946
 20
9.93023037519303
 30
0.0
 11
2.262433450113946
 21
9.93023037519303
 31
0.0
  0
LINE
  5
429
330
1F
100
AcDbEntity
  8
0
  6
Continuous
 62
     7
100
AcDbLine
 10
2.269933450113946
 20
9.916167875193029
 30
0.0
 11
2.262433450113946
 21
9.916167875193029
 31
0.0
  0
LINE
  5
42A
330
1F
100
AcDbEntity
  8
0
  6
Continuous
 62
     7
100
AcDbLine
 10
2.273040051831745
 20
8.48491787519303
 30
0.0
 11
2.293369371790858
 21
8.48491787519303
 31
0.0
  0
LINE
  5
42B
330
1F
100
AcDbEntity
  8
0
  6
Continuous
 62
     7
100
AcDbLine
 10
2.555905982873177
 20
8.209123011963465
 30
0.0
 11
2.552370448967244
 21
8.205587478057533
 31
0.0
  0
LINE
  5
42C
330
1F
100
AcDbEntity
  8
0
  6
Continuous
 62
     7
100
AcDbLine
 10
2.293369371790858
 20
8.48491787519303
 30
0.0
 11
2.297517356938817
 21
8.480769890045071
 31
0.0
  0
ARC
  5
42D
330
1F
100
AcDbEntity
  8
0
  6
Continuous
 62
     7
100
AcDbCircle
 10
2.270245950113946
 20
9.93023037519303
 30
0.0
 40
0.0078125
100
AcDbArc
 50
90.0
 51
180.0000000000004
  0
ARC
  5
42E
330
1F
100
AcDbEntity
  8
0
  6
Continuous
 62
     7
100
AcDbCircle
 10
3.056072406657906
 20
8.195855375193032
 30
0.0
 40
0.0078125000000007
100
AcDbArc
 50
270.0000000000008
 51
314.9999999999962
  0
LINE
  5
42F
330
1F
100
AcDbEntity
  8
0
  6
Continuous
 62
     7
100
AcDbLine
 10
2.962433450113947
 20
8.18804287519303
 30
0.0
 11
3.056072406657906
 21
8.188042875193032
 31
0.0
  0
LINE
  5
430
330
1F
100
AcDbEntity
  8
0
  6
Continuous
 62
     7
100
AcDbLine
 10
2.962433450113947
 20
8.197417875193032
 30
0.0
 11
2.962433450113947
 21
8.18804287519303
 31
0.0
  0
LINE
  5
431
330
1F
100
AcDbEntity
  8
0
  6
Continuous
 62
     7
100
AcDbLine
 10
2.962433450113947
 20
8.197417875193032
 30
0.0
 11
3.055425197966699
 21
8.197417875193032
 31
0.0
  0
LINE
  5
432
330
1F
100
AcDbEntity
  8
0
  6
Continuous
 62
     7
100
AcDbLine
 10
3.055425197966699
 20
8.197417875193032
 30
0.0
 11
3.064920626045925
 21
8.206913303272257
 31
0.0
  0
LINE
  5
433
330
1F
100
AcDbEntity
  8
0
  6
Continuous
 62
     7
100
AcDbLine
 10
3.061596678385926
 20
8.190331103465011
 30
0.0
 11
3.071549752119549
 21
8.200284177198634
 31
0.0
  0
ARC
  5
434
330
1F
100
AcDbEntity
  8
0
  6
Continuous
 62
     7
100
AcDbCircle
 10
2.562544493569987
 20
8.19585537519303
 30
0.0
 40
0.0078125
100
AcDbArc
 50
225.000000000005
 51
270.0000000000008
  0
LINE
  5
435
330
1F
100
AcDbEntity
  8
0
  6
Continuous
 62
     7
100
AcDbLine
 10
2.563191702261196
 20
8.19741787519303
 30
0.0
 11
2.656183450113947
 21
8.197417875193032
 31
0.0
  0
LINE
  5
436
330
1F
100
AcDbEntity
  8
0
  6
Continuous
 62
     7
100
AcDbLine
 10
2.656183450113947
 20
8.18804287519303
 30
0.0
 11
2.656183450113947
 21
8.197417875193032
 31
0.0
  0
LINE
  5
437
330
1F
100
AcDbEntity
  8
0
  6
Continuous
 62
     7
100
AcDbLine
 10
2.562544493569987
 20
8.18804287519303
 30
0.0
 11
2.656183450113947
 21
8.18804287519303
 31
0.0
  0
LINE
  5
438
330
1F
100
AcDbEntity
  8
0
  6
Continuous
 62
     7
100
AcDbLine
 10
2.553696274181969
 20
8.206913303272257
 30
0.0
 11
2.563191702261196
 21
8.19741787519303
 31
0.0
  0
LINE
  5
439
330
1F
100
AcDbEntity
  8
0
  6
Continuous
 62
     7
100
AcDbLine
 10
2.547067148108344
 20
8.200284177198634
 30
0.0
 11
2.557020221841968
 21
8.190331103465011
 31
0.0
  0
LINE
  5
43A
330
1F
100
AcDbEntity
  8
0
  6
Continuous
 62
     7
100
AcDbLine
 10
2.271183450113946
 20
8.491278918649071
 30
0.0
 11
2.271183450113946
 21
8.52116787519303
 31
0.0
  0
LINE
  5
43B
330
1F
100
AcDbEntity
  8
0
  6
Continuous
 62
     7
100
AcDbLine
 10
2.271808450113946
 20
8.491278918649071
 30
0.0
 11
2.271183450113946
 21
8.491278918649071
 31
0.0
  0
LINE
  5
43C
330
1F
100
AcDbEntity
  8
0
  6
Continuous
 62
     7
100
AcDbLine
 10
2.275691702261194
 20
8.48491787519303
 30
0.0
 11
2.271808450113946
 21
8.488801127340277
 31
0.0
  0
LINE
  5
43D
330
1F
100
AcDbEntity
  8
0
  6
Continuous
 62
     7
100
AcDbLine
 10
2.262433450113946
 20
8.52116787519303
 30
0.0
 11
2.262433450113946
 21
8.48815391864907
 31
0.0
  0
ARC
  5
43E
330
1F
100
AcDbEntity
  8
0
  6
Continuous
 62
     7
100
AcDbCircle
 10
2.270245950113946
 20
8.48815391864907
 30
0.0
 40
0.0078125
100
AcDbArc
 50
180.0000000000004
 51
204.4698005207037
  0
LINE
  5
43F
330
1F
100
AcDbEntity
  8
0
  6
Continuous
 62
     7
100
AcDbLine
 10
2.271808450113946
 20
8.488801127340277
 30
0.0
 11
2.271808450113946
 21
8.491278918649071
 31
0.0
  0
ARC
  5
440
330
1F
100
AcDbEntity
  8
0
  6
Continuous
 62
     7
100
AcDbCircle
 10
3.415558450113946
 20
9.10991787519303
 30
0.0
 40
0.0625
100
AcDbArc
 50
0.0
 51
90.0
  0
LINE
  5
441
330
1F
100
AcDbEntity
  8
0
  6
Continuous
 62
     7
100
AcDbLine
 10
3.369201729544671
 20
9.047417875193032
 30
0.0
 11
3.356183450113946
 21
9.047417875193032
 31
0.0
  0
ARC
  5
442
330
1F
100
AcDbEntity
  8
0
  6
Continuous
 62
     7
100
AcDbCircle
 10
3.415558450113946
 20
9.10991787519303
 30
0.0
 40
0.0624999999999996
100
AcDbArc
 50
325.6725501475725
 51
0.0
  0
ARC
  5
443
330
1F
100
AcDbEntity
  8
0
  6
Continuous
 62
     7
100
AcDbCircle
 10
3.415558450113946
 20
9.10991787519303
 30
0.0
 40
0.021312500000001
100
AcDbArc
 50
66.8543094044224
 51
120.6997781802054
  0
LINE
  5
444
330
1F
100
AcDbEntity
  8
0
  6
Continuous
 62
     7
100
AcDbLine
 10
3.415558450113946
 20
9.17241787519303
 30
0.0
 11
3.356183450113946
 21
9.17241787519303
 31
0.0
  0
LINE
  5
445
330
1F
100
AcDbEntity
  8
0
  6
Continuous
 62
     7
100
AcDbLine
 10
2.271808450113946
 20
8.491278918649071
 30
0.0
 11
2.271808450113946
 21
8.525542875193029
 31
0.0
  0
LINE
  5
446
330
1F
100
AcDbEntity
  8
0
  6
Continuous
 62
     7
100
AcDbLine
 10
2.520316702261194
 20
8.257970544722694
 30
0.0
 11
2.520316702261194
 21
8.37554287519303
 31
0.0
  0
LINE
  5
447
330
1F
100
AcDbEntity
  8
0
  6
Continuous
 62
     7
100
AcDbLine
 10
2.528066702261194
 20
8.37554287519303
 30
0.0
 11
2.520316702261194
 21
8.37554287519303
 31
0.0
  0
LINE
  5
448
330
1F
100
AcDbEntity
  8
0
  6
Continuous
 62
     7
100
AcDbLine
 10
3.098300197966698
 20
8.257970544722694
 30
0.0
 11
3.098300197966698
 21
8.37554287519303
 31
0.0
  0
LINE
  5
449
330
1F
100
AcDbEntity
  8
0
  6
Continuous
 62
     7
100
AcDbLine
 10
3.098300197966698
 20
8.37554287519303
 30
0.0
 11
3.090550197966698
 21
8.37554287519303
 31
0.0
  0
LINE
  5
44A
330
1F
100
AcDbEntity
  8
0
  6
Continuous
 62
     7
100
AcDbLine
 10
2.248214700113947
 20
8.52116787519303
 30
0.0
 11
2.271652200113947
 21
8.52116787519303
 31
0.0
  0
LINE
  5
44B
330
1F
100
AcDbEntity
  8
0
  6
Continuous
 62
     7
100
AcDbLine
 10
2.24453381525961
 20
8.526167875193032
 30
0.0
 11
2.24453381525961
 21
8.60366787519303
 31
0.0
  0
LINE
  5
44C
330
1F
100
AcDbEntity
  8
0
  6
Continuous
 62
     7
100
AcDbLine
 10
2.277433450113943
 20
8.60366787519303
 30
0.0
 11
2.24453381525961
 21
8.60366787519303
 31
0.0
  0
LINE
  5
44D
330
1F
100
AcDbEntity
  8
0
  6
Continuous
 62
     7
100
AcDbLine
 10
2.277433450113943
 20
8.526167875193032
 30
0.0
 11
2.24453381525961
 21
8.526167875193032
 31
0.0
  0
LINE
  5
44E
330
1F
100
AcDbEntity
  8
0
  6
Continuous
 62
     7
100
AcDbLine
 10
2.24453381525961
 20
8.681167875193033
 30
0.0
 11
2.24453381525961
 21
8.758667875193032
 31
0.0
  0
LINE
  5
44F
330
1F
100
AcDbEntity
  8
0
  6
Continuous
 62
     7
100
AcDbLine
 10
2.277433450113943
 20
8.758667875193032
 30
0.0
 11
2.24453381525961
 21
8.758667875193032
 31
0.0
  0
LINE
  5
450
330
1F
100
AcDbEntity
  8
0
  6
Continuous
 62
     7
100
AcDbLine
 10
2.277433450113943
 20
8.681167875193033
 30
0.0
 11
2.24453381525961
 21
8.681167875193033
 31
0.0
  0
LINE
  5
451
330
1F
100
AcDbEntity
  8
0
  6
Continuous
 62
     7
100
AcDbLine
 10
2.24453381525961
 20
8.83616787519303
 30
0.0
 11
2.24453381525961
 21
8.913667875193033
 31
0.0
  0
LINE
  5
452
330
1F
100
AcDbEntity
  8
0
  6
Continuous
 62
     7
100
AcDbLine
 10
2.277433450113943
 20
8.913667875193033
 30
0.0
 11
2.24453381525961
 21
8.913667875193033
 31
0.0
  0
LINE
  5
453
330
1F
100
AcDbEntity
  8
0
  6
Continuous
 62
     7
100
AcDbLine
 10
2.277433450113943
 20
8.83616787519303
 30
0.0
 11
2.24453381525961
 21
8.83616787519303
 31
0.0
  0
LINE
  5
454
330
1F
100
AcDbEntity
  8
0
  6
Continuous
 62
     7
100
AcDbLine
 10
2.24453381525961
 20
8.991167875193032
 30
0.0
 11
2.24453381525961
 21
9.068667875193032
 31
0.0
  0
LINE
  5
455
330
1F
100
AcDbEntity
  8
0
  6
Continuous
 62
     7
100
AcDbLine
 10
2.277433450113943
 20
9.068667875193032
 30
0.0
 11
2.24453381525961
 21
9.068667875193032
 31
0.0
  0
LINE
  5
456
330
1F
100
AcDbEntity
  8
0
  6
Continuous
 62
     7
100
AcDbLine
 10
2.277433450113943
 20
8.991167875193032
 30
0.0
 11
2.24453381525961
 21
8.991167875193032
 31
0.0
  0
LINE
  5
457
330
1F
100
AcDbEntity
  8
0
  6
Continuous
 62
     7
100
AcDbLine
 10
2.24453381525961
 20
9.146167875193031
 30
0.0
 11
2.24453381525961
 21
9.223667875193033
 31
0.0
  0
LINE
  5
458
330
1F
100
AcDbEntity
  8
0
  6
Continuous
 62
     7
100
AcDbLine
 10
2.277433450113943
 20
9.223667875193033
 30
0.0
 11
2.24453381525961
 21
9.223667875193033
 31
0.0
  0
LINE
  5
459
330
1F
100
AcDbEntity
  8
0
  6
Continuous
 62
     7
100
AcDbLine
 10
2.277433450113943
 20
9.146167875193031
 30
0.0
 11
2.24453381525961
 21
9.146167875193031
 31
0.0
  0
LINE
  5
45A
330
1F
100
AcDbEntity
  8
0
  6
Continuous
 62
     7
100
AcDbLine
 10
2.24453381525961
 20
9.301167875193032
 30
0.0
 11
2.24453381525961
 21
9.378667875193031
 31
0.0
  0
LINE
  5
45B
330
1F
100
AcDbEntity
  8
0
  6
Continuous
 62
     7
100
AcDbLine
 10
2.277433450113943
 20
9.378667875193031
 30
0.0
 11
2.24453381525961
 21
9.378667875193031
 31
0.0
  0
LINE
  5
45C
330
1F
100
AcDbEntity
  8
0
  6
Continuous
 62
     7
100
AcDbLine
 10
2.277433450113943
 20
9.301167875193032
 30
0.0
 11
2.24453381525961
 21
9.301167875193032
 31
0.0
  0
LINE
  5
45D
330
1F
100
AcDbEntity
  8
0
  6
Continuous
 62
     7
100
AcDbLine
 10
2.24453381525961
 20
9.456167875193033
 30
0.0
 11
2.24453381525961
 21
9.533667875193032
 31
0.0
  0
LINE
  5
45E
330
1F
100
AcDbEntity
  8
0
  6
Continuous
 62
     7
100
AcDbLine
 10
2.277433450113943
 20
9.533667875193032
 30
0.0
 11
2.24453381525961
 21
9.533667875193032
 31
0.0
  0
LINE
  5
45F
330
1F
100
AcDbEntity
  8
0
  6
Continuous
 62
     7
100
AcDbLine
 10
2.277433450113943
 20
9.456167875193033
 30
0.0
 11
2.24453381525961
 21
9.456167875193033
 31
0.0
  0
LINE
  5
460
330
1F
100
AcDbEntity
  8
0
  6
Continuous
 62
     7
100
AcDbLine
 10
2.24453381525961
 20
9.611167875193031
 30
0.0
 11
2.24453381525961
 21
9.688667875193032
 31
0.0
  0
LINE
  5
461
330
1F
100
AcDbEntity
  8
0
  6
Continuous
 62
     7
100
AcDbLine
 10
2.277433450113943
 20
9.688667875193032
 30
0.0
 11
2.24453381525961
 21
9.688667875193032
 31
0.0
  0
LINE
  5
462
330
1F
100
AcDbEntity
  8
0
  6
Continuous
 62
     7
100
AcDbLine
 10
2.277433450113943
 20
9.611167875193031
 30
0.0
 11
2.24453381525961
 21
9.611167875193031
 31
0.0
  0
LINE
  5
463
330
1F
100
AcDbEntity
  8
0
  6
Continuous
 62
     7
100
AcDbLine
 10
2.24453381525961
 20
9.766167875193032
 30
0.0
 11
2.24453381525961
 21
9.843667875193033
 31
0.0
  0
LINE
  5
464
330
1F
100
AcDbEntity
  8
0
  6
Continuous
 62
     7
100
AcDbLine
 10
2.277433450113943
 20
9.843667875193033
 30
0.0
 11
2.24453381525961
 21
9.843667875193033
 31
0.0
  0
LINE
  5
465
330
1F
100
AcDbEntity
  8
0
  6
Continuous
 62
     7
100
AcDbLine
 10
2.277433450113943
 20
9.766167875193032
 30
0.0
 11
2.24453381525961
 21
9.766167875193032
 31
0.0
  0
LINE
  5
466
330
1F
100
AcDbEntity
  8
0
  6
Continuous
 62
     7
100
AcDbLine
 10
2.24453381525961
 20
9.843667875193033
 30
0.0
 11
2.24453381525961
 21
9.92616787519303
 31
0.0
  0
LINE
  5
467
330
1F
100
AcDbEntity
  8
0
  6
Continuous
 62
     7
100
AcDbLine
 10
2.24453381525961
 20
9.688667875193032
 30
0.0
 11
2.24453381525961
 21
9.766167875193032
 31
0.0
  0
LINE
  5
468
330
1F
100
AcDbEntity
  8
0
  6
Continuous
 62
     7
100
AcDbLine
 10
2.24453381525961
 20
9.533667875193032
 30
0.0
 11
2.24453381525961
 21
9.611167875193031
 31
0.0
  0
LINE
  5
469
330
1F
100
AcDbEntity
  8
0
  6
Continuous
 62
     7
100
AcDbLine
 10
2.24453381525961
 20
9.378667875193031
 30
0.0
 11
2.24453381525961
 21
9.456167875193033
 31
0.0
  0
LINE
  5
46A
330
1F
100
AcDbEntity
  8
0
  6
Continuous
 62
     7
100
AcDbLine
 10
2.24453381525961
 20
9.223667875193033
 30
0.0
 11
2.24453381525961
 21
9.301167875193032
 31
0.0
  0
LINE
  5
46B
330
1F
100
AcDbEntity
  8
0
  6
Continuous
 62
     7
100
AcDbLine
 10
2.24453381525961
 20
9.068667875193032
 30
0.0
 11
2.24453381525961
 21
9.146167875193031
 31
0.0
  0
LINE
  5
46C
330
1F
100
AcDbEntity
  8
0
  6
Continuous
 62
     7
100
AcDbLine
 10
2.24453381525961
 20
8.913667875193033
 30
0.0
 11
2.24453381525961
 21
8.991167875193032
 31
0.0
  0
LINE
  5
46D
330
1F
100
AcDbEntity
  8
0
  6
Continuous
 62
     7
100
AcDbLine
 10
2.24453381525961
 20
8.758667875193032
 30
0.0
 11
2.24453381525961
 21
8.83616787519303
 31
0.0
  0
LINE
  5
46E
330
1F
100
AcDbEntity
  8
0
  6
Continuous
 62
     7
100
AcDbLine
 10
2.24453381525961
 20
8.60366787519303
 30
0.0
 11
2.24453381525961
 21
8.681167875193033
 31
0.0
  0
LINE
  5
46F
330
1F
100
AcDbEntity
  8
0
  6
Continuous
 62
     7
100
AcDbLine
 10
2.202970235543344
 20
9.92616787519303
 30
0.0
 11
2.202970235543344
 21
8.526167875193032
 31
0.0
  0
LINE
  5
470
330
1F
100
AcDbEntity
  8
0
  6
Continuous
 62
     7
100
AcDbLine
 10
2.24453381525961
 20
9.92616787519303
 30
0.0
 11
2.202970235543344
 21
9.92616787519303
 31
0.0
  0
LINE
  5
471
330
1F
100
AcDbEntity
  8
0
  6
Continuous
 62
     7
100
AcDbLine
 10
2.202970235543344
 20
8.526167875193032
 30
0.0
 11
2.24453381525961
 21
8.526167875193032
 31
0.0
  0
LINE
  5
472
330
1F
100
AcDbEntity
  8
0
  6
Continuous
 62
     7
100
AcDbLine
 10
2.250033684850443
 20
9.92616787519303
 30
0.0
 11
2.24453381525961
 21
9.92616787519303
 31
0.0
  0
LINE
  5
473
330
1F
100
AcDbEntity
  8
0
  6
Continuous
 62
     7
100
AcDbLine
 10
2.250033684850443
 20
9.92116787519303
 30
0.0
 11
2.250033684850443
 21
9.92616787519303
 31
0.0
  0
LINE
  5
474
330
1F
100
AcDbEntity
  8
0
  6
Continuous
 62
     7
100
AcDbLine
 10
2.809308450113947
 20
8.18804287519303
 30
0.0
 11
2.809308450113947
 21
8.37554287519303
 31
0.0
  0
LINE
  5
475
330
1F
100
AcDbEntity
  8
0
  6
Continuous
 62
     7
100
AcDbLine
 10
2.701204613593978
 20
8.18804287519303
 30
0.0
 11
2.809308450113947
 21
8.18804287519303
 31
0.0
  0
LINE
  5
476
330
1F
100
AcDbEntity
  8
0
  6
Continuous
 62
     7
100
AcDbLine
 10
2.701204613593978
 20
8.18804287519303
 30
0.0
 11
2.701204613593978
 21
8.37554287519303
 31
0.0
  0
LINE
  5
477
330
1F
100
AcDbEntity
  8
0
  6
Continuous
 62
     7
100
AcDbLine
 10
2.701204613593978
 20
8.37554287519303
 30
0.0
 11
2.809308450113947
 21
8.37554287519303
 31
0.0
  0
LINE
  5
478
330
1F
100
AcDbEntity
  8
0
  6
Continuous
 62
     7
100
AcDbLine
 10
2.917412286633915
 20
8.18804287519303
 30
0.0
 11
2.917412286633915
 21
8.37554287519303
 31
0.0
  0
LINE
  5
479
330
1F
100
AcDbEntity
  8
0
  6
Continuous
 62
     7
100
AcDbLine
 10
2.809308450113947
 20
8.18804287519303
 30
0.0
 11
2.917412286633915
 21
8.18804287519303
 31
0.0
  0
LINE
  5
47A
330
1F
100
AcDbEntity
  8
0
  6
Continuous
 62
     7
100
AcDbLine
 10
2.809308450113947
 20
8.37554287519303
 30
0.0
 11
2.917412286633915
 21
8.37554287519303
 31
0.0
  0
LINE
  5
47B
330
1F
100
AcDbEntity
  8
0
  6
Continuous
 62
     7
100
AcDbLine
 10
2.987926189644486
 20
8.19741787519303
 30
0.0
 11
2.987926189644486
 21
8.37554287519303
 31
0.0
  0
LINE
  5
47C
330
1F
100
AcDbEntity
  8
0
  6
Continuous
 62
     7
100
AcDbLine
 10
2.917412286633915
 20
8.18804287519303
 30
0.0
 11
2.962433450113947
 21
8.18804287519303
 31
0.0
  0
LINE
  5
47D
330
1F
100
AcDbEntity
  8
0
  6
Continuous
 62
     7
100
AcDbLine
 10
2.630690710583406
 20
8.19741787519303
 30
0.0
 11
2.630690710583405
 21
8.37554287519303
 31
0.0
  0
LINE
  5
47E
330
1F
100
AcDbEntity
  8
0
  6
Continuous
 62
     7
100
AcDbLine
 10
2.656183450113947
 20
8.18804287519303
 30
0.0
 11
2.701204613593978
 21
8.18804287519303
 31
0.0
  0
LINE
  5
47F
330
1F
100
AcDbEntity
  8
0
  6
Continuous
 62
     7
100
AcDbLine
 10
2.528066702261194
 20
8.37554287519303
 30
0.0
 11
2.630690710583405
 21
8.37554287519303
 31
0.0
  0
LINE
  5
480
330
1F
100
AcDbEntity
  8
0
  6
Continuous
 62
     7
100
AcDbLine
 10
3.090550197966698
 20
8.37554287519303
 30
0.0
 11
3.090550197966698
 21
8.25054287519303
 31
0.0
  0
LINE
  5
481
330
1F
100
AcDbEntity
  8
0
  6
Continuous
 62
     7
100
AcDbLine
 10
3.037425197966698
 20
8.197417875193032
 30
0.0
 11
3.090550197966698
 21
8.25054287519303
 31
0.0
  0
LINE
  5
482
330
1F
100
AcDbEntity
  8
0
  6
Continuous
 62
     7
100
AcDbLine
 10
2.987926189644486
 20
8.37554287519303
 30
0.0
 11
3.090550197966698
 21
8.37554287519303
 31
0.0
  0
LINE
  5
483
330
1F
100
AcDbEntity
  8
0
  6
Continuous
 62
     7
100
AcDbLine
 10
2.573025731004948
 20
8.24575894755345
 30
0.0
 11
2.605185887293453
 21
8.262123778161563
 31
0.0
  0
LINE
  5
484
330
1F
100
AcDbEntity
  8
0
  6
Continuous
 62
     7
100
AcDbLine
 10
2.605185887293453
 20
8.262123778161563
 30
0.0
 11
2.607093606402453
 21
8.298157705801142
 31
0.0
  0
CIRCLE
  5
485
330
1F
100
AcDbEntity
  8
0
  6
Continuous
 62
     7
100
AcDbCircle
 10
2.574933450113947
 20
8.28179287519303
 30
0.0
 40
0.0194999999999999
  0
LINE
  5
486
330
1F
100
AcDbEntity
  8
0
  6
Continuous
 62
     7
100
AcDbLine
 10
2.54277329382544
 20
8.265428044584917
 30
0.0
 11
2.573025731004948
 21
8.24575894755345
 31
0.0
  0
LINE
  5
487
330
1F
100
AcDbEntity
  8
0
  6
Continuous
 62
     7
100
AcDbLine
 10
2.607093606402453
 20
8.298157705801142
 30
0.0
 11
2.576841169222945
 21
8.31782680283261
 31
0.0
  0
LINE
  5
488
330
1F
100
AcDbEntity
  8
0
  6
Continuous
 62
     7
100
AcDbLine
 10
2.544681012934439
 20
8.301461972224498
 30
0.0
 11
2.54277329382544
 21
8.265428044584917
 31
0.0
  0
LINE
  5
489
330
1F
100
AcDbEntity
  8
0
  6
Continuous
 62
     7
100
AcDbLine
 10
2.576841169222945
 20
8.31782680283261
 30
0.0
 11
2.544681012934439
 21
8.301461972224498
 31
0.0
  0
LINE
  5
48A
330
1F
100
AcDbEntity
  8
0
  6
Continuous
 62
     7
100
AcDbLine
 10
3.044379611905825
 20
8.245715199379685
 30
0.0
 11
3.075275714773742
 21
8.26435693108327
 31
0.0
  0
LINE
  5
48B
330
1F
100
AcDbEntity
  8
0
  6
Continuous
 62
     7
100
AcDbLine
 10
3.075275714773742
 20
8.26435693108327
 30
0.0
 11
3.074579552981865
 21
8.300434606896614
 31
0.0
  0
CIRCLE
  5
48C
330
1F
100
AcDbEntity
  8
0
  6
Continuous
 62
     7
100
AcDbCircle
 10
3.043683450113947
 20
8.28179287519303
 30
0.0
 40
0.0194999999999995
  0
LINE
  5
48D
330
1F
100
AcDbEntity
  8
0
  6
Continuous
 62
     7
100
AcDbLine
 10
3.012787347246029
 20
8.263151143489447
 30
0.0
 11
3.044379611905825
 21
8.245715199379685
 31
0.0
  0
LINE
  5
48E
330
1F
100
AcDbEntity
  8
0
  6
Continuous
 62
     7
100
AcDbLine
 10
3.074579552981865
 20
8.300434606896614
 30
0.0
 11
3.042987288322069
 21
8.317870551006376
 31
0.0
  0
LINE
  5
48F
330
1F
100
AcDbEntity
  8
0
  6
Continuous
 62
     7
100
AcDbLine
 10
3.012091185454151
 20
8.299228819302794
 30
0.0
 11
3.012787347246029
 21
8.263151143489447
 31
0.0
  0
LINE
  5
490
330
1F
100
AcDbEntity
  8
0
  6
Continuous
 62
     7
100
AcDbLine
 10
3.042987288322069
 20
8.317870551006376
 30
0.0
 11
3.012091185454151
 21
8.299228819302794
 31
0.0
  0
LINE
  5
491
330
1F
100
AcDbEntity
  8
0
  6
Continuous
 62
     7
100
AcDbLine
 10
2.277433450113946
 20
8.603667875193029
 30
0.0
 11
2.244533815259611
 21
8.603667875193029
 31
0.0
  0
LINE
  5
492
330
1F
100
AcDbEntity
  8
0
  6
Continuous
 62
     7
100
AcDbLine
 10
2.277433450113946
 20
8.681167875193031
 30
0.0
 11
2.244533815259611
 21
8.681167875193031
 31
0.0
  0
LINE
  5
493
330
1F
100
AcDbEntity
  8
0
  6
Continuous
 62
     7
100
AcDbLine
 10
2.277433450113946
 20
8.681167875193031
 30
0.0
 11
2.277433450113946
 21
8.603667875193029
 31
0.0
  0
LINE
  5
494
330
1F
100
AcDbEntity
  8
0
  6
Continuous
 62
     7
100
AcDbLine
 10
2.277433450113946
 20
8.75866787519303
 30
0.0
 11
2.277433450113946
 21
8.836167875193029
 31
0.0
  0
LINE
  5
495
330
1F
100
AcDbEntity
  8
0
  6
Continuous
 62
     7
100
AcDbLine
 10
2.277433450113946
 20
8.75866787519303
 30
0.0
 11
2.244533815259611
 21
8.75866787519303
 31
0.0
  0
LINE
  5
496
330
1F
100
AcDbEntity
  8
0
  6
Continuous
 62
     7
100
AcDbLine
 10
2.277433450113946
 20
8.836167875193029
 30
0.0
 11
2.244533815259611
 21
8.836167875193029
 31
0.0
  0
LINE
  5
497
330
1F
100
AcDbEntity
  8
0
  6
Continuous
 62
     7
100
AcDbLine
 10
2.277433450113946
 20
8.99116787519303
 30
0.0
 11
2.244533815259611
 21
8.99116787519303
 31
0.0
  0
LINE
  5
498
330
1F
100
AcDbEntity
  8
0
  6
Continuous
 62
     7
100
AcDbLine
 10
2.277433450113946
 20
8.913667875193031
 30
0.0
 11
2.277433450113946
 21
8.99116787519303
 31
0.0
  0
LINE
  5
499
330
1F
100
AcDbEntity
  8
0
  6
Continuous
 62
     7
100
AcDbLine
 10
2.277433450113946
 20
8.913667875193031
 30
0.0
 11
2.244533815259611
 21
8.913667875193031
 31
0.0
  0
LINE
  5
49A
330
1F
100
AcDbEntity
  8
0
  6
Continuous
 62
     7
100
AcDbLine
 10
2.277433450113946
 20
9.068667875193029
 30
0.0
 11
2.277433450113946
 21
9.14616787519303
 31
0.0
  0
LINE
  5
49B
330
1F
100
AcDbEntity
  8
0
  6
Continuous
 62
     7
100
AcDbLine
 10
2.277433450113946
 20
9.068667875193029
 30
0.0
 11
2.244533815259611
 21
9.068667875193029
 31
0.0
  0
LINE
  5
49C
330
1F
100
AcDbEntity
  8
0
  6
Continuous
 62
     7
100
AcDbLine
 10
2.277433450113946
 20
9.14616787519303
 30
0.0
 11
2.244533815259611
 21
9.14616787519303
 31
0.0
  0
LINE
  5
49D
330
1F
100
AcDbEntity
  8
0
  6
Continuous
 62
     7
100
AcDbLine
 10
2.277433450113946
 20
9.30116787519303
 30
0.0
 11
2.244533815259611
 21
9.30116787519303
 31
0.0
  0
LINE
  5
49E
330
1F
100
AcDbEntity
  8
0
  6
Continuous
 62
     7
100
AcDbLine
 10
2.277433450113946
 20
9.22366787519303
 30
0.0
 11
2.277433450113946
 21
9.30116787519303
 31
0.0
  0
LINE
  5
49F
330
1F
100
AcDbEntity
  8
0
  6
Continuous
 62
     7
100
AcDbLine
 10
2.277433450113946
 20
9.22366787519303
 30
0.0
 11
2.244533815259611
 21
9.22366787519303
 31
0.0
  0
LINE
  5
4A0
330
1F
100
AcDbEntity
  8
0
  6
Continuous
 62
     7
100
AcDbLine
 10
2.277433450113946
 20
9.456167875193032
 30
0.0
 11
2.244533815259611
 21
9.456167875193032
 31
0.0
  0
LINE
  5
4A1
330
1F
100
AcDbEntity
  8
0
  6
Continuous
 62
     7
100
AcDbLine
 10
2.277433450113946
 20
9.37866787519303
 30
0.0
 11
2.277433450113946
 21
9.456167875193032
 31
0.0
  0
LINE
  5
4A2
330
1F
100
AcDbEntity
  8
0
  6
Continuous
 62
     7
100
AcDbLine
 10
2.277433450113946
 20
9.37866787519303
 30
0.0
 11
2.244533815259611
 21
9.37866787519303
 31
0.0
  0
LINE
  5
4A3
330
1F
100
AcDbEntity
  8
0
  6
Continuous
 62
     7
100
AcDbLine
 10
2.277433450113946
 20
9.61116787519303
 30
0.0
 11
2.244533815259611
 21
9.61116787519303
 31
0.0
  0
LINE
  5
4A4
330
1F
100
AcDbEntity
  8
0
  6
Continuous
 62
     7
100
AcDbLine
 10
2.277433450113946
 20
9.53366787519303
 30
0.0
 11
2.277433450113946
 21
9.61116787519303
 31
0.0
  0
LINE
  5
4A5
330
1F
100
AcDbEntity
  8
0
  6
Continuous
 62
     7
100
AcDbLine
 10
2.277433450113946
 20
9.53366787519303
 30
0.0
 11
2.244533815259611
 21
9.53366787519303
 31
0.0
  0
LINE
  5
4A6
330
1F
100
AcDbEntity
  8
0
  6
Continuous
 62
     7
100
AcDbLine
 10
2.277433450113946
 20
9.76616787519303
 30
0.0
 11
2.244533815259611
 21
9.76616787519303
 31
0.0
  0
LINE
  5
4A7
330
1F
100
AcDbEntity
  8
0
  6
Continuous
 62
     7
100
AcDbLine
 10
2.277433450113946
 20
9.68866787519303
 30
0.0
 11
2.277433450113946
 21
9.76616787519303
 31
0.0
  0
LINE
  5
4A8
330
1F
100
AcDbEntity
  8
0
  6
Continuous
 62
     7
100
AcDbLine
 10
2.277433450113946
 20
9.68866787519303
 30
0.0
 11
2.244533815259611
 21
9.68866787519303
 31
0.0
  0
LINE
  5
4A9
330
1F
100
AcDbEntity
  8
0
  6
Continuous
 62
     7
100
AcDbLine
 10
2.274933450113946
 20
9.92116787519303
 30
0.0
 11
2.242433450113946
 21
9.92116787519303
 31
0.0
  0
LINE
  5
4AA
330
1F
100
AcDbEntity
  8
0
  6
Continuous
 62
     7
100
AcDbLine
 10
2.277433450113946
 20
9.843667875193029
 30
0.0
 11
2.277433450113946
 21
9.916167875193029
 31
0.0
  0
LINE
  5
4AB
330
1F
100
AcDbEntity
  8
0
  6
Continuous
 62
     7
100
AcDbLine
 10
2.277433450113946
 20
9.843667875193029
 30
0.0
 11
2.244533815259611
 21
9.843667875193029
 31
0.0
  0
LINE
  5
4AC
330
1F
100
AcDbEntity
  8
0
  6
Continuous
 62
     7
100
AcDbLine
 10
2.277433450113946
 20
8.525542875193029
 30
0.0
 11
2.277433450113946
 21
8.603667875193029
 31
0.0
  0
LINE
  5
4AD
330
1F
100
AcDbEntity
  8
0
  6
Continuous
 62
     7
100
AcDbLine
 10
2.277433450113946
 20
8.525542875193029
 30
0.0
 11
2.271652200113947
 21
8.525542875193029
 31
0.0
  0
LINE
  5
4AE
330
1F
100
AcDbEntity
  8
0
  6
Continuous
 62
     7
100
AcDbLine
 10
2.277433450113946
 20
8.681167875193031
 30
0.0
 11
2.277433450113946
 21
8.75866787519303
 31
0.0
  0
LINE
  5
4AF
330
1F
100
AcDbEntity
  8
0
  6
Continuous
 62
     7
100
AcDbLine
 10
2.277433450113946
 20
8.836167875193029
 30
0.0
 11
2.277433450113946
 21
8.913667875193031
 31
0.0
  0
LINE
  5
4B0
330
1F
100
AcDbEntity
  8
0
  6
Continuous
 62
     7
100
AcDbLine
 10
2.277433450113946
 20
8.99116787519303
 30
0.0
 11
2.277433450113946
 21
9.068667875193029
 31
0.0
  0
LINE
  5
4B1
330
1F
100
AcDbEntity
  8
0
  6
Continuous
 62
     7
100
AcDbLine
 10
2.277433450113946
 20
9.14616787519303
 30
0.0
 11
2.277433450113946
 21
9.22366787519303
 31
0.0
  0
LINE
  5
4B2
330
1F
100
AcDbEntity
  8
0
  6
Continuous
 62
     7
100
AcDbLine
 10
2.277433450113946
 20
9.30116787519303
 30
0.0
 11
2.277433450113946
 21
9.37866787519303
 31
0.0
  0
LINE
  5
4B3
330
1F
100
AcDbEntity
  8
0
  6
Continuous
 62
     7
100
AcDbLine
 10
2.277433450113946
 20
9.456167875193032
 30
0.0
 11
2.277433450113946
 21
9.53366787519303
 31
0.0
  0
LINE
  5
4B4
330
1F
100
AcDbEntity
  8
0
  6
Continuous
 62
     7
100
AcDbLine
 10
2.277433450113946
 20
9.61116787519303
 30
0.0
 11
2.277433450113946
 21
9.68866787519303
 31
0.0
  0
LINE
  5
4B5
330
1F
100
AcDbEntity
  8
0
  6
Continuous
 62
     7
100
AcDbLine
 10
2.277433450113946
 20
9.76616787519303
 30
0.0
 11
2.277433450113946
 21
9.843667875193029
 31
0.0
  0
LINE
  5
4B6
330
1F
100
AcDbEntity
  8
0
  6
Continuous
 62
     7
100
AcDbLine
 10
1.294346542653443
 20
8.488542243863797
 30
0.0
 11
1.551079899596982
 21
8.196792875193033
 31
0.0
  0
LINE
  5
4B7
330
1F
100
AcDbEntity
  8
0
  6
Continuous
 62
     7
100
AcDbLine
 10
1.984690729251378
 20
8.196792875193033
 30
0.0
 11
1.551079899596982
 21
8.196792875193033
 31
0.0
  0
LINE
  5
4B8
330
1F
100
AcDbEntity
  8
0
  6
Continuous
 62
     7
100
AcDbLine
 10
1.984690729251378
 20
8.196792875193033
 30
0.0
 11
2.241424086194918
 21
8.488542243863797
 31
0.0
  0
LINE
  5
4B9
330
1F
100
AcDbEntity
  8
0
  6
Continuous
 62
     7
100
AcDbLine
 10
2.241424086194917
 20
9.929292875193033
 30
0.0
 11
2.241424086194917
 21
9.92616787519303
 31
0.0
  0
LINE
  5
4BA
330
1F
100
AcDbEntity
  8
0
  6
Continuous
 62
     7
100
AcDbLine
 10
2.241424086194918
 20
8.526167875193032
 30
0.0
 11
2.241424086194918
 21
8.488542243863797
 31
0.0
  0
LINE
  5
4BB
330
1F
100
AcDbEntity
  8
0
  6
Continuous
 62
     7
100
AcDbLine
 10
1.294346542653442
 20
9.929292875193033
 30
0.0
 11
2.241424086194917
 21
9.929292875193033
 31
0.0
  0
LINE
  5
4BC
330
1F
100
AcDbEntity
  8
0
  6
Continuous
 62
     7
100
AcDbLine
 10
1.294346542653443
 20
8.488542243863797
 30
0.0
 11
1.294346542653442
 21
9.929292875193033
 31
0.0
  0
LINE
  5
4BD
330
1F
100
AcDbEntity
  8
0
  6
Continuous
 62
     7
100
AcDbLine
 10
1.286646725226276
 20
9.172417875193034
 30
0.0
 11
1.286646725226276
 21
9.930230375193032
 31
0.0
  0
LWPOLYLINE
  5
4BE
330
1F
100
AcDbEntity
  8
0
  6
Continuous
 62
     7
100
AcDbPolyline
 90
        9
 70
   128
 43
0.0
 10
1.293521562214818
 20
9.938042875193034
 10
1.292180348052914
 20
9.937892760196183
 10
1.290890675999092
 20
9.937448184040777
 10
1.289702107427122
 20
9.936726231539147
 10
1.288660318360668
 20
9.935754646921053
 10
1.287805344169312
 20
9.934570767638498
 10
1.287170041031752
 20
9.933220089508385
 10
1.286778823291284
 20
9.931754518333785
 10
1.286646725226276
 20
9.930230375193032
  0
LINE
  5
4C9
330
1F
100
AcDbEntity
  8
0
  6
Continuous
 62
     7
100
AcDbLine
 10
1.293521562214818
 20
9.938042875193034
 30
0.0
 11
2.242249066633542
 21
9.938042875193032
 31
0.0
  0
LWPOLYLINE
  5
4CA
330
1F
100
AcDbEntity
  8
0
  6
Continuous
 62
     7
100
AcDbPolyline
 90
        9
 70
   128
 43
0.0
 10
2.249123903622084
 20
9.930230375193032
 10
2.248991805557075
 20
9.931754518333785
 10
2.248600587816607
 20
9.933220089508385
 10
2.247965284679048
 20
9.934570767638498
 10
2.247110310487692
 20
9.935754646921051
 10
2.246068521421238
 20
9.936726231539145
 10
2.244879952849268
 20
9.937448184040777
 10
2.243590280795445
 20
9.937892760196181
 10
2.242249066633542
 20
9.938042875193032
  0
LINE
  5
4D5
330
1F
100
AcDbEntity
  8
0
  6
Continuous
 62
     7
100
AcDbLine
 10
2.249123903622084
 20
9.930230375193032
 30
0.0
 11
2.249123903622084
 21
9.92616787519303
 31
0.0
  0
LINE
  5
4D6
330
1F
100
AcDbEntity
  8
0
  6
Continuous
 62
     7
100
AcDbLine
 10
2.249123903622084
 20
8.52116787519303
 30
0.0
 11
2.249123903622084
 21
8.488153918649074
 31
0.0
  0
LWPOLYLINE
  5
4D7
330
1F
100
AcDbEntity
  8
0
  6
Continuous
 62
     7
100
AcDbPolyline
 90
        9
 70
   128
 43
0.0
 10
2.247110310487692
 20
8.482629646921053
 10
2.24756338749085
 20
8.483197721116545
 10
2.247965284679049
 20
8.483813526203608
 10
2.248312131562666
 20
8.48447113164262
 10
2.248600587816608
 20
8.48516420433372
 10
2.248827875449462
 20
8.485886069608021
 10
2.248991805557075
 20
8.486629775508321
 10
2.2490907994029
 20
8.487388159740249
 10
2.249123903622084
 20
8.488153918649074
  0
LINE
  5
4E2
330
1F
100
AcDbEntity
  8
0
  6
Continuous
 62
     7
100
AcDbLine
 10
1.989893691191899
 20
8.190331103465013
 30
0.0
 11
2.247110310487692
 21
8.482629646921053
 31
0.0
  0
LWPOLYLINE
  5
4E3
330
1F
100
AcDbEntity
  8
0
  6
Continuous
 62
     7
100
AcDbPolyline
 90
        9
 70
   128
 43
0.0
 10
1.985032447337749
 20
8.188042875193032
 10
1.985706299199598
 20
8.188080494515907
 10
1.986373661499652
 20
8.188192990189883
 10
1.987028107174145
 20
8.188379278820126
 10
1.987663333553474
 20
8.188637566345289
 10
1.988273223060358
 20
8.18896536531531
 10
1.988851902125444
 20
8.189359518846919
 10
1.989393797752999
 20
8.189816231026137
 10
1.989893691191899
 20
8.190331103465013
  0
LINE
  5
4EE
330
1F
100
AcDbEntity
  8
0
  6
Continuous
 62
     7
100
AcDbLine
 10
1.985032447337749
 20
8.188042875193032
 30
0.0
 11
1.550738181510611
 21
8.188042875193032
 31
0.0
  0
LWPOLYLINE
  5
4EF
330
1F
100
AcDbEntity
  8
0
  6
Continuous
 62
     7
100
AcDbPolyline
 90
        9
 70
   128
 43
0.0
 10
1.545876937656461
 20
8.190331103465013
 10
1.546376831095361
 20
8.189816231026137
 10
1.546918726722915
 20
8.189359518846919
 10
1.547497405788002
 20
8.18896536531531
 10
1.548107295294886
 20
8.188637566345289
 10
1.548742521674215
 20
8.188379278820124
 10
1.549396967348708
 20
8.188192990189883
 10
1.550064329648763
 20
8.188080494515907
 10
1.550738181510611
 20
8.188042875193032
  0
LINE
  5
4FA
330
1F
100
AcDbEntity
  8
0
  6
Continuous
 62
     7
100
AcDbLine
 10
1.288660318360668
 20
8.482629646921055
 30
0.0
 11
1.545876937656461
 21
8.190331103465013
 31
0.0
  0
LWPOLYLINE
  5
4FB
330
1F
100
AcDbEntity
  8
0
  6
Continuous
 62
     7
100
AcDbPolyline
 90
        9
 70
   128
 43
0.0
 10
1.286646725226277
 20
8.488153918649074
 10
1.28667982944546
 20
8.487388159740249
 10
1.286778823291285
 20
8.486629775508323
 10
1.286942753398899
 20
8.485886069608025
 10
1.287170041031753
 20
8.48516420433372
 10
1.287458497285695
 20
8.484471131642621
 10
1.287805344169312
 20
8.483813526203608
 10
1.288207241357511
 20
8.483197721116545
 10
1.288660318360668
 20
8.482629646921055
  0
LINE
  5
506
330
1F
100
AcDbEntity
  8
0
  6
Continuous
 62
     7
100
AcDbLine
 10
1.286646725226277
 20
8.488153918649074
 30
0.0
 11
1.286646725226276
 21
9.047417875193034
 31
0.0
  0
LINE
  5
507
330
1F
100
AcDbEntity
  8
0
  6
Continuous
 62
     7
100
AcDbLine
 10
1.234397964113361
 20
9.047417875193034
 30
0.0
 11
1.286646725226276
 21
9.047417875193034
 31
0.0
  0
LWPOLYLINE
  5
508
330
1F
100
AcDbEntity
  8
0
  6
Continuous
 62
     7
100
AcDbPolyline
 90
       10
 70
   128
 43
0.0
 10
1.179399268205029
 20
9.109917875193032
 10
1.180234821977275
 20
9.099064864088849
 10
1.182716095415453
 20
9.088541616235178
 10
1.18676769628173
 20
9.078667875193034
 10
1.192266518733993
 20
9.069743649587624
 10
1.199045483834568
 20
9.062040097498096
 10
1.206898616159195
 20
9.055791287456504
 10
1.215587302256069
 20
9.051187086393913
 10
1.224847540794822
 20
9.04836739062977
 10
1.234397964113361
 20
9.047417875193034
  0
LWPOLYLINE
  5
514
330
1F
100
AcDbEntity
  8
0
  6
Continuous
 62
     7
100
AcDbPolyline
 90
       10
 70
   128
 43
0.0
 10
1.234397964113361
 20
9.172417875193034
 10
1.224847540794821
 20
9.171468359756297
 10
1.215587302256068
 20
9.168648663992153
 10
1.206898616159195
 20
9.16404446292956
 10
1.199045483834567
 20
9.15779565288797
 10
1.192266518733992
 20
9.15009210079844
 10
1.18676769628173
 20
9.141167875193034
 10
1.182716095415453
 20
9.131294134150888
 10
1.180234821977274
 20
9.120770886297215
 10
1.179399268205029
 20
9.109917875193032
  0
LINE
  5
520
330
1F
100
AcDbEntity
  8
0
  6
Continuous
 62
     7
100
AcDbLine
 10
1.234397964113361
 20
9.172417875193034
 30
0.0
 11
1.286646725226276
 21
9.172417875193034
 31
0.0
  0
LWPOLYLINE
  5
521
330
1F
100
AcDbEntity
  8
0
  6
Continuous
 62
     7
100
AcDbPolyline
 90
       23
 70
   128
 43
0.0
 10
1.253152519418102
 20
9.109917875193032
 10
1.252392828151525
 20
9.115922300310714
 10
1.250175300020153
 20
9.121440282615055
 10
1.246679585965041
 20
9.126024787996458
 10
1.242188887949125
 20
9.129304407094027
 10
1.237067015618443
 20
9.13101344467312
 10
1.23172891260828
 20
9.13101344467312
 10
1.226607040277597
 20
9.129304407094027
 10
1.222116342261681
 20
9.126024787996458
 10
1.21862062820657
 20
9.121440282615055
 10
1.216403100075197
 20
9.115922300310714
 10
1.21564340880862
 20
9.109917875193032
 10
1.216403100075197
 20
9.10391345007535
 10
1.21862062820657
 20
9.09839546777101
 10
1.222116342261681
 20
9.093810962389608
 10
1.226607040277598
 20
9.09053134329204
 10
1.23172891260828
 20
9.088822305712945
 10
1.237067015618443
 20
9.088822305712945
 10
1.242188887949125
 20
9.09053134329204
 10
1.246679585965041
 20
9.09381096238961
 10
1.250175300020153
 20
9.098395467771011
 10
1.252392828151525
 20
9.10391345007535
 10
1.253152519418102
 20
9.109917875193032
  0
LWPOLYLINE
  5
53A
330
1F
100
AcDbEntity
  8
0
  6
Continuous
 62
     7
100
AcDbPolyline
 90
       10
 70
   128
 43
0.0
 10
1.230241606141734
 20
9.047417875193034
 10
1.220691182823195
 20
9.04836739062977
 10
1.211430944284442
 20
9.051187086393913
 10
1.202742258187569
 20
9.055791287456506
 10
1.194889125862941
 20
9.062040097498096
 10
1.188110160762367
 20
9.069743649587624
 10
1.182611338310104
 20
9.078667875193034
 10
1.178559737443827
 20
9.088541616235178
 10
1.176078464005649
 20
9.099064864088849
 10
1.175242910233402
 20
9.109917875193032
  0
LINE
  5
546
330
1F
100
AcDbEntity
  8
0
  6
Continuous
 62
     7
100
AcDbLine
 10
1.175242910233402
 20
9.109917875193032
 30
0.0
 11
1.179399268205029
 21
9.109917875193032
 31
0.0
  0
LINE
  5
547
330
1F
100
AcDbEntity
  8
0
  6
Continuous
 62
     7
100
AcDbLine
 10
1.234397964113361
 20
9.047417875193034
 30
0.0
 11
1.230241606141734
 21
9.047417875193034
 31
0.0
  0
LWPOLYLINE
  5
548
330
1F
100
AcDbEntity
  8
0
  6
Continuous
 62
     7
100
AcDbPolyline
 90
       10
 70
   128
 43
0.0
 10
1.175242910233402
 20
9.109917875193032
 10
1.176078464005648
 20
9.120770886297215
 10
1.178559737443827
 20
9.131294134150888
 10
1.182611338310103
 20
9.141167875193034
 10
1.188110160762366
 20
9.15009210079844
 10
1.194889125862941
 20
9.15779565288797
 10
1.202742258187568
 20
9.16404446292956
 10
1.211430944284442
 20
9.168648663992153
 10
1.220691182823195
 20
9.171468359756297
 10
1.230241606141734
 20
9.172417875193034
  0
LINE
  5
554
330
1F
100
AcDbEntity
  8
0
  6
Continuous
 62
     7
100
AcDbLine
 10
1.230241606141734
 20
9.172417875193034
 30
0.0
 11
1.234397964113361
 21
9.172417875193034
 31
0.0
  0
LWPOLYLINE
  5
555
330
1F
100
AcDbEntity
  8
0
  6
Continuous
 62
     7
100
AcDbPolyline
 90
       13
 70
   128
 43
0.0
 10
1.232319785142374
 20
9.131099126167829
 10
1.232910657646816
 20
9.13101344467312
 10
1.238032529977498
 20
9.129304407094027
 10
1.242523227993415
 20
9.126024787996458
 10
1.246018942048526
 20
9.121440282615055
 10
1.248236470179898
 20
9.115922300310714
 10
1.248996161446476
 20
9.109917875193032
 10
1.248236470179898
 20
9.10391345007535
 10
1.246018942048525
 20
9.09839546777101
 10
1.242523227993414
 20
9.093810962389608
 10
1.238032529977498
 20
9.09053134329204
 10
1.232910657646816
 20
9.088822305712945
 10
1.232319785142157
 20
9.08873662421821
  0
LINE
  5
564
330
1F
100
AcDbEntity
  8
0
  6
Continuous
 62
     7
100
AcDbLine
 10
1.245825352290658
 20
8.488153918649074
 30
0.0
 11
1.286646725226277
 21
8.488153918649074
 31
0.0
  0
LINE
  5
565
330
1F
100
AcDbEntity
  8
0
  6
Continuous
 62
     7
100
AcDbLine
 10
1.286646725226276
 20
9.930230375193032
 30
0.0
 11
1.245825352290657
 21
9.930230375193032
 31
0.0
  0
LINE
  5
566
330
1F
100
AcDbEntity
  8
0
  6
Continuous
 62
     7
100
AcDbLine
 10
1.288660318360668
 20
8.482629646921055
 30
0.0
 11
1.24783894542505
 21
8.482629646921055
 31
0.0
  0
LWPOLYLINE
  5
567
330
1F
100
AcDbEntity
  8
0
  6
Continuous
 62
     7
100
AcDbPolyline
 90
        9
 70
   128
 43
0.0
 10
1.24783894542505
 20
8.482629646921055
 10
1.247385868421892
 20
8.483197721116547
 10
1.246983971233694
 20
8.483813526203608
 10
1.246637124350076
 20
8.48447113164262
 10
1.246348668096135
 20
8.485164204333723
 10
1.24612138046328
 20
8.485886069608021
 10
1.245957450355667
 20
8.486629775508323
 10
1.245858456509842
 20
8.487388159740249
 10
1.245825352290658
 20
8.488153918649074
  0
LWPOLYLINE
  5
572
330
1F
100
AcDbEntity
  8
0
  6
Continuous
 62
     7
100
AcDbPolyline
 90
        9
 70
   128
 43
0.0
 10
1.245825352290657
 20
9.930230375193032
 10
1.245957450355666
 20
9.931754518333783
 10
1.246348668096134
 20
9.933220089508385
 10
1.246983971233693
 20
9.934570767638498
 10
1.247838945425049
 20
9.935754646921051
 10
1.248880734491503
 20
9.936726231539145
 10
1.250069303063474
 20
9.937448184040777
 10
1.251358975117296
 20
9.937892760196181
 10
1.252700189279199
 20
9.938042875193034
  0
LINE
  5
57D
330
1F
100
AcDbEntity
  8
0
  6
Continuous
 62
     7
100
AcDbLine
 10
1.252700189279199
 20
9.938042875193034
 30
0.0
 11
1.293521562214818
 21
9.938042875193034
 31
0.0
  0
LINE
  5
57E
330
1F
100
AcDbEntity
  8
0
  6
Continuous
 62
     7
100
AcDbLine
 10
1.505055564720843
 20
8.190331103465013
 30
0.0
 11
1.545876937656461
 21
8.190331103465013
 31
0.0
  0
LINE
  5
57F
330
1F
100
AcDbEntity
  8
0
  6
Continuous
 62
     7
100
AcDbLine
 10
1.24783894542505
 20
8.482629646921055
 30
0.0
 11
1.505055564720843
 21
8.190331103465013
 31
0.0
  0
LINE
  5
580
330
1F
100
AcDbEntity
  8
0
  6
Continuous
 62
     7
100
AcDbLine
 10
2.201048037327688
 20
9.929292875193033
 30
0.0
 11
2.201048037327688
 21
8.488542243863797
 31
0.0
  0
LINE
  5
581
330
1F
100
AcDbEntity
  8
0
  6
Continuous
 62
     7
100
AcDbLine
 10
1.944314680384149
 20
8.196792875193033
 30
0.0
 11
2.201048037327688
 21
8.488542243863797
 31
0.0
  0
LINE
  5
582
330
1F
100
AcDbEntity
  8
0
  6
Continuous
 62
     7
100
AcDbLine
 10
1.550738181510611
 20
8.188042875193032
 30
0.0
 11
1.509916808574993
 21
8.188042875193032
 31
0.0
  0
LWPOLYLINE
  5
583
330
1F
100
AcDbEntity
  8
0
  6
Continuous
 62
     7
100
AcDbPolyline
 90
        9
 70
   128
 43
0.0
 10
1.509916808574993
 20
8.188042875193032
 10
1.509242956713144
 20
8.188080494515907
 10
1.50857559441309
 20
8.188192990189883
 10
1.507921148738597
 20
8.188379278820124
 10
1.507285922359267
 20
8.188637566345287
 10
1.506676032852384
 20
8.18896536531531
 10
1.506097353787297
 20
8.189359518846919
 10
1.505555458159742
 20
8.189816231026137
 10
1.505055564720843
 20
8.190331103465013
  0
LINE
  5
58E
330
1F
100
AcDbEntity
  8
0
  6
Continuous
 62
     7
100
AcDbLine
 10
2.201048037327688
 20
8.488542243863797
 30
0.0
 11
2.241424086194918
 21
8.488542243863797
 31
0.0
  0
LWPOLYLINE
  5
58F
330
1F
100
AcDbEntity
  8
0
  6
Continuous
 62
     7
100
AcDbPolyline
 90
       25
 70
   128
 43
0.0
 10
3.400535249681538
 20
8.854542727813325
 10
3.40050039192062
 20
8.855885895148697
 10
3.400351734546262
 20
8.858985034773633
 10
3.400090153525482
 20
8.863768161751715
 10
3.399719194471815
 20
8.870170442939857
 10
3.399243885569022
 20
8.87810509828513
 10
3.398670669416318
 20
8.88746457708949
 10
3.398007315701819
 20
8.898122015811309
 10
3.397262815887906
 20
8.909932957643827
 10
3.396447261335979
 20
8.922737310562459
 10
3.395571706522578
 20
8.936361517300446
 10
3.394648019200901
 20
8.950620907839848
 10
3.39368871953873
 20
8.9653222025309
 10
3.392706810413167
 20
8.980266131911046
 10
3.39171560116246
 20
8.995250137713251
 10
3.390728527183886
 20
9.010071118452515
 10
3.389758967822961
 20
9.024528182375539
 10
3.388820065022407
 20
9.038425370458404
 10
3.387924545189004
 20
9.051574312543353
 10
3.387084546692853
 20
9.063796780611874
 10
3.386311455337203
 20
9.074927104585633
 10
3.385615750028992
 20
9.084814417910168
 10
3.38500686074196
 20
9.093324702483425
 10
3.384493040697575
 20
9.100342605211088
 10
3.384081254496321
 20
9.105773001566089
  0
LWPOLYLINE
  5
5AA
330
1F
100
AcDbEntity
  8
0
  6
Continuous
 62
     7
100
AcDbPolyline
 90
        7
 70
   128
 43
0.0
 10
3.384081254496321
 20
9.105773001566089
 10
3.384038164809583
 20
9.106737787039965
 10
3.385166523459664
 20
9.114266059469275
 10
3.388724948742983
 20
9.120791540136384
 10
3.394063989978668
 20
9.125433979048523
 10
3.400349810678305
 20
9.12781733343061
 10
3.402647383148171
 20
9.128109490640885
  0
LINE
  5
5B3
330
1F
100
AcDbEntity
  8
0
  6
Continuous
 62
     7
100
AcDbLine
 10
3.425098350026203
 20
9.129591647536108
 30
0.0
 11
3.402647383148171
 21
9.128109490640885
 31
0.0
  0
LWPOLYLINE
  5
5B4
330
1F
100
AcDbEntity
  8
0
  6
Continuous
 62
     7
100
AcDbPolyline
 90
       25
 70
   128
 43
0.0
 10
3.44644505137974
 20
9.10989010405282
 10
3.446856837580994
 20
9.104459707697819
 10
3.447370657625379
 20
9.097441804970156
 10
3.447979546912412
 20
9.088931520396901
 10
3.448675252220622
 20
9.079044207072364
 10
3.449448343576272
 20
9.067913883098605
 10
3.450288342072423
 20
9.055691415030084
 10
3.451183861905826
 20
9.042542472945135
 10
3.45212276470638
 20
9.02864528486227
 10
3.453092324067305
 20
9.014188220939246
 10
3.454079398045879
 20
8.999367240199978
 10
3.455070607296586
 20
8.984383234397777
 10
3.456052516422149
 20
8.969439305017628
 10
3.45701181608432
 20
8.954738010326578
 10
3.457935503405997
 20
8.940478619787175
 10
3.458811058219398
 20
8.926854413049188
 10
3.459626612771325
 20
8.914050060130558
 10
3.460371112585238
 20
8.90223911829804
 10
3.461034466299737
 20
8.891581679576221
 10
3.461607682452442
 20
8.882222200771862
 10
3.462082991355234
 20
8.874287545426588
 10
3.462453950408901
 20
8.867885264238446
 10
3.462715531429681
 20
8.863102137260364
 10
3.462864188804038
 20
8.860002997635428
 10
3.462900072514418
 20
8.858711254095256
  0
LWPOLYLINE
  5
5CF
330
1F
100
AcDbEntity
  8
0
  6
Continuous
 62
     7
100
AcDbPolyline
 90
        7
 70
   128
 43
0.0
 10
3.425098350026203
 20
9.129591647536108
 10
3.43002185147335
 20
9.129279961951635
 10
3.436042617262473
 20
9.127025608863098
 10
3.44110555039334
 20
9.12287900616866
 10
3.444725033405789
 20
9.117128992311393
 10
3.446421903276628
 20
9.11020631806918
 10
3.44644505137974
 20
9.10989010405282
  0
LWPOLYLINE
  5
5D8
330
1F
100
AcDbEntity
  8
0
  6
Continuous
 62
     7
100
AcDbPolyline
 90
       26
 70
   128
 43
0.0
 10
3.384103168862374
 20
9.105441689662937
 10
3.384514599813927
 20
9.100014200133158
 10
3.385027708803714
 20
9.093004644902724
 10
3.385635545215602
 20
9.084507975977273
 10
3.386329875248083
 20
9.074639289925582
 10
3.38710129345003
 20
9.063532268772084
 10
3.387939350127696
 20
9.051337369129286
 10
3.388832692897118
 20
9.038219784100248
 10
3.389769220464436
 20
9.024357205559367
 10
3.390736246551003
 20
9.009937417123785
 10
3.391720671742746
 20
8.995155750421224
 10
3.392709160935901
 20
8.980212439111865
 10
3.393688323975406
 20
8.965309906506889
 10
3.394644897039038
 20
8.950650023525826
 10
3.395565922310225
 20
8.936431374136651
 10
3.396438923505684
 20
8.922846565321196
 10
3.397252074880172
 20
8.910079618005298
 10
3.39799436141899
 20
8.89830347429635
 10
3.39865572804827
 20
8.887677654795459
 10
3.399227215841828
 20
8.87834609771837
 10
3.399701083379499
 20
8.870435209096723
 10
3.400070911613052
 20
8.864052150471618
 10
3.400331690819137
 20
8.859283387274694
 10
3.400479888461402
 20
8.85619351756032
 10
3.400513497042527
 20
8.854824396955122
 10
3.400507207727916
 20
8.854762049812084
  0
LWPOLYLINE
  5
5F4
330
1F
100
AcDbEntity
  8
0
  6
Continuous
 62
     7
100
AcDbPolyline
 90
        3
 70
   128
 43
0.0
 10
3.400498730354657
 20
8.854754815347865
 10
3.400432061297935
 20
8.855194571678249
 10
3.400275934577222
 20
8.85684178824918
  0
LINE
  5
5F9
330
1F
100
AcDbEntity
  8
0
  6
Continuous
 62
     7
100
AcDbLine
 10
3.384081254496321
 20
9.105773001566089
 30
0.0
 11
3.384103168862374
 21
9.105441689662937
 31
0.0
  0
LINE
  5
5FA
330
1F
100
AcDbEntity
  8
0
  6
Continuous
 62
     7
100
AcDbLine
 10
3.381244816719295
 20
9.101307483472027
 30
0.0
 11
3.38062520029087
 21
9.101206232607437
 31
0.0
  0
LWPOLYLINE
  5
5FB
330
1F
100
AcDbEntity
  8
0
  6
Continuous
 62
     7
100
AcDbPolyline
 90
        7
 70
   128
 43
0.0
 10
3.384103168862374
 20
9.105441689662937
 10
3.384109814700434
 20
9.105310217670668
 10
3.383921997449464
 20
9.103909424150741
 10
3.383272433257713
 20
9.102653171642245
 10
3.382603959558241
 20
9.101976011123819
 10
3.381544580220448
 20
9.101396442526152
 10
3.381244816719296
 20
9.101307483472027
  0
LWPOLYLINE
  5
604
330
1F
100
AcDbEntity
  8
0
  6
Continuous
 62
     7
100
AcDbPolyline
 90
        6
 70
   128
 43
0.0
 10
3.449844993291056
 20
9.105836296207432
 10
3.448963889320779
 20
9.106052067807422
 10
3.448409614747813
 20
9.106320336520305
 10
3.447411028195433
 20
9.107173627669969
 10
3.446746065383705
 20
9.108303344559625
 10
3.446466965745793
 20
9.109558792149668
  0
LINE
  5
60C
330
1F
100
AcDbEntity
  8
0
  6
Continuous
 62
     7
100
AcDbLine
 10
3.450472652800299
 20
9.105817387392577
 30
0.0
 11
3.449844993291057
 21
9.105836296207432
 31
0.0
  0
LWPOLYLINE
  5
60D
330
1F
100
AcDbEntity
  8
0
  6
Continuous
 62
     7
100
AcDbPolyline
 90
       26
 70
   128
 43
0.0
 10
3.462868333282305
 20
8.858871691786378
 10
3.462877293925946
 20
8.858941499441856
 10
3.462843685344822
 20
8.860310620047052
 10
3.462695487702555
 20
8.863400489761426
 10
3.462434708496471
 20
8.868169252958355
 10
3.462064880262918
 20
8.874552311583459
 10
3.461591012725247
 20
8.882463200205109
 10
3.46101952493169
 20
8.891794757282192
 10
3.460358158302409
 20
8.902420576783086
 10
3.459615871763591
 20
8.914196720492034
 10
3.458802720389103
 20
8.926963667807932
 10
3.457929719193644
 20
8.940548476623384
 10
3.457008693922456
 20
8.954767126012559
 10
3.456052120858825
 20
8.969427008993623
 10
3.45507295781932
 20
8.9843295415986
 10
3.454084468626165
 20
8.999272852907957
 10
3.453100043434422
 20
9.01405451961052
 10
3.452133017347855
 20
9.0284743080461
 10
3.451196489780537
 20
9.04233688658698
 10
3.450303147011115
 20
9.055454471616017
 10
3.44946509033345
 20
9.067649371258815
 10
3.448693672131503
 20
9.078756392412313
 10
3.447999342099021
 20
9.088625078464004
 10
3.447391505687134
 20
9.097121747389453
 10
3.446878396697346
 20
9.104131302619889
 10
3.446466965745793
 20
9.109558792149668
  0
LWPOLYLINE
  5
629
330
1F
100
AcDbEntity
  8
0
  6
Continuous
 62
     7
100
AcDbPolyline
 90
        7
 70
   128
 43
0.0
 10
3.378138637358933
 20
9.100938217896196
 10
3.374957312035989
 20
9.09990335148492
 10
3.371951498125975
 20
9.097567498043123
 10
3.368918887105282
 20
9.092725144568764
 10
3.367020503203721
 20
9.082947643898999
 10
3.367099813838944
 20
9.079315686979712
 10
3.367103274017138
 20
9.079264697224437
  0
LINE
  5
632
330
1F
100
AcDbEntity
  8
0
  6
Continuous
 62
     7
100
AcDbLine
 10
3.38066853990763
 20
8.870054729798422
 30
0.0
 11
3.380700400882946
 21
8.869814660751407
 31
0.0
  0
LWPOLYLINE
  5
633
330
1F
100
AcDbEntity
  8
0
  6
Continuous
 62
     7
100
AcDbPolyline
 90
       22
 70
   128
 43
0.0
 10
3.380729298932074
 20
8.869754035492061
 10
3.380729031643651
 20
8.870254635708685
 10
3.380633857198663
 20
8.872503185452313
 10
3.380422352983123
 20
8.876491118437098
 10
3.380097879170525
 20
8.882155078258169
 10
3.379665590685568
 20
8.889405081424592
 10
3.37913235530772
 20
8.898125946929657
 10
3.378506644562612
 20
8.908179126134794
 10
3.377798399134663
 20
8.919404903895755
 10
3.377018870939151
 20
8.931624935961649
 10
3.376180444362713
 20
8.94464508233514
 10
3.375296439512238
 20
8.958258491580104
 10
3.374380900597955
 20
8.97224888707628
 10
3.373448372812659
 20
8.986394003012116
 10
3.372513671251826
 20
9.000469115528022
 10
3.371591645545763
 20
9.01425061291073
 10
3.370696943943114
 20
9.02751954811896
 10
3.369843780593711
 20
9.04006511720129
 10
3.369045709727977
 20
9.051688008344527
 10
3.368315410320477
 20
9.062203568346176
 10
3.367664484658691
 20
9.071444736205102
 10
3.367103274017138
 20
9.079264697224437
  0
LINE
  5
64B
330
1F
100
AcDbEntity
  8
0
  6
Continuous
 62
     7
100
AcDbLine
 10
3.38062520029087
 20
9.101206232607437
 30
0.0
 11
3.378138637358933
 21
9.100938217896196
 31
0.0
  0
LINE
  5
64C
330
1F
100
AcDbEntity
  8
0
  6
Continuous
 62
     7
100
AcDbLine
 10
3.452975193619036
 20
9.105878740880271
 30
0.0
 11
3.450472652800299
 21
9.105817387392577
 31
0.0
  0
LWPOLYLINE
  5
64D
330
1F
100
AcDbEntity
  8
0
  6
Continuous
 62
     7
100
AcDbPolyline
 90
        7
 70
   128
 43
0.0
 10
3.466885349030608
 20
9.085852061203203
 10
3.466881826819233
 20
9.085903046863205
 10
3.466464922627909
 20
9.089512716697053
 10
3.463245671458415
 20
9.098952363850357
 10
3.459574705090058
 20
9.103352163847893
 10
3.456273064697029
 20
9.105271614872045
 10
3.452975193619036
 20
9.105878740880271
  0
LWPOLYLINE
  5
656
330
1F
100
AcDbEntity
  8
0
  6
Continuous
 62
     7
100
AcDbPolyline
 90
       22
 70
   128
 43
0.0
 10
3.466885349030608
 20
9.085852061203203
 10
3.467446559672161
 20
9.078032100183869
 10
3.468097485333948
 20
9.068790932324942
 10
3.468827784741448
 20
9.058275372323294
 10
3.469625855607182
 20
9.046652481180057
 10
3.470479018956584
 20
9.034106912097727
 10
3.471373720559233
 20
9.020837976889498
 10
3.472295746265297
 20
9.007056479506787
 10
3.47323044782613
 20
8.99298136699088
 10
3.474162975611426
 20
8.978836251055046
 10
3.475078514525709
 20
8.964845855558867
 10
3.475962519376183
 20
8.951232446313908
 10
3.476800945952621
 20
8.938212299940416
 10
3.477580474148133
 20
8.92599226787452
 10
3.478288719576083
 20
8.914766490113559
 10
3.478914430321191
 20
8.904713310908422
 10
3.479447665699039
 20
8.895992445403358
 10
3.479879954183996
 20
8.888742442236936
 10
3.480204427996593
 20
8.883078482415865
 10
3.480415932212133
 20
8.87909054943108
 10
3.480511106657122
 20
8.876841999687452
 10
3.480516621184935
 20
8.8764769589818
  0
LWPOLYLINE
  5
66E
330
1F
100
AcDbEntity
  8
0
  6
Continuous
 62
     7
100
AcDbPolyline
 90
       39
 70
   128
 43
0.0
 10
3.376505981660292
 20
8.937379314873754
 10
3.377200027865246
 20
8.926836110122572
 10
3.377872349295012
 20
8.916522160211903
 10
3.378504606773597
 20
8.906718802808848
 10
3.379079553965157
 20
8.89769344794792
 10
3.379581507809082
 20
8.889692283782383
 10
3.379996776313007
 20
8.882933561213186
 10
3.380314032034668
 20
8.87760164057335
 10
3.380524621065002
 20
8.873841962758645
 10
3.380622799084226
 20
8.871757081979109
 10
3.380605888051907
 20
8.871403868347532
 10
3.380474349256922
 20
8.872791956611021
 10
3.380231770734704
 20
8.875883483340223
 10
3.379884769394983
 20
8.880594119744975
 10
3.379442810529741
 20
8.886795371943872
 10
3.378917949624721
 20
8.894318085942384
 10
3.378324503517204
 20
8.90295706171288
 10
3.377678659870002
 20
8.912476650516473
 10
3.376998035614223
 20
8.922617182786317
 10
3.376301196405309
 20
8.933102051236482
 10
3.375607150200355
 20
8.943645255987665
 10
3.37493482877059
 20
8.953959205898332
 10
3.374302571292005
 20
8.963762563301387
 10
3.373727624100445
 20
8.972787918162314
 10
3.373225670256519
 20
8.980789082327854
 10
3.372810401752595
 20
8.98754780489705
 10
3.372493146030934
 20
8.992879725536888
 10
3.372282557000601
 20
8.996639403351594
 10
3.372184378981376
 20
8.998724284131127
 10
3.372201290013695
 20
8.999077497762705
 10
3.37233282880868
 20
8.997689409499218
 10
3.372575407330897
 20
8.994597882770014
 10
3.372922408670619
 20
8.98988724636526
 10
3.373364367535861
 20
8.983685994166363
 10
3.37388922844088
 20
8.976163280167853
 10
3.374482674548398
 20
8.967524304397358
 10
3.3751285181956
 20
8.958004715593765
 10
3.375809142451379
 20
8.94786418332392
 10
3.376505981660292
 20
8.937379314873754
  0
LINE
  5
697
330
1F
100
AcDbEntity
  8
0
  6
Continuous
 62
     7
100
AcDbLine
 10
3.367103274017138
 20
9.079264697224437
 30
0.0
 11
3.368170599887898
 21
9.063128352478659
 31
0.0
  0
LWPOLYLINE
  5
698
330
1F
100
AcDbEntity
  8
0
  6
Continuous
 62
     7
100
AcDbPolyline
 90
       11
 70
   128
 43
0.0
 10
3.368170599887898
 20
9.063128352478659
 10
3.368849266326944
 20
9.052816029739317
 10
3.369504427912356
 20
9.042756806538252
 10
3.37011617789089
 20
9.033256327282215
 10
3.370665928549009
 20
9.024603259225927
 10
3.371136975991151
 20
9.017060521463614
 10
3.37151500767915
 20
9.010857296265375
 10
3.371788537311459
 20
9.006182065489874
 10
3.371949253828613
 20
9.003176883658442
 10
3.371992273940565
 20
9.001933061700338
 10
3.371991438049642
 20
9.00191968773479
  0
LWPOLYLINE
  5
6A5
330
1F
100
AcDbEntity
  8
0
  6
Continuous
 62
     7
100
AcDbPolyline
 90
        9
 70
   128
 43
0.0
 10
3.37196973827647
 20
9.001980957072107
 10
3.371916290502981
 20
9.002488392516348
 10
3.371723612234165
 20
9.004826002660643
 10
3.371420093565813
 20
9.008874865031872
 10
3.371014956759076
 20
9.014511956995714
 10
3.370520511690818
 20
9.021565998365348
 10
3.369951781824235
 20
9.02982265566328
 10
3.369326047728533
 20
9.03903105453558
 10
3.368762198555743
 20
9.047417875193032
  0
LWPOLYLINE
  5
6B0
330
1F
100
AcDbEntity
  8
0
  6
Continuous
 62
     7
100
AcDbPolyline
 90
       25
 70
   128
 43
0.0
 10
3.364005625725861
 20
8.935979496661751
 10
3.363402056668427
 20
8.945052797386758
 10
3.36281880806037
 20
8.953717380472765
 10
3.362278293818609
 20
8.96164027085093
 10
3.36180128560233
 20
8.968516996287226
 10
3.361406114569777
 20
8.974083288079653
 10
3.361107966922115
 20
8.978125236756235
 10
3.360918300306241
 20
8.980487512496085
 10
3.360844403503837
 20
8.9810793343673
 10
3.360889116327577
 20
8.979877958987265
 10
3.361050720488721
 20
8.976929554538097
 10
3.361323005629984
 20
8.972347426549293
 10
3.361695507986086
 20
8.966307663629777
 10
3.362153912500385
 20
8.959042370481404
 10
3.362680602944472
 20
8.95083074824545
 10
3.363255338899953
 20
8.941988364959304
 10
3.363856033586373
 20
8.932855028453792
 10
3.364459602643807
 20
8.923781727728782
 10
3.365042851251864
 20
8.915117144642775
 10
3.365583365493625
 20
8.907194254264612
 10
3.366060373709904
 20
8.900317528828314
 10
3.366455544742458
 20
8.89475123703589
 10
3.366753692390119
 20
8.890709288359307
 10
3.366943359005993
 20
8.888347012619455
 10
3.367007304772141
 20
8.887745061959958
  0
LWPOLYLINE
  5
6CB
330
1F
100
AcDbEntity
  8
0
  6
Continuous
 62
     7
100
AcDbPolyline
 90
       10
 70
   128
 43
0.0
 10
3.367015737309522
 20
8.887736661521235
 10
3.367017255808397
 20
8.887755190748242
 10
3.366972542984657
 20
8.888956566128279
 10
3.366810938823514
 20
8.891904970577444
 10
3.366538653682251
 20
8.896487098566249
 10
3.366166151326148
 20
8.902526861485764
 10
3.365707746811849
 20
8.909792154634136
 10
3.365181056367762
 20
8.918003776870094
 10
3.364606320412282
 20
8.926846160156238
 10
3.364005625725861
 20
8.935979496661751
  0
LWPOLYLINE
  5
6D7
330
1F
100
AcDbEntity
  8
0
  6
Continuous
 62
     7
100
AcDbPolyline
 90
       18
 70
   128
 43
0.0
 10
3.485583223443061
 20
8.989317271805687
 10
3.48569218376065
 20
8.988180431881286
 10
3.485910519956007
 20
8.985364776012606
 10
3.486230181191797
 20
8.980974127513736
 10
3.486639380413623
 20
8.975170385316726
 10
3.48712302898093
 20
8.968167554178242
 10
3.487663293039207
 20
8.960223853557876
 10
3.488240251118064
 20
8.951632196142057
 10
3.488832628707181
 20
8.942709387104445
 10
3.48941858272368
 20
8.933784442364772
 10
3.489976506944806
 20
8.925186456593751
 10
3.490485828706729
 20
8.917232468314163
 10
3.490927767492324
 20
8.910215769555267
 10
3.491286027436086
 20
8.904395091125478
 10
3.491547398211039
 20
8.899985062281008
 10
3.491702242140807
 20
8.897148296576642
 10
3.491744849575236
 20
8.895989395721708
 10
3.491744073224751
 20
8.895977470261602
  0
LINE
  5
6EB
330
1F
100
AcDbEntity
  8
0
  6
Continuous
 62
     7
100
AcDbLine
 10
3.525104105274459
 20
8.948138552913944
 30
0.0
 11
3.488632777491318
 21
8.945730806724418
 31
0.0
  0
LINE
  5
6EC
330
1F
100
AcDbEntity
  8
0
  6
Continuous
 62
     7
100
AcDbLine
 10
3.522369828150436
 20
8.989476666710718
 30
0.0
 11
3.485781582321716
 21
8.987061201883133
 31
0.0
  0
LWPOLYLINE
  5
6ED
330
1F
100
AcDbEntity
  8
0
  6
Continuous
 62
     7
100
AcDbPolyline
 90
       31
 70
   128
 43
0.0
 10
3.522369828150436
 20
8.989476666710718
 10
3.526376588669997
 20
8.998298262247493
 10
3.531920518305207
 20
9.006245269267508
 10
3.538817035824334
 20
9.013053097770376
 10
3.546836526534894
 20
9.018495085901927
 10
3.55571198714308
 20
9.02239004650098
 10
3.565147915440344
 20
9.024608299598233
 10
3.574830148841253
 20
9.025075990019477
 10
3.584436324205464
 20
9.023777546341611
 10
3.593646610691379
 20
9.020756199332185
 10
3.602154358298724
 20
9.016112542611465
 10
3.609676307564271
 20
9.010001183458698
 10
3.615962020486129
 20
9.002625595271674
 10
3.620802218680594
 20
8.99423134306328
 10
3.624035751158502
 20
8.985097907547386
 10
3.625554959733893
 20
8.975529380025362
 10
3.625309263427469
 20
8.965844337880418
 10
3.62330684252467
 20
8.956365237768054
 10
3.619614366218832
 20
8.947407679648872
 10
3.614354772907358
 20
8.939269899110217
 10
3.607703177044384
 20
8.932222837822385
 10
3.599881038828392
 20
8.926501122726597
 10
3.591148790840907
 20
8.922295254296245
 10
3.58179716712716
 20
8.919745263957855
 10
3.572137523410862
 20
8.918936051843385
 10
3.562491470724725
 20
8.91989456010013
 10
3.553180167597684
 20
8.922588875870904
 10
3.54451362730792
 20
8.926929293810161
 10
3.536780396209159
 20
8.932771302760258
 10
3.530237946783087
 20
8.939920397148658
 10
3.525104105274459
 20
8.948138552913944
  0
LWPOLYLINE
  5
70E
330
1F
100
AcDbEntity
  8
0
  6
Continuous
 62
     7
100
AcDbPolyline
 90
       17
 70
   128
 43
0.0
 10
3.592465029084714
 20
8.973344865249649
 10
3.593073124283057
 20
8.977981330268369
 10
3.595410229303015
 20
8.982032192139792
 10
3.599120541091208
 20
8.984880743865142
 10
3.603639198311944
 20
8.98609331926643
 10
3.608278276365096
 20
8.985485314730825
 10
3.612331517670419
 20
8.983149293437302
 10
3.6151818529819
 20
8.979440893451713
 10
3.616395344586722
 20
8.974924685055132
 10
3.615787249388378
 20
8.970288220036414
 10
3.613450144368419
 20
8.966237358164992
 10
3.609739832580226
 20
8.963388806439639
 10
3.60522117535949
 20
8.962176231038354
 10
3.600582097306338
 20
8.962784235573956
 10
3.596528856001016
 20
8.96512025686748
 10
3.593678520689534
 20
8.96882865685307
 10
3.592465029084714
 20
8.973344865249649
  0
LINE
  5
721
330
1F
100
AcDbEntity
  8
0
  6
Continuous
 62
     7
100
AcDbLine
 10
3.525104105274459
 20
8.948138552913944
 30
0.0
 11
3.525088119739581
 21
8.94780466975883
 31
0.0
  0
LWPOLYLINE
  5
722
330
1F
100
AcDbEntity
  8
0
  6
Continuous
 62
     7
100
AcDbPolyline
 90
       16
 70
   128
 43
0.0
 10
3.625593962968165
 20
8.96915537073742
 10
3.62529327789259
 20
8.965510454725305
 10
3.623290856989792
 20
8.956031354612941
 10
3.619598380683954
 20
8.94707379649376
 10
3.61433878737248
 20
8.9389360159551
 10
3.607687191509506
 20
8.931888954667272
 10
3.599865053293515
 20
8.92616723957148
 10
3.59113280530603
 20
8.92196137114113
 10
3.581781181592282
 20
8.919411380802742
 10
3.572121537875986
 20
8.918602168688272
 10
3.562475485189848
 20
8.919560676945014
 10
3.553164182062807
 20
8.922254992715791
 10
3.544497641773043
 20
8.926595410655047
 10
3.536764410674282
 20
8.932437419605144
 10
3.53022196124821
 20
8.939586513993543
 10
3.525088119739581
 20
8.94780466975883
  0
LINE
  5
734
330
1F
100
AcDbEntity
  8
0
  6
Continuous
 62
     7
100
AcDbLine
 10
3.525088119739581
 20
8.94780466975883
 30
0.0
 11
3.488654732960989
 21
8.945399428339892
 31
0.0
  0
LWPOLYLINE
  5
735
330
1F
100
AcDbEntity
  8
0
  6
Continuous
 62
     7
100
AcDbPolyline
 90
       10
 70
   128
 43
0.0
 10
3.616391771028593
 20
8.973227434319936
 10
3.616379359051844
 20
8.974590801900016
 10
3.615165867447022
 20
8.979107010296596
 10
3.612315532135541
 20
8.982815410282186
 10
3.608262290830218
 20
8.985151431575707
 10
3.603623212777067
 20
8.985759436111312
 10
3.59910455555633
 20
8.984546860710026
 10
3.595394243768137
 20
8.981698308984674
 10
3.593057138748179
 20
8.977647447113252
 10
3.592436631573086
 20
8.974374349674612
  0
LINE
  5
745
330
1F
100
AcDbEntity
  8
0
  6
Continuous
 62
     7
100
AcDbLine
 10
3.148520545391395
 20
9.613146101718772
 30
0.0
 11
3.148520545391395
 21
9.612446202472047
 31
0.0
  0
LINE
  5
746
330
1F
100
AcDbEntity
  8
0
  6
Continuous
 62
     7
100
AcDbLine
 10
3.17981716451494
 20
9.740700277942569
 30
0.0
 11
3.17981716451494
 21
9.740315597912632
 31
0.0
  0
LINE
  5
747
330
1F
100
AcDbEntity
  8
0
  6
Continuous
 62
     7
100
AcDbLine
 10
2.434823315824866
 20
9.740700277942569
 30
0.0
 11
2.434823315824866
 21
9.740315615087479
 31
0.0
  0
LINE
  5
748
330
1F
100
AcDbEntity
  8
0
  6
Continuous
 62
     7
100
AcDbLine
 10
1.245825352290657
 20
9.930230375193032
 30
0.0
 11
1.245825352290658
 21
9.172417875193034
 31
0.0
  0
LINE
  5
749
330
1F
100
AcDbEntity
  8
0
  6
Continuous
 62
     7
100
AcDbLine
 10
1.245825352290658
 20
9.12177561951165
 30
0.0
 11
1.245825352290658
 21
9.098060130874414
 31
0.0
  0
LINE
  5
74A
330
1F
100
AcDbEntity
  8
0
  6
Continuous
 62
     7
100
AcDbLine
 10
1.245825352290658
 20
9.047417875193034
 30
0.0
 11
1.245825352290658
 21
8.488153918649074
 31
0.0
  0
LINE
  5
74B
330
1F
100
AcDbEntity
  8
0
  6
Continuous
 62
     7
100
AcDbLine
 10
1.2448876892792
 20
8.488153918649074
 30
0.0
 11
1.245825352290658
 21
8.488153918649074
 31
0.0
  0
LWPOLYLINE
  5
74C
330
1F
100
AcDbEntity
  8
0
  6
Continuous
 62
     7
100
AcDbPolyline
 90
        3
 70
   128
 43
0.0
 10
1.246835179237127
 20
8.482992832188222
 10
1.247208366063403
 20
8.482735794253285
 10
1.24783894542505
 20
8.482629646921055
  0
LINE
  5
751
330
1F
100
AcDbEntity
  8
0
  6
Continuous
 62
     7
100
AcDbLine
 10
1.245825352290657
 20
9.930230375193032
 30
0.0
 11
1.244887689279199
 21
9.930230375193032
 31
0.0
  0
LWPOLYLINE
  5
752
330
1F
100
AcDbEntity
  8
0
  6
Continuous
 62
     7
100
AcDbPolyline
 90
        3
 70
   128
 43
0.0
 10
1.504051798532921
 20
8.190694288732182
 10
1.504424985359197
 20
8.190437250797244
 10
1.505055564720843
 20
8.190331103465013
  0
LWPOLYLINE
  5
757
330
1F
100
AcDbEntity
  8
0
  6
Continuous
 62
     7
100
AcDbPolyline
 90
       28
 70
   128
 43
0.0
 10
3.402647383148171
 20
9.128109490640885
 10
3.403043007703077
 20
9.123008450413922
 10
3.403545399983563
 20
9.116252633032573
 10
3.404148556102441
 20
9.10792277454114
 10
3.404845267984601
 20
9.098118421713348
 10
3.405627209507795
 20
9.08695674240906
 10
3.406485036004772
 20
9.074571125348529
 10
3.40740849593761
 20
9.061109586037684
 10
3.408386553409715
 20
9.046732997894615
 10
3.409407520051354
 20
9.031613169716346
 10
3.410459194702643
 20
9.015930792461301
 10
3.411529009224684
 20
8.999873279884662
 10
3.41260417869631
 20
8.983632528832299
 10
3.413671854201511
 20
8.967402625959068
 10
3.414719276381647
 20
8.951377528277629
 10
3.415733927917384
 20
8.93574874525653
 10
3.416703683118118
 20
8.92070305016791
 10
3.417616952831207
 20
8.906420248035596
 10
3.418462822939256
 20
8.893071026857877
 10
3.419231184790318
 20
8.880814917784214
 10
3.419912856002316
 20
8.869798388622897
 10
3.420499690197977
 20
8.860153093463465
 10
3.4209846743589
 20
8.851994299331846
 10
3.421362012635302
 20
8.845419508680699
 10
3.42162719560988
 20
8.840507294177007
 10
3.421777054188032
 20
8.837316359711854
 10
3.421809797470433
 20
8.835884838853962
 10
3.421796484064798
 20
8.835801555153578
  0
LWPOLYLINE
  5
775
330
1F
100
AcDbEntity
  8
0
  6
Continuous
 62
     7
100
AcDbPolyline
 90
        4
 70
   128
 43
0.0
 10
3.400448758157351
 20
8.854917322683129
 10
3.400452433735298
 20
8.854884212668184
 10
3.400534110664453
 20
8.854512750325938
 10
3.400535249681538
 20
8.854542727813325
  0
LWPOLYLINE
  5
77B
330
1F
100
AcDbEntity
  8
0
  6
Continuous
 62
     7
100
AcDbPolyline
 90
       28
 70
   128
 43
0.0
 10
3.444247426889731
 20
8.837283710325265
 10
3.444260764348464
 20
8.83736699574919
 10
3.444228021066063
 20
8.838798516607083
 10
3.44407816248791
 20
8.841989451072234
 10
3.443812979513333
 20
8.846901665575928
 10
3.443435641236931
 20
8.853476456227074
 10
3.442950657076008
 20
8.861635250358693
 10
3.442363822880346
 20
8.871280545518127
 10
3.441682151668348
 20
8.88229707467944
 10
3.440913789817286
 20
8.894553183753107
 10
3.440067919709238
 20
8.907902404930825
 10
3.439154649996148
 20
8.922185207063139
 10
3.438184894795415
 20
8.937230902151757
 10
3.437170243259679
 20
8.952859685172857
 10
3.436122821079541
 20
8.968884782854296
 10
3.43505514557434
 20
8.985114685727526
 10
3.433979976102715
 20
9.00135543677989
 10
3.432910161580674
 20
9.017412949356528
 10
3.431858486929384
 20
9.033095326611571
 10
3.430837520287745
 20
9.04821515478984
 10
3.429859462815641
 20
9.062591742932907
 10
3.428936002882802
 20
9.076053282243752
 10
3.428078176385826
 20
9.088438899304284
 10
3.427296234862632
 20
9.099600578608571
 10
3.426599522980472
 20
9.109404931436366
 10
3.425996366861594
 20
9.117734789927797
 10
3.425493974581108
 20
9.124490607309143
 10
3.425098350026203
 20
9.129591647536108
  0
LINE
  5
799
330
1F
100
AcDbEntity
  8
0
  6
Continuous
 62
     7
100
AcDbLine
 10
3.400507207727916
 20
8.854762049812084
 30
0.0
 11
3.400498730354657
 21
8.854754815347865
 31
0.0
  0
LWPOLYLINE
  5
79A
330
1F
100
AcDbEntity
  8
0
  6
Continuous
 62
     7
100
AcDbPolyline
 90
       25
 70
   128
 43
0.0
 10
3.396513192190414
 20
8.858247295415605
 10
3.396521674410052
 20
8.858782809698004
 10
3.396429788983633
 20
8.861017802158013
 10
3.396223648495504
 20
8.864962331213011
 10
3.395906142504088
 20
8.87056110473061
 10
3.395481721625179
 20
8.877735642333992
 10
3.394956335145777
 20
8.886385375494573
 10
3.394337347630417
 20
8.8963890572436
 10
3.393633435688945
 20
8.907606461742194
 10
3.392854466352818
 20
8.919880349886277
 10
3.392011358764744
 20
8.933038673393582
 10
3.391115931120438
 20
8.946896986477224
 10
3.390180735007977
 20
8.961261031300312
 10
3.389218879466882
 20
8.975929460970224
 10
3.388243847233158
 20
8.990696661903188
 10
3.387269305746088
 20
9.005355635996843
 10
3.38630891556595
 20
9.019700902210227
 10
3.385376138888168
 20
9.033531376878434
 10
3.38448405083802
 20
9.04665319238742
 10
3.383645156191081
 20
9.058882414698356
 10
3.382871214088488
 20
9.070047621628857
 10
3.38217307320409
 20
9.079992305750228
 10
3.381560519673994
 20
9.088577068218301
 10
3.381042139920155
 20
9.095681572786004
 10
3.38062520029087
 20
9.101206232607437
  0
LWPOLYLINE
  5
7B5
330
1F
100
AcDbEntity
  8
0
  6
Continuous
 62
     7
100
AcDbPolyline
 90
       25
 70
   128
 43
0.0
 10
3.450472652800299
 20
9.105817387392577
 10
3.450889592429584
 20
9.100292727571146
 10
3.451407972183423
 20
9.093188223003443
 10
3.452020525713519
 20
9.084603460535368
 10
3.452718666597918
 20
9.074658776413996
 10
3.453492608700511
 20
9.063493569483496
 10
3.45433150334745
 20
9.051264347172559
 10
3.455223591397598
 20
9.03814253166357
 10
3.45615636807538
 20
9.024312056995363
 10
3.457116758255517
 20
9.00996679078198
 10
3.458091299742587
 20
8.995307816688324
 10
3.459066331976311
 20
8.980540615755361
 10
3.460028187517407
 20
8.965872186085447
 10
3.460963383629867
 20
8.951508141262359
 10
3.461858811274173
 20
8.937649828178717
 10
3.462701918862248
 20
8.924491504671414
 10
3.463480888198375
 20
8.912217616527329
 10
3.464184800139846
 20
8.901000212028732
 10
3.464803787655207
 20
8.890996530279708
 10
3.465329174134608
 20
8.882346797119126
 10
3.465753595013517
 20
8.875172259515741
 10
3.466071101004933
 20
8.869573485998146
 10
3.466277241493064
 20
8.865628956943146
 10
3.466369126919482
 20
8.863393964483139
 10
3.466360542666306
 20
8.862858442328804
  0
LWPOLYLINE
  5
7D0
330
1F
100
AcDbEntity
  8
0
  6
Continuous
 62
     7
100
AcDbPolyline
 90
       25
 70
   128
 43
0.0
 10
3.378138637358933
 20
9.100938217896196
 10
3.378557424922115
 20
9.095384019982525
 10
3.379077326494027
 20
9.088254771824404
 10
3.379691067935531
 20
9.079650221423837
 10
3.380390062158458
 20
9.069690758293364
 10
3.381164529270789
 20
9.05851572904097
 10
3.382003633410825
 20
9.046281487719073
 10
3.382895634355811
 20
9.033159208215968
 10
3.38382805178383
 20
9.019332489297348
 10
3.384787839890694
 20
9.004994785806666
 10
3.385761569918717
 20
8.990346701965398
 10
3.38673561804353
 20
8.975593184643666
 10
3.387696355990153
 20
8.96094065587121
 10
3.388630341711333
 20
8.946594124708865
 10
3.3895245074603
 20
8.932754318889387
 10
3.390366342626546
 20
8.919614876360004
 10
3.3911440687765
 20
8.907359636020788
 10
3.391846804450037
 20
8.896160065565207
 10
3.39246471740709
 20
8.88617286241092
 10
3.392989162194239
 20
8.877537761287057
 10
3.393412801106509
 20
8.870375579152858
 10
3.393729706851973
 20
8.864786524802014
 10
3.393935445482723
 20
8.860848796803609
 10
3.394027138431919
 20
8.85861748939641
 10
3.394018572050206
 20
8.858082605404565
  0
LWPOLYLINE
  5
7EB
330
1F
100
AcDbEntity
  8
0
  6
Continuous
 62
     7
100
AcDbPolyline
 90
        3
 70
   128
 43
0.0
 10
3.380700400882946
 20
8.869814660751407
 10
3.380706364278971
 20
8.869781191980003
 10
3.380729298932074
 20
8.869754035492061
  0
LWPOLYLINE
  5
7F0
330
1F
100
AcDbEntity
  8
0
  6
Continuous
 62
     7
100
AcDbPolyline
 90
       25
 70
   128
 43
0.0
 10
3.468855125699404
 20
8.863023128214373
 10
3.468863694692022
 20
8.863558012380487
 10
3.468772001742825
 20
8.865789319787687
 10
3.468566263112075
 20
8.869727047786094
 10
3.468249357366613
 20
8.875316102136935
 10
3.467825718454342
 20
8.882478284271137
 10
3.467301273667192
 20
8.891113385395
 10
3.466683360710139
 20
8.901100588549285
 10
3.465980625036603
 20
8.912300159004866
 10
3.465202898886649
 20
8.924555399344085
 10
3.464361063720402
 20
8.937694841873467
 10
3.463466897971436
 20
8.951534647692945
 10
3.462532912250256
 20
8.965881178855291
 10
3.461572174303633
 20
8.980533707627746
 10
3.46059812617882
 20
8.995287224949477
 10
3.459624396150797
 20
9.009935308790743
 10
3.458664608043932
 20
9.024273012281425
 10
3.457732190615913
 20
9.038099731200045
 10
3.456840189670927
 20
9.05122201070315
 10
3.456001085530892
 20
9.063456252025048
 10
3.45522661841856
 20
9.074631281277444
 10
3.454527624195634
 20
9.084590744407915
 10
3.453913882754129
 20
9.093195294808481
 10
3.453393981182218
 20
9.100324542966604
 10
3.452975193619036
 20
9.105878740880271
  0
LINE
  5
80B
330
1F
100
AcDbEntity
  8
0
  6
Continuous
 62
     7
100
AcDbLine
 10
3.371991438049642
 20
9.00191968773479
 30
0.0
 11
3.37196973827647
 21
9.001980957072107
 31
0.0
  0
LWPOLYLINE
  5
80C
330
1F
100
AcDbEntity
  8
0
  6
Continuous
 62
     7
100
AcDbPolyline
 90
       11
 70
   128
 43
0.0
 10
3.375405786862854
 20
8.937218428448618
 10
3.374719875498511
 20
8.947537531771923
 10
3.374050872848521
 20
8.957500795702982
 10
3.373418024901074
 20
8.96682159527857
 10
3.372839537539395
 20
8.97523178806523
 10
3.372332052791629
 20
8.982489428128895
 10
3.371910170069996
 20
8.988385726378882
 10
3.371586026172275
 20
8.992751057049903
 10
3.371368946128239
 20
8.995459837526491
 10
3.371265174935516
 20
8.996434141126194
 10
3.371261913590286
 20
8.996436009855687
  0
LWPOLYLINE
  5
819
330
1F
100
AcDbEntity
  8
0
  6
Continuous
 62
     7
100
AcDbPolyline
 90
       11
 70
   128
 43
0.0
 10
3.379351531835355
 20
8.873900404256123
 10
3.379358422677938
 20
8.8740765376403
 10
3.379287677903891
 20
8.875740650180024
 10
3.379102434485571
 20
8.879114388890645
 10
3.378808021538851
 20
8.884100697452016
 10
3.378412908788172
 20
8.89055612884537
 10
3.377928462907991
 20
8.8982949720629
 10
3.377368620524253
 20
8.907094594675309
 10
3.376749487283034
 20
8.916701847561471
 10
3.376088874520433
 20
8.926840347547738
 10
3.375405786862854
 20
8.937218428448618
  0
LWPOLYLINE
  5
826
330
1F
100
AcDbEntity
  8
0
  6
Continuous
 62
     7
100
AcDbPolyline
 90
       20
 70
   128
 43
0.0
 10
3.473237568744957
 20
9.003168443791033
 10
3.473276619469705
 20
9.002898805329599
 10
3.473437625112758
 20
9.001050605129056
 10
3.473709215491086
 20
8.997500761201833
 10
3.474083577443988
 20
8.992351396094529
 10
3.474549941259677
 20
8.985750647665862
 10
3.475094890500282
 20
8.977888407430168
 10
3.475702747968339
 20
8.968990857724284
 10
3.476356026711213
 20
8.959313964853521
 10
3.477035933088895
 20
8.949136115407095
 10
3.477722907432801
 20
8.93875010758282
 10
3.478397186741828
 20
8.928454727916035
 10
3.479039373227911
 20
8.918546155735012
 10
3.479630992355073
 20
8.909309442620902
 10
3.480155024318185
 20
8.90101031199276
 10
3.480596393671768
 20
8.893887514728563
 10
3.48094240302312
 20
8.888145960737164
 10
3.48118309831318
 20
8.883950824073272
 10
3.481311555176687
 20
8.88142279118064
 10
3.481327121449333
 20
8.88063247816559
  0
LWPOLYLINE
  5
83C
330
1F
100
AcDbEntity
  8
0
  6
Continuous
 62
     7
100
AcDbPolyline
 90
       19
 70
   128
 43
0.0
 10
3.362751843534079
 20
8.98672275419848
 10
3.362770311414909
 20
8.986632636844675
 10
3.362902381702577
 20
8.98518165123955
 10
3.363146605583339
 20
8.982007037261566
 10
3.363494666305852
 20
8.97721690258221
 10
3.363934711079662
 20
8.970974369492858
 10
3.364451754707773
 20
8.96349201997077
 10
3.365028189889556
 20
8.955024656454837
 10
3.365644386816252
 20
8.945860624854108
 10
3.366279361640569
 20
8.936311995273702
 10
3.366911491056434
 20
8.92670393484166
 10
3.367519248654745
 20
8.917363634532398
 10
3.368081937979417
 20
8.908609167070493
 10
3.368580397320369
 20
8.900738655345531
 10
3.368997652242581
 20
8.894020120194671
 10
3.36931949363012
 20
8.888682353274477
 10
3.369534961560538
 20
8.88490712583547
 10
3.369636718531892
 20
8.882822998720204
 10
3.369638263619216
 20
8.882410727760604
  0
LWPOLYLINE
  5
851
330
1F
100
AcDbEntity
  8
0
  6
Continuous
 62
     7
100
AcDbPolyline
 90
       10
 70
   128
 43
0.0
 10
3.486477003972167
 20
8.94424714414008
 10
3.48584202914785
 20
8.953795773720486
 10
3.485225832221154
 20
8.962959805321216
 10
3.484649397039371
 20
8.971427168837149
 10
3.48413235341126
 20
8.978909518359236
 10
3.48369230863745
 20
8.985152051448587
 10
3.483344247914937
 20
8.989942186127944
 10
3.483100024034175
 20
8.993116800105929
 10
3.482967953746507
 20
8.994567785711054
 10
3.482950989459856
 20
8.994658002328402
  0
LWPOLYLINE
  5
85D
330
1F
100
AcDbEntity
  8
0
  6
Continuous
 62
     7
100
AcDbPolyline
 90
       10
 70
   128
 43
0.0
 10
3.489837409544993
 20
8.890345975890527
 10
3.48983436086349
 20
8.890758147586586
 10
3.489732603892136
 20
8.892842274701852
 10
3.489517135961718
 20
8.896617502140856
 10
3.489195294574179
 20
8.901955269061048
 10
3.488778039651967
 20
8.90867380421191
 10
3.488279580311015
 20
8.916544315936871
 10
3.487716890986343
 20
8.925298783398777
 10
3.487109133388032
 20
8.934639083708038
 10
3.486477003972167
 20
8.94424714414008
  0
LINE
  5
869
330
1F
100
AcDbEntity
  8
0
  6
Continuous
 62
     7
100
AcDbLine
 10
3.367007304772141
 20
8.887745061959958
 30
0.0
 11
3.367015737309522
 21
8.887736661521235
 31
0.0
  0
LINE
  5
9AB
330
1F
100
AcDbEntity
  8
DET-IMAGE
 62
     0
100
AcDbLine
 10
4.322089326653719
 20
4.095898338462662
 30
0.0
 11
4.334086825013096
 21
4.047908345025165
 31
0.0
  0
LINE
  5
9AC
330
1F
100
AcDbEntity
  8
DET-IMAGE
 62
     0
100
AcDbLine
 10
4.322089326653719
 20
3.927933361431444
 30
0.0
 11
4.334086825013096
 21
3.987920853228312
 31
0.0
  0
LINE
  5
9AD
330
1F
100
AcDbEntity
  8
DET-IMAGE
 62
     0
100
AcDbLine
 10
4.334086825013096
 20
3.987920853228312
 30
0.0
 11
4.322089326653719
 21
4.047908345025165
 31
0.0
  0
LINE
  5
9AE
330
1F
100
AcDbEntity
  8
0
  6
Continuous
100
AcDbLine
 10
3.472242709348366
 20
3.915387839855253
 30
0.0
 11
4.616780259349092
 21
3.915387839855253
 31
0.0
  0
LINE
  5
9AF
330
1F
100
AcDbEntity
  8
0
  6
Continuous
100
AcDbLine
 10
1.617234736091905
 20
4.006301393662126
 30
0.0
 11
3.230759200602456
 21
4.006301393662126
 31
0.0
  0
LINE
  5
9B0
330
1F
100
AcDbEntity
  8
0
  6
Continuous
100
AcDbLine
 10
1.375751227345996
 20
3.915387839855253
 30
0.0
 11
0.2620377999720205
 21
3.915387839855253
 31
0.0
  0
LINE
  5
9B1
330
1F
100
AcDbEntity
  8
DET-IMAGE
 62
     0
100
AcDbLine
 10
1.029852922112654
 20
3.973110428826713
 30
0.0
 11
1.005676878029989
 21
3.94568517696853
 31
0.0
  0
LINE
  5
9B2
330
1F
100
AcDbEntity
  8
DET-IMAGE
 62
     0
100
AcDbLine
 10
0.939810900488796
 20
3.926311147181286
 30
0.0
 11
1.011192038086351
 21
3.935787909769024
 31
0.0
  0
LINE
  5
9B3
330
1F
100
AcDbEntity
  8
DET-IMAGE
 62
     0
100
AcDbLine
 10
0.6509961716974733
 20
3.926311147181286
 30
0.0
 11
0.6991158162863105
 21
3.966537434579712
 31
0.0
  0
LINE
  5
9B4
330
1F
100
AcDbEntity
  8
DET-IMAGE
 62
     0
100
AcDbLine
 10
0.7089373341948875
 20
3.961097715202881
 30
0.0
 11
0.6736539205192305
 21
3.931656822209289
 31
0.0
  0
LINE
  5
9B5
330
1F
100
AcDbEntity
  8
DET-IMAGE
 62
     0
100
AcDbLine
 10
0.6509961716974733
 20
3.926311147181286
 30
0.0
 11
0.6936006562299486
 21
4.009375224672253
 31
0.0
  0
LINE
  5
9B6
330
1F
100
AcDbEntity
  8
DET-IMAGE
 62
     0
100
AcDbLine
 10
0.703497724276291
 20
3.99947795747274
 30
0.0
 11
0.6666802893886388
 21
3.939422503909425
 31
0.0
  0
LINE
  5
9B7
330
1F
100
AcDbEntity
  8
DET-IMAGE
 62
     0
100
AcDbLine
 10
0.6672474007363594
 20
3.926311147181286
 30
0.0
 11
0.7386285383339146
 21
3.935787909769024
 31
0.0
  0
LINE
  5
9B8
330
1F
100
AcDbEntity
  8
DET-IMAGE
 62
     0
100
AcDbLine
 10
0.7331133782775527
 20
3.94568517696853
 30
0.0
 11
0.6509961716974733
 21
3.926311147181286
 31
0.0
  0
LINE
  5
9B9
330
1F
100
AcDbEntity
  8
DET-IMAGE
 62
     0
100
AcDbLine
 10
0.5365319198303684
 20
3.997286959390406
 30
0.0
 11
0.4926372897927838
 21
4.086286812527986
 31
0.0
  0
LINE
  5
9BA
330
1F
100
AcDbEntity
  8
DET-IMAGE
 62
     0
100
AcDbLine
 10
0.5025343578391261
 20
4.086286812527986
 30
0.0
 11
0.5409138278203631
 21
4.006050951719741
 31
0.0
  0
LINE
  5
9BB
330
1F
100
AcDbEntity
  8
DET-IMAGE
 62
     0
100
AcDbLine
 10
0.4542838434989793
 20
3.928942190436016
 30
0.0
 11
0.51163255378024
 21
3.994037986464368
 31
0.0
  0
LINE
  5
9BC
330
1F
100
AcDbEntity
  8
DET-IMAGE
 62
     0
100
AcDbLine
 10
0.5203653968453441
 20
3.976571948881931
 30
0.0
 11
0.4688955645460116
 21
3.928942190436016
 31
0.0
  0
LINE
  5
9BD
330
1F
100
AcDbEntity
  8
DET-IMAGE
 62
     0
100
AcDbLine
 10
0.3793351910219744
 20
4.100144164777687
 30
0.0
 11
0.4044421148341346
 21
4.045344471862782
 31
0.0
  0
LINE
  5
9BE
330
1F
100
AcDbEntity
  8
DET-IMAGE
 62
     0
100
AcDbLine
 10
0.3723489165698854
 20
4.030061688978156
 30
0.0
 11
0.3793351910219744
 21
4.053859165184226
 31
0.0
  0
LINE
  5
9BF
330
1F
100
AcDbEntity
  8
DET-IMAGE
 62
     0
100
AcDbLine
 10
0.3793351910219744
 20
4.053859165184226
 30
0.0
 11
0.3666725685775791
 21
4.034209872903977
 31
0.0
  0
LINE
  5
9C0
330
1F
100
AcDbEntity
  8
DET-IMAGE
 62
     0
100
AcDbLine
 10
0.4721164389106836
 20
4.035956476662227
 30
0.0
 11
0.4721164389106836
 21
4.101672443066148
 31
0.0
  0
LINE
  5
9C1
330
1F
100
AcDbEntity
  8
DET-IMAGE
 62
     0
100
AcDbLine
 10
0.4284574332631426
 20
3.994911288343493
 30
0.0
 11
0.4171047372785157
 21
4.049710981258391
 31
0.0
  0
LINE
  5
9C2
330
1F
100
AcDbEntity
  8
DET-IMAGE
 62
     0
100
AcDbLine
 10
0.4721164389106836
 20
4.101672443066148
 30
0.0
 11
0.4808492819757735
 21
4.011722349516594
 31
0.0
  0
LINE
  5
9C3
330
1F
100
AcDbEntity
  8
DET-IMAGE
 62
     0
100
AcDbLine
 10
0.4171047372785157
 20
3.986396595022056
 30
0.0
 11
0.4264118055691544
 21
3.928942190436016
 31
0.0
  0
LINE
  5
9C4
330
1F
100
AcDbEntity
  8
DET-IMAGE
 62
     0
100
AcDbLine
 10
0.4208560936321195
 20
3.928942190436016
 30
0.0
 11
0.3793351910219744
 21
3.975261996063259
 31
0.0
  0
LINE
  5
9C5
330
1F
100
AcDbEntity
  8
DET-IMAGE
 62
     0
100
AcDbLine
 10
0.3666725685775791
 20
3.979410179989086
 30
0.0
 11
0.4070112225635061
 21
3.928942190436016
 31
0.0
  0
LINE
  5
9C6
330
1F
100
AcDbEntity
  8
DET-IMAGE
 62
     0
100
AcDbLine
 10
0.4044421148341346
 20
4.045344471862782
 30
0.0
 11
0.4171047372785157
 21
3.986396595022056
 31
0.0
  0
LINE
  5
9C7
330
1F
100
AcDbEntity
  8
DET-IMAGE
 62
     0
100
AcDbLine
 10
0.3793351910219744
 20
3.975261996063259
 30
0.0
 11
0.3723489165698854
 21
4.030061688978156
 31
0.0
  0
LINE
  5
9C8
330
1F
100
AcDbEntity
  8
DET-IMAGE
 62
     0
100
AcDbLine
 10
0.3666725685775791
 20
4.034209872903977
 30
0.0
 11
0.3666725685775791
 21
3.979410179989086
 31
0.0
  0
LINE
  5
9C9
330
1F
100
AcDbEntity
  8
DET-IMAGE
 62
     0
100
AcDbLine
 10
0.4394843039876921
 20
3.928942190436016
 30
0.0
 11
0.4284574332631426
 21
3.994911288343493
 31
0.0
  0
LINE
  5
9CA
330
1F
100
AcDbEntity
  8
DET-IMAGE
 62
     0
100
AcDbLine
 10
0.4407180194145273
 20
3.928942190436016
 30
0.0
 11
0.4721164389106836
 21
4.035956476662227
 31
0.0
  0
LINE
  5
9CB
330
1F
100
AcDbEntity
  8
DET-IMAGE
 62
     0
100
AcDbLine
 10
0.4808492819757735
 20
4.011722349516594
 30
0.0
 11
0.4542838434989793
 21
3.928942190436016
 31
0.0
  0
LINE
  5
9CC
330
1F
100
AcDbEntity
  8
DET-IMAGE
 62
     0
100
AcDbLine
 10
0.4171047372785157
 20
4.049710981258391
 30
0.0
 11
0.3847932179376645
 21
4.102982395884828
 31
0.0
  0
LINE
  5
9CD
330
1F
100
AcDbEntity
  8
DET-IMAGE
 62
     0
100
AcDbLine
 10
0.3847932179376645
 20
4.102982395884828
 30
0.0
 11
0.3723489165698854
 21
4.146429164371147
 31
0.0
  0
LINE
  5
9CE
330
1F
100
AcDbEntity
  8
DET-IMAGE
 62
     0
100
AcDbLine
 10
0.3723489165698854
 20
4.146429164371147
 30
0.0
 11
0.3793351910219744
 21
4.100144164777687
 31
0.0
  0
LINE
  5
9CF
330
1F
100
AcDbEntity
  8
DET-IMAGE
 62
     0
100
AcDbLine
 10
0.4926372897927838
 20
4.086286812527986
 30
0.0
 11
0.4827402217464414
 21
4.141137316244359
 31
0.0
  0
LINE
  5
9D0
330
1F
100
AcDbEntity
  8
DET-IMAGE
 62
     0
100
AcDbLine
 10
0.4827402217464414
 20
4.141137316244359
 30
0.0
 11
0.5025343578391261
 21
4.086286812527986
 31
0.0
  0
LINE
  5
9D1
330
1F
100
AcDbEntity
  8
DET-IMAGE
 62
     0
100
AcDbLine
 10
0.6496304760545986
 20
4.018139217001588
 30
0.0
 11
0.645248568064618
 21
4.122476056715504
 31
0.0
  0
LINE
  5
9D2
330
1F
100
AcDbEntity
  8
DET-IMAGE
 62
     0
100
AcDbLine
 10
0.6551456361109604
 20
4.119227335421007
 30
0.0
 11
0.6595275441009409
 21
4.018139217001588
 31
0.0
  0
LINE
  5
9D3
330
1F
100
AcDbEntity
  8
DET-IMAGE
 62
     0
100
AcDbLine
 10
0.5761201920157379
 20
4.042315747565274
 30
0.0
 11
0.5761201920157379
 21
4.122476056715504
 31
0.0
  0
LINE
  5
9D4
330
1F
100
AcDbEntity
  8
DET-IMAGE
 62
     0
100
AcDbLine
 10
0.5761201920157379
 20
4.122476056715504
 30
0.0
 11
0.5859417099243291
 21
4.045640020517778
 31
0.0
  0
LINE
  5
9D5
330
1F
100
AcDbEntity
  8
DET-IMAGE
 62
     0
100
AcDbLine
 10
0.51163255378024
 20
3.994037986464368
 30
0.0
 11
0.51163255378024
 21
4.053422514244664
 31
0.0
  0
LINE
  5
9D6
330
1F
100
AcDbEntity
  8
DET-IMAGE
 62
     0
100
AcDbLine
 10
0.51163255378024
 20
4.053422514244664
 30
0.0
 11
0.5203653968453441
 21
3.976571948881931
 31
0.0
  0
LINE
  5
9D7
330
1F
100
AcDbEntity
  8
DET-IMAGE
 62
     0
100
AcDbLine
 10
0.6132363458751673
 20
3.926311147181286
 30
0.0
 11
0.5662231239693956
 21
3.942360904016018
 31
0.0
  0
LINE
  5
9D8
330
1F
100
AcDbEntity
  8
DET-IMAGE
 62
     0
100
AcDbLine
 10
0.6132363458751673
 20
3.926311147181286
 30
0.0
 11
0.5365319198303684
 21
3.997286959390406
 31
0.0
  0
LINE
  5
9D9
330
1F
100
AcDbEntity
  8
DET-IMAGE
 62
     0
100
AcDbLine
 10
0.5409138278203631
 20
4.006050951719741
 30
0.0
 11
0.626759342634502
 21
3.926311147181286
 31
0.0
  0
LINE
  5
9DA
330
1F
100
AcDbEntity
  8
DET-IMAGE
 62
     0
100
AcDbLine
 10
0.626759342634502
 20
3.926311147181286
 30
0.0
 11
0.5761201920157379
 21
4.042315747565274
 31
0.0
  0
LINE
  5
9DB
330
1F
100
AcDbEntity
  8
DET-IMAGE
 62
     0
100
AcDbLine
 10
0.5859417099243291
 20
4.045640020517778
 30
0.0
 11
0.6400869588690217
 21
3.926311147181286
 31
0.0
  0
LINE
  5
9DC
330
1F
100
AcDbEntity
  8
DET-IMAGE
 62
     0
100
AcDbLine
 10
0.5662231239693956
 20
3.942360904016018
 30
0.0
 11
0.5409138278203631
 21
3.961097715202881
 31
0.0
  0
LINE
  5
9DD
330
1F
100
AcDbEntity
  8
DET-IMAGE
 62
     0
100
AcDbLine
 10
0.5409138278203631
 20
3.961097715202881
 30
0.0
 11
0.5222529437940597
 21
3.979758974731736
 31
0.0
  0
LINE
  5
9DE
330
1F
100
AcDbEntity
  8
DET-IMAGE
 62
     0
100
AcDbLine
 10
0.5222529437940597
 20
3.979758974731736
 30
0.0
 11
0.5409138278203631
 21
3.951200448003368
 31
0.0
  0
LINE
  5
9DF
330
1F
100
AcDbEntity
  8
DET-IMAGE
 62
     0
100
AcDbLine
 10
0.5409138278203631
 20
3.951200448003368
 30
0.0
 11
0.5662231239693956
 21
3.930348190392193
 31
0.0
  0
LINE
  5
9E0
330
1F
100
AcDbEntity
  8
DET-IMAGE
 62
     0
100
AcDbLine
 10
0.5662231239693956
 20
3.930348190392193
 30
0.0
 11
0.5841876047687169
 21
3.926311147181286
 31
0.0
  0
LINE
  5
9E1
330
1F
100
AcDbEntity
  8
DET-IMAGE
 62
     0
100
AcDbLine
 10
0.6400869588690217
 20
3.926311147181286
 30
0.0
 11
0.6496304760545986
 21
4.018139217001588
 31
0.0
  0
LINE
  5
9E2
330
1F
100
AcDbEntity
  8
DET-IMAGE
 62
     0
100
AcDbLine
 10
0.6595275441009409
 20
4.018139217001588
 30
0.0
 11
0.6509961716974733
 21
3.926311147181286
 31
0.0
  0
LINE
  5
9E3
330
1F
100
AcDbEntity
  8
DET-IMAGE
 62
     0
100
AcDbLine
 10
0.645248568064618
 20
4.122476056715504
 30
0.0
 11
0.6398089581460216
 21
4.16863811976055
 31
0.0
  0
LINE
  5
9E4
330
1F
100
AcDbEntity
  8
DET-IMAGE
 62
     0
100
AcDbLine
 10
0.6398089581460216
 20
4.16863811976055
 30
0.0
 11
0.6551456361109604
 21
4.119227335421007
 31
0.0
  0
LINE
  5
9E5
330
1F
100
AcDbEntity
  8
DET-IMAGE
 62
     0
100
AcDbLine
 10
0.8857998456276039
 20
3.926311147181286
 30
0.0
 11
0.8387866237218322
 21
3.942360904016018
 31
0.0
  0
LINE
  5
9E6
330
1F
100
AcDbEntity
  8
DET-IMAGE
 62
     0
100
AcDbLine
 10
0.8387866237218322
 20
3.930348190392193
 30
0.0
 11
0.8567511045211536
 21
3.926311147181286
 31
0.0
  0
LINE
  5
9E7
330
1F
100
AcDbEntity
  8
DET-IMAGE
 62
     0
100
AcDbLine
 10
0.8857998456276039
 20
3.926311147181286
 30
0.0
 11
0.8090954195828051
 21
3.997286959390406
 31
0.0
  0
LINE
  5
9E8
330
1F
100
AcDbEntity
  8
DET-IMAGE
 62
     0
100
AcDbLine
 10
0.8134773275727998
 20
4.006050951719741
 30
0.0
 11
0.8993228423869377
 21
3.926311147181286
 31
0.0
  0
LINE
  5
9E9
330
1F
100
AcDbEntity
  8
DET-IMAGE
 62
     0
100
AcDbLine
 10
0.6936006562299486
 20
4.009375224672253
 30
0.0
 11
0.6991158162863105
 21
4.060977007094129
 31
0.0
  0
LINE
  5
9EA
330
1F
100
AcDbEntity
  8
DET-IMAGE
 62
     0
100
AcDbLine
 10
0.7089373341948875
 20
4.052213014764787
 30
0.0
 11
0.703497724276291
 21
3.99947795747274
 31
0.0
  0
LINE
  5
9EB
330
1F
100
AcDbEntity
  8
DET-IMAGE
 62
     0
100
AcDbLine
 10
0.8090954195828051
 20
3.997286959390406
 30
0.0
 11
0.7652007895452204
 21
4.086286812527986
 31
0.0
  0
LINE
  5
9EC
330
1F
100
AcDbEntity
  8
DET-IMAGE
 62
     0
100
AcDbLine
 10
0.7750978575915628
 20
4.086286812527986
 30
0.0
 11
0.8134773275727998
 21
4.006050951719741
 31
0.0
  0
LINE
  5
9ED
330
1F
100
AcDbEntity
  8
DET-IMAGE
 62
     0
100
AcDbLine
 10
0.7386285383339146
 20
3.935787909769024
 30
0.0
 11
0.7671864904065604
 21
3.973110428826713
 31
0.0
  0
LINE
  5
9EE
330
1F
100
AcDbEntity
  8
DET-IMAGE
 62
     0
100
AcDbLine
 10
0.7814654664428975
 20
4.024787762906604
 30
0.0
 11
0.757289422360218
 21
3.973110428826713
 31
0.0
  0
LINE
  5
9EF
330
1F
100
AcDbEntity
  8
DET-IMAGE
 62
     0
100
AcDbLine
 10
0.757289422360218
 20
3.973110428826713
 30
0.0
 11
0.7331133782775527
 21
3.94568517696853
 31
0.0
  0
LINE
  5
9F0
330
1F
100
AcDbEntity
  8
DET-IMAGE
 62
     0
100
AcDbLine
 10
0.6991158162863105
 20
3.966537434579712
 30
0.0
 11
0.7232163102312104
 21
4.009375224672253
 31
0.0
  0
LINE
  5
9F1
330
1F
100
AcDbEntity
  8
DET-IMAGE
 62
     0
100
AcDbLine
 10
0.7287314702875722
 20
3.99947795747274
 30
0.0
 11
0.7089373341948875
 21
3.961097715202881
 31
0.0
  0
LINE
  5
9F2
330
1F
100
AcDbEntity
  8
DET-IMAGE
 62
     0
100
AcDbLine
 10
0.7232163102312104
 20
4.009375224672253
 30
0.0
 11
0.7287314702875722
 21
4.042315747565274
 31
0.0
  0
LINE
  5
9F3
330
1F
100
AcDbEntity
  8
DET-IMAGE
 62
     0
100
AcDbLine
 10
0.7287314702875722
 20
4.042315747565274
 30
0.0
 11
0.7287314702875722
 21
3.99947795747274
 31
0.0
  0
LINE
  5
9F4
330
1F
100
AcDbEntity
  8
DET-IMAGE
 62
     0
100
AcDbLine
 10
0.8387866237218322
 20
3.942360904016018
 30
0.0
 11
0.8134773275727998
 21
3.961097715202881
 31
0.0
  0
LINE
  5
9F5
330
1F
100
AcDbEntity
  8
DET-IMAGE
 62
     0
100
AcDbLine
 10
0.8134773275727998
 20
3.961097715202881
 30
0.0
 11
0.7948164435464964
 21
3.979758974731736
 31
0.0
  0
LINE
  5
9F6
330
1F
100
AcDbEntity
  8
DET-IMAGE
 62
     0
100
AcDbLine
 10
0.7948164435464964
 20
3.979758974731736
 30
0.0
 11
0.8134773275727998
 21
3.951200448003368
 31
0.0
  0
LINE
  5
9F7
330
1F
100
AcDbEntity
  8
DET-IMAGE
 62
     0
100
AcDbLine
 10
0.8134773275727998
 20
3.951200448003368
 30
0.0
 11
0.8387866237218322
 21
3.930348190392193
 31
0.0
  0
LINE
  5
9F8
330
1F
100
AcDbEntity
  8
DET-IMAGE
 62
     0
100
AcDbLine
 10
0.7671864904065604
 20
3.973110428826713
 30
0.0
 11
0.7814654664428975
 21
4.024787762906604
 31
0.0
  0
LINE
  5
9F9
330
1F
100
AcDbEntity
  8
DET-IMAGE
 62
     0
100
AcDbLine
 10
0.7652007895452204
 20
4.086286812527986
 30
0.0
 11
0.755303721498878
 21
4.141137316244359
 31
0.0
  0
LINE
  5
9FA
330
1F
100
AcDbEntity
  8
DET-IMAGE
 62
     0
100
AcDbLine
 10
0.755303721498878
 20
4.141137316244359
 30
0.0
 11
0.7750978575915628
 21
4.086286812527986
 31
0.0
  0
LINE
  5
9FB
330
1F
100
AcDbEntity
  8
DET-IMAGE
 62
     0
100
AcDbLine
 10
0.6991158162863105
 20
4.060977007094129
 30
0.0
 11
0.6991158162863105
 21
4.129049050962513
 31
0.0
  0
LINE
  5
9FC
330
1F
100
AcDbEntity
  8
DET-IMAGE
 62
     0
100
AcDbLine
 10
0.6991158162863105
 20
4.129049050962513
 30
0.0
 11
0.7089373341948875
 21
4.052213014764787
 31
0.0
  0
LINE
  5
9FD
330
1F
100
AcDbEntity
  8
DET-IMAGE
 62
     0
100
AcDbLine
 10
0.9221939758070352
 20
4.018139217001588
 30
0.0
 11
0.9178120678170547
 21
4.122476056715504
 31
0.0
  0
LINE
  5
9FE
330
1F
100
AcDbEntity
  8
DET-IMAGE
 62
     0
100
AcDbLine
 10
0.9277091358633971
 20
4.119227335421007
 30
0.0
 11
0.9320910438533776
 21
4.018139217001588
 31
0.0
  0
LINE
  5
9FF
330
1F
100
AcDbEntity
  8
DET-IMAGE
 62
     0
100
AcDbLine
 10
0.8486836917681746
 20
4.042315747565274
 30
0.0
 11
0.8486836917681746
 21
4.122476056715504
 31
0.0
  0
LINE
  5
A00
330
1F
100
AcDbEntity
  8
DET-IMAGE
 62
     0
100
AcDbLine
 10
0.8486836917681746
 20
4.122476056715504
 30
0.0
 11
0.8585052096767658
 21
4.045640020517778
 31
0.0
  0
LINE
  5
A01
330
1F
100
AcDbEntity
  8
DET-IMAGE
 62
     0
100
AcDbLine
 10
0.9661641559823853
 20
4.009375224672253
 30
0.0
 11
0.9716793160387471
 21
4.060977007094129
 31
0.0
  0
LINE
  5
A02
330
1F
100
AcDbEntity
  8
DET-IMAGE
 62
     0
100
AcDbLine
 10
0.9815008339473241
 20
4.052213014764787
 30
0.0
 11
0.9760612240287276
 21
3.99947795747274
 31
0.0
  0
LINE
  5
A03
330
1F
100
AcDbEntity
  8
DET-IMAGE
 62
     0
100
AcDbLine
 10
0.9235596714499099
 20
3.926311147181286
 30
0.0
 11
0.9716793160387471
 21
3.966537434579712
 31
0.0
  0
LINE
  5
A04
330
1F
100
AcDbEntity
  8
DET-IMAGE
 62
     0
100
AcDbLine
 10
1.005676878029989
 20
3.94568517696853
 30
0.0
 11
0.9235596714499099
 21
3.926311147181286
 31
0.0
  0
LINE
  5
A05
330
1F
100
AcDbEntity
  8
DET-IMAGE
 62
     0
100
AcDbLine
 10
0.9235596714499099
 20
3.926311147181286
 30
0.0
 11
0.9661641559823853
 21
4.009375224672253
 31
0.0
  0
LINE
  5
A06
330
1F
100
AcDbEntity
  8
DET-IMAGE
 62
     0
100
AcDbLine
 10
0.9320910438533776
 20
4.018139217001588
 30
0.0
 11
0.9235596714499099
 21
3.926311147181286
 31
0.0
  0
LINE
  5
A07
330
1F
100
AcDbEntity
  8
DET-IMAGE
 62
     0
100
AcDbLine
 10
0.9126504586214583
 20
3.926311147181286
 30
0.0
 11
0.9221939758070352
 21
4.018139217001588
 31
0.0
  0
LINE
  5
A08
330
1F
100
AcDbEntity
  8
DET-IMAGE
 62
     0
100
AcDbLine
 10
0.8993228423869377
 20
3.926311147181286
 30
0.0
 11
0.8486836917681746
 21
4.042315747565274
 31
0.0
  0
LINE
  5
A09
330
1F
100
AcDbEntity
  8
DET-IMAGE
 62
     0
100
AcDbLine
 10
0.8585052096767658
 20
4.045640020517778
 30
0.0
 11
0.9126504586214583
 21
3.926311147181286
 31
0.0
  0
LINE
  5
A0A
330
1F
100
AcDbEntity
  8
DET-IMAGE
 62
     0
100
AcDbLine
 10
0.9716793160387471
 20
3.966537434579712
 30
0.0
 11
0.995779809983647
 21
4.009375224672253
 31
0.0
  0
LINE
  5
A0B
330
1F
100
AcDbEntity
  8
DET-IMAGE
 62
     0
100
AcDbLine
 10
1.001294970040009
 20
3.99947795747274
 30
0.0
 11
0.9815008339473241
 21
3.961097715202881
 31
0.0
  0
LINE
  5
A0C
330
1F
100
AcDbEntity
  8
DET-IMAGE
 62
     0
100
AcDbLine
 10
0.9815008339473241
 20
3.961097715202881
 30
0.0
 11
0.9462174202716671
 21
3.931656822209289
 31
0.0
  0
LINE
  5
A0D
330
1F
100
AcDbEntity
  8
DET-IMAGE
 62
     0
100
AcDbLine
 10
0.9760612240287276
 20
3.99947795747274
 30
0.0
 11
0.9392437891410754
 21
3.939422503909425
 31
0.0
  0
LINE
  5
A0E
330
1F
100
AcDbEntity
  8
DET-IMAGE
 62
     0
100
AcDbLine
 10
0.995779809983647
 20
4.009375224672253
 30
0.0
 11
1.001294970040009
 21
4.042315747565274
 31
0.0
  0
LINE
  5
A0F
330
1F
100
AcDbEntity
  8
DET-IMAGE
 62
     0
100
AcDbLine
 10
1.001294970040009
 20
4.042315747565274
 30
0.0
 11
1.001294970040009
 21
3.99947795747274
 31
0.0
  0
LINE
  5
A10
330
1F
100
AcDbEntity
  8
DET-IMAGE
 62
     0
100
AcDbLine
 10
0.9123724578984582
 20
4.16863811976055
 30
0.0
 11
0.9277091358633971
 21
4.119227335421007
 31
0.0
  0
LINE
  5
A11
330
1F
100
AcDbEntity
  8
DET-IMAGE
 62
     0
100
AcDbLine
 10
0.9178120678170547
 20
4.122476056715504
 30
0.0
 11
0.9123724578984582
 21
4.16863811976055
 31
0.0
  0
LINE
  5
A12
330
1F
100
AcDbEntity
  8
DET-IMAGE
 62
     0
100
AcDbLine
 10
0.9716793160387471
 20
4.060977007094129
 30
0.0
 11
0.9716793160387471
 21
4.129049050962513
 31
0.0
  0
LINE
  5
A13
330
1F
100
AcDbEntity
  8
DET-IMAGE
 62
     0
100
AcDbLine
 10
0.9716793160387471
 20
4.129049050962513
 30
0.0
 11
0.9815008339473241
 21
4.052213014764787
 31
0.0
  0
LINE
  5
A14
330
1F
100
AcDbEntity
  8
DET-IMAGE
 62
     0
100
AcDbLine
 10
1.335162209643089
 20
3.935787909769017
 30
0.0
 11
1.363720161715736
 21
3.973110428826706
 31
0.0
  0
LINE
  5
A15
330
1F
100
AcDbEntity
  8
DET-IMAGE
 62
     0
100
AcDbLine
 10
1.353823093669392
 20
3.973110428826706
 30
0.0
 11
1.329647049586727
 21
3.945685176968523
 31
0.0
  0
LINE
  5
A16
330
1F
100
AcDbEntity
  8
DET-IMAGE
 62
     0
100
AcDbLine
 10
1.172653863324912
 20
4.122476056715497
 30
0.0
 11
1.182475381233489
 21
4.045640020517771
 31
0.0
  0
LINE
  5
A17
330
1F
100
AcDbEntity
  8
DET-IMAGE
 62
     0
100
AcDbLine
 10
1.162756795278571
 20
3.930348190392186
 30
0.0
 11
1.180721276077891
 21
3.926311147181279
 31
0.0
  0
LINE
  5
A18
330
1F
100
AcDbEntity
  8
DET-IMAGE
 62
     0
100
AcDbLine
 10
1.209770017184327
 20
3.926311147181279
 30
0.0
 11
1.133065591139543
 21
3.997286959390399
 31
0.0
  0
LINE
  5
A19
330
1F
100
AcDbEntity
  8
DET-IMAGE
 62
     0
100
AcDbLine
 10
1.137447499129523
 20
4.006050951719734
 30
0.0
 11
1.223293013943676
 21
3.926311147181279
 31
0.0
  0
LINE
  5
A1A
330
1F
100
AcDbEntity
  8
DET-IMAGE
 62
     0
100
AcDbLine
 10
1.209770017184327
 20
3.926311147181279
 30
0.0
 11
1.162756795278571
 21
3.942360904016011
 31
0.0
  0
LINE
  5
A1B
330
1F
100
AcDbEntity
  8
DET-IMAGE
 62
     0
100
AcDbLine
 10
1.223293013943676
 20
3.926311147181279
 30
0.0
 11
1.172653863324912
 21
4.042315747565267
 31
0.0
  0
LINE
  5
A1C
330
1F
100
AcDbEntity
  8
DET-IMAGE
 62
     0
100
AcDbLine
 10
1.172653863324912
 20
4.042315747565267
 30
0.0
 11
1.172653863324912
 21
4.122476056715497
 31
0.0
  0
LINE
  5
A1D
330
1F
100
AcDbEntity
  8
DET-IMAGE
 62
     0
100
AcDbLine
 10
1.133065591139543
 20
3.997286959390399
 30
0.0
 11
1.089170961101944
 21
4.086286812527979
 31
0.0
  0
LINE
  5
A1E
330
1F
100
AcDbEntity
  8
DET-IMAGE
 62
     0
100
AcDbLine
 10
1.099068029148286
 20
4.086286812527979
 30
0.0
 11
1.137447499129523
 21
4.006050951719734
 31
0.0
  0
LINE
  5
A1F
330
1F
100
AcDbEntity
  8
DET-IMAGE
 62
     0
100
AcDbLine
 10
1.011192038086351
 20
3.935787909769024
 30
0.0
 11
1.039749990158997
 21
3.973110428826713
 31
0.0
  0
LINE
  5
A20
330
1F
100
AcDbEntity
  8
DET-IMAGE
 62
     0
100
AcDbLine
 10
1.039749990158997
 20
3.973110428826713
 30
0.0
 11
1.054028966195334
 21
4.024787762906604
 31
0.0
  0
LINE
  5
A21
330
1F
100
AcDbEntity
  8
DET-IMAGE
 62
     0
100
AcDbLine
 10
1.054028966195334
 20
4.024787762906604
 30
0.0
 11
1.029852922112654
 21
3.973110428826713
 31
0.0
  0
LINE
  5
A22
330
1F
100
AcDbEntity
  8
DET-IMAGE
 62
     0
100
AcDbLine
 10
1.162756795278571
 20
3.942360904016011
 30
0.0
 11
1.137447499129523
 21
3.961097715202873
 31
0.0
  0
LINE
  5
A23
330
1F
100
AcDbEntity
  8
DET-IMAGE
 62
     0
100
AcDbLine
 10
1.137447499129523
 20
3.961097715202873
 30
0.0
 11
1.11878661510322
 21
3.979758974731729
 31
0.0
  0
LINE
  5
A24
330
1F
100
AcDbEntity
  8
DET-IMAGE
 62
     0
100
AcDbLine
 10
1.11878661510322
 20
3.979758974731729
 30
0.0
 11
1.137447499129523
 21
3.951200448003361
 31
0.0
  0
LINE
  5
A25
330
1F
100
AcDbEntity
  8
DET-IMAGE
 62
     0
100
AcDbLine
 10
1.137447499129523
 20
3.951200448003361
 30
0.0
 11
1.162756795278571
 21
3.930348190392186
 31
0.0
  0
LINE
  5
A26
330
1F
100
AcDbEntity
  8
DET-IMAGE
 62
     0
100
AcDbLine
 10
1.079273893055616
 20
4.141137316244352
 30
0.0
 11
1.099068029148286
 21
4.086286812527979
 31
0.0
  0
LINE
  5
A27
330
1F
100
AcDbEntity
  8
DET-IMAGE
 62
     0
100
AcDbLine
 10
1.089170961101944
 20
4.086286812527979
 30
0.0
 11
1.079273893055616
 21
4.141137316244352
 31
0.0
  0
LINE
  5
A28
330
1F
100
AcDbEntity
  8
DET-IMAGE
 62
     0
100
AcDbLine
 10
1.246164147363773
 20
4.018139217001581
 30
0.0
 11
1.241782239373778
 21
4.122476056715497
 31
0.0
  0
LINE
  5
A29
330
1F
100
AcDbEntity
  8
DET-IMAGE
 62
     0
100
AcDbLine
 10
1.251679307420121
 20
4.119227335421
 30
0.0
 11
1.256061215410115
 21
4.018139217001581
 31
0.0
  0
LINE
  5
A2A
330
1F
100
AcDbEntity
  8
DET-IMAGE
 62
     0
100
AcDbLine
 10
1.290134327539109
 20
4.009375224672246
 30
0.0
 11
1.295649487595471
 21
4.060977007094122
 31
0.0
  0
LINE
  5
A2B
330
1F
100
AcDbEntity
  8
DET-IMAGE
 62
     0
100
AcDbLine
 10
1.305471005504062
 20
4.05221301476478
 30
0.0
 11
1.30003139558545
 21
3.999477957472734
 31
0.0
  0
LINE
  5
A2C
330
1F
100
AcDbEntity
  8
DET-IMAGE
 62
     0
100
AcDbLine
 10
1.247529843006649
 20
3.926311147181279
 30
0.0
 11
1.295649487595471
 21
3.966537434579704
 31
0.0
  0
LINE
  5
A2D
330
1F
100
AcDbEntity
  8
DET-IMAGE
 62
     0
100
AcDbLine
 10
1.247529843006649
 20
3.926311147181279
 30
0.0
 11
1.290134327539109
 21
4.009375224672246
 31
0.0
  0
LINE
  5
A2E
330
1F
100
AcDbEntity
  8
DET-IMAGE
 62
     0
100
AcDbLine
 10
1.329647049586727
 20
3.945685176968523
 30
0.0
 11
1.247529843006649
 21
3.926311147181279
 31
0.0
  0
LINE
  5
A2F
330
1F
100
AcDbEntity
  8
DET-IMAGE
 62
     0
100
AcDbLine
 10
1.256061215410115
 20
4.018139217001581
 30
0.0
 11
1.247529843006649
 21
3.926311147181279
 31
0.0
  0
LINE
  5
A30
330
1F
100
AcDbEntity
  8
DET-IMAGE
 62
     0
100
AcDbLine
 10
1.182475381233489
 20
4.045640020517771
 30
0.0
 11
1.236620630178182
 21
3.926311147181279
 31
0.0
  0
LINE
  5
A31
330
1F
100
AcDbEntity
  8
DET-IMAGE
 62
     0
100
AcDbLine
 10
1.236620630178182
 20
3.926311147181279
 30
0.0
 11
1.246164147363773
 21
4.018139217001581
 31
0.0
  0
LINE
  5
A32
330
1F
100
AcDbEntity
  8
DET-IMAGE
 62
     0
100
AcDbLine
 10
1.295649487595471
 20
3.966537434579704
 30
0.0
 11
1.319749981540386
 21
4.009375224672246
 31
0.0
  0
LINE
  5
A33
330
1F
100
AcDbEntity
  8
DET-IMAGE
 62
     0
100
AcDbLine
 10
1.305471005504062
 20
3.961097715202873
 30
0.0
 11
1.270187591828405
 21
3.931656822209282
 31
0.0
  0
LINE
  5
A34
330
1F
100
AcDbEntity
  8
DET-IMAGE
 62
     0
100
AcDbLine
 10
1.30003139558545
 20
3.999477957472734
 30
0.0
 11
1.263213960697798
 21
3.939422503909418
 31
0.0
  0
LINE
  5
A35
330
1F
100
AcDbEntity
  8
DET-IMAGE
 62
     0
100
AcDbLine
 10
1.263781072045534
 20
3.926311147181279
 30
0.0
 11
1.335162209643089
 21
3.935787909769017
 31
0.0
  0
LINE
  5
A36
330
1F
100
AcDbEntity
  8
DET-IMAGE
 62
     0
100
AcDbLine
 10
1.325265141596746
 20
3.999477957472734
 30
0.0
 11
1.305471005504062
 21
3.961097715202873
 31
0.0
  0
LINE
  5
A37
330
1F
100
AcDbEntity
  8
DET-IMAGE
 62
     0
100
AcDbLine
 10
1.319749981540386
 20
4.009375224672246
 30
0.0
 11
1.325265141596746
 21
4.042315747565267
 31
0.0
  0
LINE
  5
A38
330
1F
100
AcDbEntity
  8
DET-IMAGE
 62
     0
100
AcDbLine
 10
1.325265141596746
 20
4.042315747565267
 30
0.0
 11
1.325265141596746
 21
3.999477957472734
 31
0.0
  0
LINE
  5
A39
330
1F
100
AcDbEntity
  8
DET-IMAGE
 62
     0
100
AcDbLine
 10
1.241782239373778
 20
4.122476056715497
 30
0.0
 11
1.236342629455181
 21
4.168638119760542
 31
0.0
  0
LINE
  5
A3A
330
1F
100
AcDbEntity
  8
DET-IMAGE
 62
     0
100
AcDbLine
 10
1.236342629455181
 20
4.168638119760542
 30
0.0
 11
1.251679307420121
 21
4.119227335421
 31
0.0
  0
LINE
  5
A3B
330
1F
100
AcDbEntity
  8
DET-IMAGE
 62
     0
100
AcDbLine
 10
1.295649487595471
 20
4.060977007094122
 30
0.0
 11
1.295649487595471
 21
4.129049050962506
 31
0.0
  0
LINE
  5
A3C
330
1F
100
AcDbEntity
  8
DET-IMAGE
 62
     0
100
AcDbLine
 10
1.295649487595471
 20
4.129049050962506
 30
0.0
 11
1.305471005504062
 21
4.05221301476478
 31
0.0
  0
LINE
  5
A3D
330
1F
100
AcDbEntity
  8
0
  6
Continuous
100
AcDbLine
 10
1.475751227345996
 20
3.915387839855253
 30
0.0
 11
1.551388611367983
 21
3.981562856967337
 31
0.0
  0
LINE
  5
A3E
330
1F
100
AcDbEntity
  8
0
  6
Continuous
100
AcDbLine
 10
1.475751227345996
 20
3.915387839855253
 30
0.0
 11
1.375751227345996
 21
3.915387839855253
 31
0.0
  0
LINE
  5
A3F
330
1F
100
AcDbEntity
  8
DET-IMAGE
 62
     0
100
AcDbLine
 10
1.363720161715736
 20
3.973110428826706
 30
0.0
 11
1.377999137752058
 21
4.024787762906596
 31
0.0
  0
LINE
  5
A40
330
1F
100
AcDbEntity
  8
DET-IMAGE
 62
     0
100
AcDbLine
 10
1.377999137752058
 20
4.024787762906596
 30
0.0
 11
1.353823093669392
 21
3.973110428826706
 31
0.0
  0
ARC
  5
A41
330
1F
100
AcDbEntity
  8
0
  6
Continuous
100
AcDbCircle
 10
1.617234736091905
 20
3.906301393662125
 30
0.0
 40
0.1
100
AcDbArc
 50
90.0
 51
131.1826240823063
  0
LINE
  5
A42
330
1F
100
AcDbEntity
  8
DET-IMAGE
 62
     0
100
AcDbLine
 10
3.640430039388835
 20
3.929688544278664
 30
0.0
 11
3.711811176986389
 21
3.939165306866402
 31
0.0
  0
LINE
  5
A43
330
1F
100
AcDbEntity
  8
DET-IMAGE
 62
     0
100
AcDbLine
 10
3.706296016930027
 20
3.949062574065907
 30
0.0
 11
3.624178810349948
 21
3.929688544278664
 31
0.0
  0
LINE
  5
A44
330
1F
100
AcDbEntity
  8
DET-IMAGE
 62
     0
100
AcDbLine
 10
3.624178810349948
 20
3.929688544278664
 30
0.0
 11
3.672298454938771
 21
3.969914831677089
 31
0.0
  0
LINE
  5
A45
330
1F
100
AcDbEntity
  8
DET-IMAGE
 62
     0
100
AcDbLine
 10
3.682119972847362
 20
3.964475112300258
 30
0.0
 11
3.646836559171706
 21
3.935034219306667
 31
0.0
  0
LINE
  5
A46
330
1F
100
AcDbEntity
  8
DET-IMAGE
 62
     0
100
AcDbLine
 10
3.624178810349948
 20
3.929688544278664
 30
0.0
 11
3.666783294882409
 21
4.01275262176963
 31
0.0
  0
LINE
  5
A47
330
1F
100
AcDbEntity
  8
DET-IMAGE
 62
     0
100
AcDbLine
 10
3.67668036292875
 20
4.002855354570118
 30
0.0
 11
3.639862928041098
 21
3.942799901006802
 31
0.0
  0
LINE
  5
A48
330
1F
100
AcDbEntity
  8
0
  6
Continuous
100
AcDbLine
 10
3.372242709348366
 20
3.915387839855253
 30
0.0
 11
3.296605325326378
 21
3.981562856967337
 31
0.0
  0
ARC
  5
A49
330
1F
100
AcDbEntity
  8
0
  6
Continuous
100
AcDbCircle
 10
3.230759200602456
 20
3.906301393662125
 30
0.0
 40
0.1
100
AcDbArc
 50
48.81737591769367
 51
90.0
  0
LINE
  5
A4A
330
1F
100
AcDbEntity
  8
DET-IMAGE
 62
     0
100
AcDbLine
 10
3.514096466472824
 20
3.964475112300258
 30
0.0
 11
3.49543558244652
 21
3.983136371829113
 31
0.0
  0
LINE
  5
A4B
330
1F
100
AcDbEntity
  8
DET-IMAGE
 62
     0
100
AcDbLine
 10
3.49543558244652
 20
3.983136371829113
 30
0.0
 11
3.514096466472824
 21
3.954577845100745
 31
0.0
  0
LINE
  5
A4C
330
1F
100
AcDbEntity
  8
DET-IMAGE
 62
     0
100
AcDbLine
 10
3.509714558482843
 20
4.000664356487784
 30
0.0
 11
3.465819928445244
 21
4.089664209625363
 31
0.0
  0
LINE
  5
A4D
330
1F
100
AcDbEntity
  8
DET-IMAGE
 62
     0
100
AcDbLine
 10
3.475716996491586
 20
4.089664209625363
 30
0.0
 11
3.514096466472824
 21
4.009428348817119
 31
0.0
  0
LINE
  5
A4E
330
1F
100
AcDbEntity
  8
0
  6
Continuous
100
AcDbLine
 10
3.372242709348366
 20
3.915387839855253
 30
0.0
 11
3.472242709348366
 21
3.915387839855253
 31
0.0
  0
LINE
  5
A4F
330
1F
100
AcDbEntity
  8
DET-IMAGE
 62
     0
100
AcDbLine
 10
3.465819928445244
 20
4.089664209625363
 30
0.0
 11
3.455922860398915
 21
4.144514713341737
 31
0.0
  0
LINE
  5
A50
330
1F
100
AcDbEntity
  8
DET-IMAGE
 62
     0
100
AcDbLine
 10
3.455922860398915
 20
4.144514713341737
 30
0.0
 11
3.475716996491586
 21
4.089664209625363
 31
0.0
  0
LINE
  5
A51
330
1F
100
AcDbEntity
  8
DET-IMAGE
 62
     0
100
AcDbLine
 10
3.622813114707073
 20
4.021516614098966
 30
0.0
 11
3.618431206717077
 21
4.125853453812882
 31
0.0
  0
LINE
  5
A52
330
1F
100
AcDbEntity
  8
DET-IMAGE
 62
     0
100
AcDbLine
 10
3.628328274763421
 20
4.122604732518385
 30
0.0
 11
3.632710182753416
 21
4.021516614098966
 31
0.0
  0
LINE
  5
A53
330
1F
100
AcDbEntity
  8
DET-IMAGE
 62
     0
100
AcDbLine
 10
3.549302830668212
 20
4.045693144662652
 30
0.0
 11
3.549302830668212
 21
4.125853453812882
 31
0.0
  0
LINE
  5
A54
330
1F
100
AcDbEntity
  8
DET-IMAGE
 62
     0
100
AcDbLine
 10
3.559124348576789
 20
4.049017417615156
 30
0.0
 11
3.613269597521482
 21
3.929688544278664
 31
0.0
  0
LINE
  5
A55
330
1F
100
AcDbEntity
  8
DET-IMAGE
 62
     0
100
AcDbLine
 10
3.586418984527627
 20
3.929688544278664
 30
0.0
 11
3.53940576262187
 21
3.945738301113396
 31
0.0
  0
LINE
  5
A56
330
1F
100
AcDbEntity
  8
DET-IMAGE
 62
     0
100
AcDbLine
 10
3.586418984527627
 20
3.929688544278664
 30
0.0
 11
3.509714558482843
 21
4.000664356487784
 31
0.0
  0
LINE
  5
A57
330
1F
100
AcDbEntity
  8
DET-IMAGE
 62
     0
100
AcDbLine
 10
3.514096466472824
 20
4.009428348817119
 30
0.0
 11
3.599941981286976
 21
3.929688544278664
 31
0.0
  0
LINE
  5
A58
330
1F
100
AcDbEntity
  8
DET-IMAGE
 62
     0
100
AcDbLine
 10
3.599941981286976
 20
3.929688544278664
 30
0.0
 11
3.549302830668212
 21
4.045693144662652
 31
0.0
  0
LINE
  5
A59
330
1F
100
AcDbEntity
  8
DET-IMAGE
 62
     0
100
AcDbLine
 10
3.557370243421191
 20
3.929688544278664
 30
0.0
 11
3.578706451293747
 21
3.924893794344023
 31
0.0
  0
LINE
  5
A5A
330
1F
100
AcDbEntity
  8
DET-IMAGE
 62
     0
100
AcDbLine
 10
3.53940576262187
 20
3.945738301113396
 30
0.0
 11
3.514096466472824
 21
3.964475112300258
 31
0.0
  0
LINE
  5
A5B
330
1F
100
AcDbEntity
  8
DET-IMAGE
 62
     0
100
AcDbLine
 10
3.514096466472824
 20
3.954577845100745
 30
0.0
 11
3.53940576262187
 21
3.933725587489571
 31
0.0
  0
LINE
  5
A5C
330
1F
100
AcDbEntity
  8
DET-IMAGE
 62
     0
100
AcDbLine
 10
3.53940576262187
 20
3.933725587489571
 30
0.0
 11
3.557370243421191
 21
3.929688544278664
 31
0.0
  0
LINE
  5
A5D
330
1F
100
AcDbEntity
  8
DET-IMAGE
 62
     0
100
AcDbLine
 10
3.613269597521482
 20
3.929688544278664
 30
0.0
 11
3.622813114707073
 21
4.021516614098966
 31
0.0
  0
LINE
  5
A5E
330
1F
100
AcDbEntity
  8
DET-IMAGE
 62
     0
100
AcDbLine
 10
3.632710182753416
 20
4.021516614098966
 30
0.0
 11
3.624178810349948
 21
3.929688544278664
 31
0.0
  0
LINE
  5
A5F
330
1F
100
AcDbEntity
  8
DET-IMAGE
 62
     0
100
AcDbLine
 10
3.549302830668212
 20
4.125853453812882
 30
0.0
 11
3.559124348576789
 21
4.049017417615156
 31
0.0
  0
LINE
  5
A60
330
1F
100
AcDbEntity
  8
DET-IMAGE
 62
     0
100
AcDbLine
 10
3.618431206717077
 20
4.125853453812882
 30
0.0
 11
3.612991596798481
 21
4.172015516857927
 31
0.0
  0
LINE
  5
A61
330
1F
100
AcDbEntity
  8
DET-IMAGE
 62
     0
100
AcDbLine
 10
3.612991596798481
 20
4.172015516857927
 30
0.0
 11
3.628328274763421
 21
4.122604732518385
 31
0.0
  0
LINE
  5
A62
330
1F
100
AcDbEntity
  8
DET-IMAGE
 62
     0
100
AcDbLine
 10
4.008184094856966
 20
3.943107232987517
 30
0.0
 11
3.982874798707934
 21
3.961844044174379
 31
0.0
  0
LINE
  5
A63
330
1F
100
AcDbEntity
  8
DET-IMAGE
 62
     0
100
AcDbLine
 10
3.982874798707934
 20
3.951946776974866
 30
0.0
 11
4.008184094856966
 21
3.931094519363691
 31
0.0
  0
LINE
  5
A64
330
1F
100
AcDbEntity
  8
DET-IMAGE
 62
     0
100
AcDbLine
 10
4.055197316762738
 20
3.927057476152784
 30
0.0
 11
3.978492890717939
 21
3.998033288361905
 31
0.0
  0
LINE
  5
A65
330
1F
100
AcDbEntity
  8
DET-IMAGE
 62
     0
100
AcDbLine
 10
3.982874798707934
 20
4.00679728069124
 30
0.0
 11
4.068720313522074
 21
3.927057476152784
 31
0.0
  0
LINE
  5
A66
330
1F
100
AcDbEntity
  8
DET-IMAGE
 62
     0
100
AcDbLine
 10
3.831935049831566
 20
4.053088378355776
 30
0.0
 11
3.799623530490716
 21
4.106359792982213
 31
0.0
  0
LINE
  5
A67
330
1F
100
AcDbEntity
  8
DET-IMAGE
 62
     0
100
AcDbLine
 10
3.83568640618517
 20
3.932319587533401
 30
0.0
 11
3.794165503575025
 21
3.978639393160643
 31
0.0
  0
LINE
  5
A68
330
1F
100
AcDbEntity
  8
DET-IMAGE
 62
     0
100
AcDbLine
 10
3.819272427387185
 20
4.048721868960167
 30
0.0
 11
3.831935049831566
 21
3.98977399211944
 31
0.0
  0
LINE
  5
A69
330
1F
100
AcDbEntity
  8
DET-IMAGE
 62
     0
100
AcDbLine
 10
3.787179229122936
 20
4.033439086075541
 30
0.0
 11
3.794165503575025
 21
4.057236562281611
 31
0.0
  0
LINE
  5
A6A
330
1F
100
AcDbEntity
  8
DET-IMAGE
 62
     0
100
AcDbLine
 10
3.794165503575025
 20
4.057236562281611
 30
0.0
 11
3.781502881130629
 21
4.037587270001362
 31
0.0
  0
LINE
  5
A6B
330
1F
100
AcDbEntity
  8
DET-IMAGE
 62
     0
100
AcDbLine
 10
3.666783294882409
 20
4.01275262176963
 30
0.0
 11
3.672298454938771
 21
4.064354404191507
 31
0.0
  0
LINE
  5
A6C
330
1F
100
AcDbEntity
  8
DET-IMAGE
 62
     0
100
AcDbLine
 10
3.682119972847362
 20
4.055590411862164
 30
0.0
 11
3.67668036292875
 21
4.002855354570118
 31
0.0
  0
LINE
  5
A6D
330
1F
100
AcDbEntity
  8
DET-IMAGE
 62
     0
100
AcDbLine
 10
3.740369129059036
 20
3.976487825924091
 30
0.0
 11
3.754648105095358
 21
4.028165160003981
 31
0.0
  0
LINE
  5
A6E
330
1F
100
AcDbEntity
  8
DET-IMAGE
 62
     0
100
AcDbLine
 10
3.754648105095358
 20
4.028165160003981
 30
0.0
 11
3.730472061012692
 21
3.976487825924091
 31
0.0
  0
LINE
  5
A6F
330
1F
100
AcDbEntity
  8
DET-IMAGE
 62
     0
100
AcDbLine
 10
3.672298454938771
 20
3.969914831677089
 30
0.0
 11
3.696398948883686
 21
4.01275262176963
 31
0.0
  0
LINE
  5
A70
330
1F
100
AcDbEntity
  8
DET-IMAGE
 62
     0
100
AcDbLine
 10
3.701914108940046
 20
4.002855354570118
 30
0.0
 11
3.682119972847362
 21
3.964475112300258
 31
0.0
  0
LINE
  5
A71
330
1F
100
AcDbEntity
  8
DET-IMAGE
 62
     0
100
AcDbLine
 10
3.711811176986389
 20
3.939165306866402
 30
0.0
 11
3.740369129059036
 21
3.976487825924091
 31
0.0
  0
LINE
  5
A72
330
1F
100
AcDbEntity
  8
DET-IMAGE
 62
     0
100
AcDbLine
 10
3.730472061012692
 20
3.976487825924091
 30
0.0
 11
3.706296016930027
 21
3.949062574065907
 31
0.0
  0
LINE
  5
A73
330
1F
100
AcDbEntity
  8
DET-IMAGE
 62
     0
100
AcDbLine
 10
3.696398948883686
 20
4.01275262176963
 30
0.0
 11
3.701914108940046
 21
4.045693144662652
 31
0.0
  0
LINE
  5
A74
330
1F
100
AcDbEntity
  8
DET-IMAGE
 62
     0
100
AcDbLine
 10
3.701914108940046
 20
4.045693144662652
 30
0.0
 11
3.701914108940046
 21
4.002855354570118
 31
0.0
  0
LINE
  5
A75
330
1F
100
AcDbEntity
  8
DET-IMAGE
 62
     0
100
AcDbLine
 10
3.781502881130629
 20
3.982787577086471
 30
0.0
 11
3.821841535116556
 21
3.932319587533401
 31
0.0
  0
LINE
  5
A76
330
1F
100
AcDbEntity
  8
DET-IMAGE
 62
     0
100
AcDbLine
 10
3.794165503575025
 20
3.978639393160643
 30
0.0
 11
3.787179229122936
 21
4.033439086075541
 31
0.0
  0
LINE
  5
A77
330
1F
100
AcDbEntity
  8
DET-IMAGE
 62
     0
100
AcDbLine
 10
3.781502881130629
 20
4.037587270001362
 30
0.0
 11
3.781502881130629
 21
3.982787577086471
 31
0.0
  0
LINE
  5
A78
330
1F
100
AcDbEntity
  8
DET-IMAGE
 62
     0
100
AcDbLine
 10
3.672298454938771
 20
4.064354404191507
 30
0.0
 11
3.672298454938771
 21
4.13242644805989
 31
0.0
  0
LINE
  5
A79
330
1F
100
AcDbEntity
  8
DET-IMAGE
 62
     0
100
AcDbLine
 10
3.672298454938771
 20
4.13242644805989
 30
0.0
 11
3.682119972847362
 21
4.055590411862164
 31
0.0
  0
LINE
  5
A7A
330
1F
100
AcDbEntity
  8
DET-IMAGE
 62
     0
100
AcDbLine
 10
3.799623530490716
 20
4.106359792982213
 30
0.0
 11
3.787179229122936
 21
4.149806561468532
 31
0.0
  0
LINE
  5
A7B
330
1F
100
AcDbEntity
  8
DET-IMAGE
 62
     0
100
AcDbLine
 10
3.787179229122936
 20
4.149806561468532
 30
0.0
 11
3.794165503575025
 21
4.103521561875072
 31
0.0
  0
LINE
  5
A7C
330
1F
100
AcDbEntity
  8
DET-IMAGE
 62
     0
100
AcDbLine
 10
3.794165503575025
 20
4.103521561875072
 30
0.0
 11
3.819272427387185
 21
4.048721868960167
 31
0.0
  0
LINE
  5
A7D
330
1F
100
AcDbEntity
  8
DET-IMAGE
 62
     0
100
AcDbLine
 10
3.886946751463734
 20
4.039333873759611
 30
0.0
 11
3.886946751463734
 21
4.105049840163533
 31
0.0
  0
LINE
  5
A7E
330
1F
100
AcDbEntity
  8
DET-IMAGE
 62
     0
100
AcDbLine
 10
3.843287745816192
 20
3.998288685440878
 30
0.0
 11
3.831935049831566
 21
4.053088378355776
 31
0.0
  0
LINE
  5
A7F
330
1F
100
AcDbEntity
  8
DET-IMAGE
 62
     0
100
AcDbLine
 10
3.978492890717939
 20
3.998033288361905
 30
0.0
 11
3.934598260680356
 21
4.087033141499484
 31
0.0
  0
LINE
  5
A80
330
1F
100
AcDbEntity
  8
DET-IMAGE
 62
     0
100
AcDbLine
 10
3.944495328726697
 20
4.087033141499484
 30
0.0
 11
3.982874798707934
 21
4.00679728069124
 31
0.0
  0
LINE
  5
A81
330
1F
100
AcDbEntity
  8
DET-IMAGE
 62
     0
100
AcDbLine
 10
3.886946751463734
 20
4.105049840163533
 30
0.0
 11
3.895679594528824
 21
4.015099746613979
 31
0.0
  0
LINE
  5
A82
330
1F
100
AcDbEntity
  8
DET-IMAGE
 62
     0
100
AcDbLine
 10
3.92646286633329
 20
3.997415383561753
 30
0.0
 11
3.92646286633329
 21
4.056799911342049
 31
0.0
  0
LINE
  5
A83
330
1F
100
AcDbEntity
  8
DET-IMAGE
 62
     0
100
AcDbLine
 10
3.92646286633329
 20
4.056799911342049
 30
0.0
 11
3.935195709398394
 21
3.979949345979317
 31
0.0
  0
LINE
  5
A84
330
1F
100
AcDbEntity
  8
DET-IMAGE
 62
     0
100
AcDbLine
 10
3.86911415605203
 20
3.932319587533401
 30
0.0
 11
3.92646286633329
 21
3.997415383561753
 31
0.0
  0
LINE
  5
A85
330
1F
100
AcDbEntity
  8
DET-IMAGE
 62
     0
100
AcDbLine
 10
3.935195709398394
 20
3.979949345979317
 30
0.0
 11
3.883725877099062
 21
3.932319587533401
 31
0.0
  0
LINE
  5
A86
330
1F
100
AcDbEntity
  8
DET-IMAGE
 62
     0
100
AcDbLine
 10
3.895679594528824
 20
4.015099746613979
 30
0.0
 11
3.86911415605203
 21
3.932319587533401
 31
0.0
  0
LINE
  5
A87
330
1F
100
AcDbEntity
  8
DET-IMAGE
 62
     0
100
AcDbLine
 10
3.831935049831566
 20
3.98977399211944
 30
0.0
 11
3.841242118122204
 21
3.932319587533401
 31
0.0
  0
LINE
  5
A88
330
1F
100
AcDbEntity
  8
DET-IMAGE
 62
     0
100
AcDbLine
 10
3.854314616540742
 20
3.932319587533401
 30
0.0
 11
3.843287745816192
 21
3.998288685440878
 31
0.0
  0
LINE
  5
A89
330
1F
100
AcDbEntity
  8
DET-IMAGE
 62
     0
100
AcDbLine
 10
3.855548331967579
 20
3.932319587533401
 30
0.0
 11
3.886946751463734
 21
4.039333873759611
 31
0.0
  0
LINE
  5
A8A
330
1F
100
AcDbEntity
  8
DET-IMAGE
 62
     0
100
AcDbLine
 10
3.982874798707934
 20
3.961844044174379
 30
0.0
 11
3.964213914681631
 21
3.980505303703234
 31
0.0
  0
LINE
  5
A8B
330
1F
100
AcDbEntity
  8
DET-IMAGE
 62
     0
100
AcDbLine
 10
3.964213914681631
 20
3.980505303703234
 30
0.0
 11
3.982874798707934
 21
3.951946776974866
 31
0.0
  0
LINE
  5
A8C
330
1F
100
AcDbEntity
  8
DET-IMAGE
 62
     0
100
AcDbLine
 10
3.934598260680356
 20
4.087033141499484
 30
0.0
 11
3.924701192634013
 21
4.141883645215859
 31
0.0
  0
LINE
  5
A8D
330
1F
100
AcDbEntity
  8
DET-IMAGE
 62
     0
100
AcDbLine
 10
3.924701192634013
 20
4.141883645215859
 30
0.0
 11
3.944495328726697
 21
4.087033141499484
 31
0.0
  0
LINE
  5
A8E
330
1F
100
AcDbEntity
  8
DET-IMAGE
 62
     0
100
AcDbLine
 10
4.10920837162393
 20
3.927057476152784
 30
0.0
 11
4.180589509221487
 21
3.936534238740522
 31
0.0
  0
LINE
  5
A8F
330
1F
100
AcDbEntity
  8
DET-IMAGE
 62
     0
100
AcDbLine
 10
4.141076787173881
 20
3.96728376355121
 30
0.0
 11
4.165177281118781
 21
4.010121553643751
 31
0.0
  0
LINE
  5
A90
330
1F
100
AcDbEntity
  8
DET-IMAGE
 62
     0
100
AcDbLine
 10
4.170692441175143
 20
4.000224286444238
 30
0.0
 11
4.150898305082459
 21
3.961844044174379
 31
0.0
  0
LINE
  5
A91
330
1F
100
AcDbEntity
  8
DET-IMAGE
 62
     0
100
AcDbLine
 10
4.175074349165124
 20
3.946431505940028
 30
0.0
 11
4.092957142585044
 21
3.927057476152784
 31
0.0
  0
LINE
  5
A92
330
1F
100
AcDbEntity
  8
DET-IMAGE
 62
     0
100
AcDbLine
 10
4.097106606998531
 20
4.119973664392505
 30
0.0
 11
4.101488514988512
 21
4.018885545973086
 31
0.0
  0
LINE
  5
A93
330
1F
100
AcDbEntity
  8
DET-IMAGE
 62
     0
100
AcDbLine
 10
4.135561627117521
 20
4.010121553643751
 30
0.0
 11
4.141076787173881
 21
4.061723336065628
 31
0.0
  0
LINE
  5
A94
330
1F
100
AcDbEntity
  8
DET-IMAGE
 62
     0
100
AcDbLine
 10
4.150898305082459
 20
4.052959343736285
 30
0.0
 11
4.145458695163862
 21
4.000224286444238
 31
0.0
  0
LINE
  5
A95
330
1F
100
AcDbEntity
  8
DET-IMAGE
 62
     0
100
AcDbLine
 10
4.09159144694217
 20
4.018885545973086
 30
0.0
 11
4.087209538952189
 21
4.123222385687003
 31
0.0
  0
LINE
  5
A96
330
1F
100
AcDbEntity
  8
DET-IMAGE
 62
     0
100
AcDbLine
 10
4.018081162903309
 20
4.043062076536772
 30
0.0
 11
4.018081162903309
 21
4.123222385687003
 31
0.0
  0
LINE
  5
A97
330
1F
100
AcDbEntity
  8
DET-IMAGE
 62
     0
100
AcDbLine
 10
4.018081162903309
 20
4.123222385687003
 30
0.0
 11
4.0279026808119
 21
4.046386349489277
 31
0.0
  0
LINE
  5
A98
330
1F
100
AcDbEntity
  8
DET-IMAGE
 62
     0
100
AcDbLine
 10
4.0279026808119
 20
4.046386349489277
 30
0.0
 11
4.082047929756594
 21
3.927057476152784
 31
0.0
  0
LINE
  5
A99
330
1F
100
AcDbEntity
  8
DET-IMAGE
 62
     0
100
AcDbLine
 10
4.055197316762738
 20
3.927057476152784
 30
0.0
 11
4.008184094856966
 21
3.943107232987517
 31
0.0
  0
LINE
  5
A9A
330
1F
100
AcDbEntity
  8
DET-IMAGE
 62
     0
100
AcDbLine
 10
4.008184094856966
 20
3.931094519363691
 30
0.0
 11
4.026148575656288
 21
3.927057476152784
 31
0.0
  0
LINE
  5
A9B
330
1F
100
AcDbEntity
  8
DET-IMAGE
 62
     0
100
AcDbLine
 10
4.068720313522074
 20
3.927057476152784
 30
0.0
 11
4.018081162903309
 21
4.043062076536772
 31
0.0
  0
LINE
  5
A9C
330
1F
100
AcDbEntity
  8
DET-IMAGE
 62
     0
100
AcDbLine
 10
4.150898305082459
 20
3.961844044174379
 30
0.0
 11
4.115614891406802
 21
3.932403151180788
 31
0.0
  0
LINE
  5
A9D
330
1F
100
AcDbEntity
  8
DET-IMAGE
 62
     0
100
AcDbLine
 10
4.145458695163862
 20
4.000224286444238
 30
0.0
 11
4.10864126027621
 21
3.940168832880923
 31
0.0
  0
LINE
  5
A9E
330
1F
100
AcDbEntity
  8
DET-IMAGE
 62
     0
100
AcDbLine
 10
4.082047929756594
 20
3.927057476152784
 30
0.0
 11
4.09159144694217
 21
4.018885545973086
 31
0.0
  0
LINE
  5
A9F
330
1F
100
AcDbEntity
  8
DET-IMAGE
 62
     0
100
AcDbLine
 10
4.092957142585044
 20
3.927057476152784
 30
0.0
 11
4.141076787173881
 21
3.96728376355121
 31
0.0
  0
LINE
  5
AA0
330
1F
100
AcDbEntity
  8
DET-IMAGE
 62
     0
100
AcDbLine
 10
4.092957142585044
 20
3.927057476152784
 30
0.0
 11
4.135561627117521
 21
4.010121553643751
 31
0.0
  0
LINE
  5
AA1
330
1F
100
AcDbEntity
  8
DET-IMAGE
 62
     0
100
AcDbLine
 10
4.101488514988512
 20
4.018885545973086
 30
0.0
 11
4.092957142585044
 21
3.927057476152784
 31
0.0
  0
LINE
  5
AA2
330
1F
100
AcDbEntity
  8
DET-IMAGE
 62
     0
100
AcDbLine
 10
4.141076787173881
 20
4.061723336065628
 30
0.0
 11
4.141076787173881
 21
4.129795379934011
 31
0.0
  0
LINE
  5
AA3
330
1F
100
AcDbEntity
  8
DET-IMAGE
 62
     0
100
AcDbLine
 10
4.141076787173881
 20
4.129795379934011
 30
0.0
 11
4.150898305082459
 21
4.052959343736285
 31
0.0
  0
LINE
  5
AA4
330
1F
100
AcDbEntity
  8
DET-IMAGE
 62
     0
100
AcDbLine
 10
4.087209538952189
 20
4.123222385687003
 30
0.0
 11
4.081769929033593
 21
4.169384448732048
 31
0.0
  0
LINE
  5
AA5
330
1F
100
AcDbEntity
  8
DET-IMAGE
 62
     0
100
AcDbLine
 10
4.081769929033593
 20
4.169384448732048
 30
0.0
 11
4.097106606998531
 21
4.119973664392505
 31
0.0
  0
LINE
  5
AA6
330
1F
100
AcDbEntity
  8
DET-IMAGE
 62
     0
100
AcDbLine
 10
4.322089326653719
 20
4.047908345025165
 30
0.0
 11
4.322089326653719
 21
4.095898338462662
 31
0.0
  0
LINE
  5
AA7
330
1F
100
AcDbEntity
  8
DET-IMAGE
 62
     0
100
AcDbLine
 10
4.274099333216236
 20
3.999918351587683
 30
0.0
 11
4.262101834856859
 21
4.059905843384543
 31
0.0
  0
LINE
  5
AA8
330
1F
100
AcDbEntity
  8
DET-IMAGE
 62
     0
100
AcDbLine
 10
4.262101834856859
 20
4.059905843384543
 30
0.0
 11
4.286096831575614
 21
3.999918351587683
 31
0.0
  0
LINE
  5
AA9
330
1F
100
AcDbEntity
  8
DET-IMAGE
 62
     0
100
AcDbLine
 10
4.180589509221487
 20
3.936534238740522
 30
0.0
 11
4.209147461294132
 21
3.973856757798211
 31
0.0
  0
LINE
  5
AAA
330
1F
100
AcDbEntity
  8
DET-IMAGE
 62
     0
100
AcDbLine
 10
4.19925039324779
 20
3.973856757798211
 30
0.0
 11
4.175074349165124
 21
3.946431505940028
 31
0.0
  0
LINE
  5
AAB
330
1F
100
AcDbEntity
  8
DET-IMAGE
 62
     0
100
AcDbLine
 10
4.209147461294132
 20
3.973856757798211
 30
0.0
 11
4.223426437330469
 21
4.025534091878102
 31
0.0
  0
LINE
  5
AAC
330
1F
100
AcDbEntity
  8
DET-IMAGE
 62
     0
100
AcDbLine
 10
4.223426437330469
 20
4.025534091878102
 30
0.0
 11
4.19925039324779
 21
3.973856757798211
 31
0.0
  0
LINE
  5
AAD
330
1F
100
AcDbEntity
  8
DET-IMAGE
 62
     0
100
AcDbLine
 10
4.165177281118781
 20
4.010121553643751
 30
0.0
 11
4.170692441175143
 21
4.043062076536772
 31
0.0
  0
LINE
  5
AAE
330
1F
100
AcDbEntity
  8
DET-IMAGE
 62
     0
100
AcDbLine
 10
4.170692441175143
 20
4.043062076536772
 30
0.0
 11
4.170692441175143
 21
4.000224286444238
 31
0.0
  0
LINE
  5
AAF
330
1F
100
AcDbEntity
  8
DET-IMAGE
 62
     0
100
AcDbLine
 10
4.301919589400763
 20
3.927057476152784
 30
0.0
 11
4.286761955660632
 21
3.939930859790822
 31
0.0
  0
LINE
  5
AB0
330
1F
100
AcDbEntity
  8
DET-IMAGE
 62
     0
100
AcDbLine
 10
4.286761955660632
 20
3.939930859790822
 30
0.0
 11
4.274764457301253
 21
3.963925856509563
 31
0.0
  0
LINE
  5
AB1
330
1F
100
AcDbEntity
  8
DET-IMAGE
 62
     0
100
AcDbLine
 10
4.274764457301253
 20
3.963925856509563
 30
0.0
 11
4.274764457301253
 21
3.939930859790822
 31
0.0
  0
LINE
  5
AB2
330
1F
100
AcDbEntity
  8
DET-IMAGE
 62
     0
100
AcDbLine
 10
4.274764457301253
 20
3.939930859790822
 30
0.0
 11
4.287637840939277
 21
3.927057476152784
 31
0.0
  0
LINE
  5
AB3
330
1F
100
AcDbEntity
  8
DET-IMAGE
 62
     0
100
AcDbLine
 10
4.304749993073665
 20
3.927057476152784
 30
0.0
 11
4.286096831575614
 21
3.951928358150186
 31
0.0
  0
LINE
  5
AB4
330
1F
100
AcDbEntity
  8
DET-IMAGE
 62
     0
100
AcDbLine
 10
4.286096831575614
 20
3.951928358150186
 30
0.0
 11
4.274099333216236
 21
3.999918351587683
 31
0.0
  0
LINE
  5
AB5
330
1F
100
AcDbEntity
  8
DET-IMAGE
 62
     0
100
AcDbLine
 10
4.286096831575614
 20
3.999918351587683
 30
0.0
 11
4.298094329934978
 21
3.951928358150186
 31
0.0
  0
LINE
  5
AB6
330
1F
100
AcDbEntity
  8
DET-IMAGE
 62
     0
100
AcDbLine
 10
4.298094329934978
 20
3.951928358150186
 30
0.0
 11
4.322965211932379
 21
3.927057476152784
 31
0.0
  0
LINE
  5
AB7
330
1F
100
AcDbEntity
  8
DET-IMAGE
 62
     0
100
AcDbLine
 10
4.496651951429721
 20
4.053088378355776
 30
0.0
 11
4.46434043208887
 21
4.106359792982213
 31
0.0
  0
LINE
  5
AB8
330
1F
100
AcDbEntity
  8
DET-IMAGE
 62
     0
100
AcDbLine
 10
4.500403307783325
 20
3.932319587533401
 30
0.0
 11
4.458882405173179
 21
3.978639393160643
 31
0.0
  0
LINE
  5
AB9
330
1F
100
AcDbEntity
  8
DET-IMAGE
 62
     0
100
AcDbLine
 10
4.48398932898534
 20
4.048721868960167
 30
0.0
 11
4.496651951429721
 21
3.98977399211944
 31
0.0
  0
LINE
  5
ABA
330
1F
100
AcDbEntity
  8
DET-IMAGE
 62
     0
100
AcDbLine
 10
4.45189613072109
 20
4.033439086075541
 30
0.0
 11
4.458882405173179
 21
4.057236562281611
 31
0.0
  0
LINE
  5
ABB
330
1F
100
AcDbEntity
  8
DET-IMAGE
 62
     0
100
AcDbLine
 10
4.458882405173179
 20
4.057236562281611
 30
0.0
 11
4.446219782728784
 21
4.037587270001362
 31
0.0
  0
LINE
  5
ABC
330
1F
100
AcDbEntity
  8
DET-IMAGE
 62
     0
100
AcDbLine
 10
4.406071815169335
 20
4.011915849947046
 30
0.0
 11
4.406071815169335
 21
4.071903341743914
 31
0.0
  0
LINE
  5
ABD
330
1F
100
AcDbEntity
  8
DET-IMAGE
 62
     0
100
AcDbLine
 10
4.406071815169335
 20
4.071903341743914
 30
0.0
 11
4.418069313528699
 21
4.011915849947046
 31
0.0
  0
LINE
  5
ABE
330
1F
100
AcDbEntity
  8
DET-IMAGE
 62
     0
100
AcDbLine
 10
4.418069313528699
 20
4.011915849947046
 30
0.0
 11
4.394074316809958
 21
3.963925856509563
 31
0.0
  0
LINE
  5
ABF
330
1F
100
AcDbEntity
  8
DET-IMAGE
 62
     0
100
AcDbLine
 10
4.370079320091216
 20
3.927933361431444
 30
0.0
 11
4.418069313528699
 21
3.951928358150186
 31
0.0
  0
LINE
  5
AC0
330
1F
100
AcDbEntity
  8
DET-IMAGE
 62
     0
100
AcDbLine
 10
4.418069313528699
 20
3.939930859790822
 30
0.0
 11
4.392322546252638
 21
3.927057476152784
 31
0.0
  0
LINE
  5
AC1
330
1F
100
AcDbEntity
  8
DET-IMAGE
 62
     0
100
AcDbLine
 10
4.346084323372461
 20
3.927933361431444
 30
0.0
 11
4.382076818450594
 21
3.963925856509563
 31
0.0
  0
LINE
  5
AC2
330
1F
100
AcDbEntity
  8
DET-IMAGE
 62
     0
100
AcDbLine
 10
4.382076818450594
 20
3.963925856509563
 30
0.0
 11
4.406071815169335
 21
4.011915849947046
 31
0.0
  0
LINE
  5
AC3
330
1F
100
AcDbEntity
  8
DET-IMAGE
 62
     0
100
AcDbLine
 10
4.394074316809958
 20
3.963925856509563
 30
0.0
 11
4.366423031542377
 21
3.927057476152784
 31
0.0
  0
LINE
  5
AC4
330
1F
100
AcDbEntity
  8
DET-IMAGE
 62
     0
100
AcDbLine
 10
4.346084323372461
 20
3.987920853228312
 30
0.0
 11
4.346084323372461
 21
3.927933361431444
 31
0.0
  0
LINE
  5
AC5
330
1F
100
AcDbEntity
  8
DET-IMAGE
 62
     0
100
AcDbLine
 10
4.334086825013096
 20
4.047908345025165
 30
0.0
 11
4.346084323372461
 21
3.987920853228312
 31
0.0
  0
LINE
  5
AC6
330
1F
100
AcDbEntity
  8
DET-IMAGE
 62
     0
100
AcDbLine
 10
4.418069313528699
 20
3.951928358150186
 30
0.0
 11
4.430066811888077
 21
3.963925856509563
 31
0.0
  0
LINE
  5
AC7
330
1F
100
AcDbEntity
  8
DET-IMAGE
 62
     0
100
AcDbLine
 10
4.430066811888077
 20
3.963925856509563
 30
0.0
 11
4.418069313528699
 21
3.939930859790822
 31
0.0
  0
LINE
  5
AC8
330
1F
100
AcDbEntity
  8
DET-IMAGE
 62
     0
100
AcDbLine
 10
4.446219782728784
 20
3.982787577086471
 30
0.0
 11
4.486558436714711
 21
3.932319587533401
 31
0.0
  0
LINE
  5
AC9
330
1F
100
AcDbEntity
  8
DET-IMAGE
 62
     0
100
AcDbLine
 10
4.458882405173179
 20
3.978639393160643
 30
0.0
 11
4.45189613072109
 21
4.033439086075541
 31
0.0
  0
LINE
  5
ACA
330
1F
100
AcDbEntity
  8
DET-IMAGE
 62
     0
100
AcDbLine
 10
4.446219782728784
 20
4.037587270001362
 30
0.0
 11
4.446219782728784
 21
3.982787577086471
 31
0.0
  0
LINE
  5
ACB
330
1F
100
AcDbEntity
  8
DET-IMAGE
 62
     0
100
AcDbLine
 10
4.458882405173179
 20
4.103521561875072
 30
0.0
 11
4.48398932898534
 21
4.048721868960167
 31
0.0
  0
LINE
  5
ACC
330
1F
100
AcDbEntity
  8
DET-IMAGE
 62
     0
100
AcDbLine
 10
4.46434043208887
 20
4.106359792982213
 30
0.0
 11
4.45189613072109
 21
4.149806561468532
 31
0.0
  0
LINE
  5
ACD
330
1F
100
AcDbEntity
  8
DET-IMAGE
 62
     0
100
AcDbLine
 10
4.45189613072109
 20
4.149806561468532
 30
0.0
 11
4.458882405173179
 21
4.103521561875072
 31
0.0
  0
LINE
  5
ACE
330
1F
100
AcDbEntity
  8
DET-IMAGE
 62
     0
100
AcDbLine
 10
4.551663653061889
 20
4.039333873759611
 30
0.0
 11
4.551663653061889
 21
4.105049840163533
 31
0.0
  0
LINE
  5
ACF
330
1F
100
AcDbEntity
  8
DET-IMAGE
 62
     0
100
AcDbLine
 10
4.591179767931445
 20
3.997415383561753
 30
0.0
 11
4.591179767931445
 21
4.056799911342049
 31
0.0
  0
LINE
  5
AD0
330
1F
100
AcDbEntity
  8
DET-IMAGE
 62
     0
100
AcDbLine
 10
4.591179767931445
 20
4.056799911342049
 30
0.0
 11
4.599912610996549
 21
3.979949345979317
 31
0.0
  0
LINE
  5
AD1
330
1F
100
AcDbEntity
  8
DET-IMAGE
 62
     0
100
AcDbLine
 10
4.508004647414347
 20
3.998288685440878
 30
0.0
 11
4.496651951429721
 21
4.053088378355776
 31
0.0
  0
LINE
  5
AD2
330
1F
100
AcDbEntity
  8
DET-IMAGE
 62
     0
100
AcDbLine
 10
4.551663653061889
 20
4.105049840163533
 30
0.0
 11
4.560396496126979
 21
4.015099746613979
 31
0.0
  0
LINE
  5
AD3
330
1F
100
AcDbEntity
  8
DET-IMAGE
 62
     0
100
AcDbLine
 10
4.533831057650184
 20
3.932319587533401
 30
0.0
 11
4.591179767931445
 21
3.997415383561753
 31
0.0
  0
LINE
  5
AD4
330
1F
100
AcDbEntity
  8
DET-IMAGE
 62
     0
100
AcDbLine
 10
4.599912610996549
 20
3.979949345979317
 30
0.0
 11
4.548442778697217
 21
3.932319587533401
 31
0.0
  0
LINE
  5
AD5
330
1F
100
AcDbEntity
  8
DET-IMAGE
 62
     0
100
AcDbLine
 10
4.519031518138897
 20
3.932319587533401
 30
0.0
 11
4.508004647414347
 21
3.998288685440878
 31
0.0
  0
LINE
  5
AD6
330
1F
100
AcDbEntity
  8
DET-IMAGE
 62
     0
100
AcDbLine
 10
4.496651951429721
 20
3.98977399211944
 30
0.0
 11
4.505959019720359
 21
3.932319587533401
 31
0.0
  0
LINE
  5
AD7
330
1F
100
AcDbEntity
  8
DET-IMAGE
 62
     0
100
AcDbLine
 10
4.560396496126979
 20
4.015099746613979
 30
0.0
 11
4.533831057650184
 21
3.932319587533401
 31
0.0
  0
LINE
  5
AD8
330
1F
100
AcDbEntity
  8
DET-IMAGE
 62
     0
100
AcDbLine
 10
4.520265233565732
 20
3.932319587533401
 30
0.0
 11
4.551663653061889
 21
4.039333873759611
 31
0.0
  0
LINE
  5
AD9
330
1F
100
AcDbEntity
  8
0
  6
Continuous
100
AcDbLine
 10
3.472242709348366
 20
3.915387839855253
 30
0.0
 11
3.472242709348366
 21
1.965837871082165
 31
0.0
  0
LINE
  5
ADA
330
1F
100
AcDbEntity
  8
0
  6
Continuous
100
AcDbLine
 10
3.472242709348366
 20
1.965837871082165
 30
0.0
 11
1.375751227345996
 21
1.965837871082165
 31
0.0
  0
LINE
  5
ADB
330
1F
100
AcDbEntity
  8
0
  6
Continuous
100
AcDbLine
 10
1.375751227345996
 20
1.965837871082165
 30
0.0
 11
1.375751227345996
 21
3.915387839855253
 31
0.0
  0
CIRCLE
  5
AF7
330
1F
100
AcDbEntity
  8
0
  6
Continuous
100
AcDbCircle
 10
5.103373964797538
 20
5.593603572904509
 30
0.0
 40
0.1068339234739888
  0
MTEXT
  5
AFE
330
1F
100
AcDbEntity
  8
0
  6
Continuous
100
AcDbMText
 10
5.057172716962878
 20
9.205469031250328
 30
0.0
 40
0.1
 41
3.493
 71
     1
 72
     5
  1
{\fCentury Gothic|b0|i0|c0|p34;2      HIGH SECURITY STAINLESS STEEL DISC-LOCK\P        MODEL 30-405}
 73
     1
 44
1.0
  0
MTEXT
  5
AFF
330
1F
100
AcDbEntity
  8
0
  6
Continuous
100
AcDbMText
 10
5.081104662142666
 20
9.653841275486911
 30
0.0
 40
0.1
 41
4.029
 71
     1
 72
     5
  1
{\fCentury Gothic|b0|i0|c0|p34;1      LEIT CONTROLLER MODEL X AND XRC}
 73
     1
 44
1.0
  0
CIRCLE
  5
B01
330
1F
100
AcDbEntity
  8
0
  6
Continuous
100
AcDbCircle
 10
5.101476311526765
 20
6.387080871512127
 30
0.0
 40
0.1068339234739888
  0
CIRCLE
  5
B02
330
1F
100
AcDbEntity
  8
0
  6
Continuous
100
AcDbCircle
 10
5.108439759920826
 20
7.56264381223517
 30
0.0
 40
0.1068339234739888
  0
CIRCLE
  5
B03
330
1F
100
AcDbEntity
  8
0
  6
Continuous
100
AcDbCircle
 10
5.101476311526765
 20
9.145320890901985
 30
0.0
 40
0.1068339234739888
  0
CIRCLE
  5
B04
330
1F
100
AcDbEntity
  8
0
  6
Continuous
100
AcDbCircle
 10
5.101476311526765
 20
8.565649526804336
 30
0.0
 40
0.1068339234739888
  0
CIRCLE
  5
B05
330
1F
100
AcDbEntity
  8
0
  6
Continuous
100
AcDbCircle
 10
5.101476311526765
 20
9.588245717252011
 30
0.0
 40
0.1068339234739888
  0
MTEXT
  5
B07
330
1F
100
AcDbEntity
  8
0
  6
Continuous
100
AcDbMText
 10
1.772970876520709
 20
1.119663712200209
 30
0.0
 40
0.135
 41
13.71203336809176
 71
     1
 72
     5
  1
{\fCentury Gothic|b0|i0|c0|p34;LEIT X AND XRC WITH LIGHT ACCESSIBLE STAINLESS STEEL ENCLOSURE \H1.6x;                                    }
 73
     1
 44
1.0
  0
CIRCLE
  5
B1C
330
1F
100
AcDbEntity
  8
0
  6
Continuous
100
AcDbCircle
 10
4.049545969812105
 20
9.865052302741029
 30
0.0
 40
0.1068339234739888
  0
CIRCLE
  5
B1D
330
1F
100
AcDbEntity
  8
0
  6
Continuous
100
AcDbCircle
 10
4.14434924391082
 20
9.280404980466852
 30
0.0
 40
0.1068339234739888
  0
CIRCLE
  5
B1E
330
1F
100
AcDbEntity
  8
0
  6
Continuous
100
AcDbCircle
 10
4.172588552253713
 20
8.746158289423207
 30
0.0
 40
0.1068339234739888
  0
CIRCLE
  5
B1F
330
1F
100
AcDbEntity
  8
0
  6
Continuous
100
AcDbCircle
 10
3.786061064921019
 20
6.783494462417246
 30
0.0
 40
0.1068339234739888
  0
CIRCLE
  5
B20
330
1F
100
AcDbEntity
  8
0
  6
Continuous
100
AcDbCircle
 10
5.694969645397706
 20
4.115702767414547
 30
0.0
 40
0.1068339234739888
  0
CIRCLE
  5
B21
330
1F
100
AcDbEntity
  8
0
  6
Continuous
100
AcDbCircle
 10
4.552364076030836
 20
3.019111984080955
 30
0.0
 40
0.1068339234739888
  0
LEADER
  5
B22
330
1F
100
AcDbEntity
  8
0
  6
Continuous
100
AcDbLeader
  3
Standard
 76
     2
 10
3.271238347869662
 20
2.818779845028098
 30
0.0
 10
4.446528223727807
 20
2.998576123303539
 30
0.0
1001
ACAD
1000
DSTYLE
1002
{
1070
    77
1070
     0
1070
    41
1040
0.125
1070
    42
1040
0.05
1070
    46
1040
0.125
1070
   140
1040
0.1
1070
   144
1040
6.0
1070
   147
1040
0.05
1070
   289
1070
     3
1002
}
  0
LEADER
  5
B23
330
1F
100
AcDbEntity
  8
0
  6
Continuous
100
AcDbLeader
  3
Standard
 76
     2
 10
2.820599859441165
 20
6.525674374077045
 30
0.0
 10
3.681051391596832
 20
6.758296509361828
 30
0.0
1001
ACAD
1000
DSTYLE
1002
{
1070
    77
1070
     0
1070
    41
1040
0.125
1070
    42
1040
0.05
1070
    46
1040
0.125
1070
   140
1040
0.1
1070
   144
1040
6.0
1070
   147
1040
0.05
1070
   289
1070
     3
1002
}
  0
LEADER
  5
B24
330
1F
100
AcDbEntity
  8
0
  6
Continuous
100
AcDbLeader
  3
Standard
 76
     2
 10
4.666901621987713
 20
3.939320478489346
 30
0.0
 10
5.590343658212882
 20
4.095143926546815
 30
0.0
1001
ACAD
1000
DSTYLE
1002
{
1070
    77
1070
     0
1070
    41
1040
0.125
1070
    42
1040
0.05
1070
    46
1040
0.125
1070
   140
1040
0.1
1070
   144
1040
6.0
1070
   147
1040
0.05
1070
   289
1070
     3
1002
}
  0
LEADER
  5
B25
330
1F
100
AcDbEntity
  8
0
  6
Continuous
100
AcDbLeader
  3
Standard
 76
     2
 10
3.321354439977898
 20
8.471241349551914
 30
0.0
 10
4.068959860513511
 20
8.717961821886403
 30
0.0
1001
ACAD
1000
DSTYLE
1002
{
1070
    77
1070
     0
1070
    41
1040
0.125
1070
    42
1040
0.05
1070
    46
1040
0.125
1070
   140
1040
0.1
1070
   144
1040
6.0
1070
   147
1040
0.05
1070
   289
1070
     3
1002
}
  0
LEADER
  5
B26
330
1F
100
AcDbEntity
  8
0
  6
Continuous
100
AcDbLeader
  3
Standard
 76
     2
 10
3.483570685654468
 20
9.04222298016216
 30
0.0
 10
4.040748343215767
 20
9.24664849298818
 30
0.0
1001
ACAD
1000
DSTYLE
1002
{
1070
    77
1070
     0
1070
    41
1040
0.125
1070
    42
1040
0.05
1070
    46
1040
0.125
1070
   140
1040
0.1
1070
   144
1040
6.0
1070
   147
1040
0.05
1070
   289
1070
     3
1002
}
  0
LEADER
  5
B27
330
1F
100
AcDbEntity
  8
0
  6
Continuous
100
AcDbLeader
  3
Standard
 76
     2
 10
2.989869005656709
 20
9.528614717575795
 30
0.0
 10
3.949060890783558
 20
9.831728409007482
 30
0.0
1001
ACAD
1000
DSTYLE
1002
{
1070
    77
1070
     0
1070
    41
1040
0.125
1070
    42
1040
0.05
1070
    46
1040
0.125
1070
   140
1040
0.1
1070
   144
1040
6.0
1070
   147
1040
0.05
1070
   289
1070
     3
1002
}
  0
MTEXT
  5
B29
330
1F
100
AcDbEntity
  8
0
  6
Continuous
100
AcDbMText
 10
4.025907272166791
 20
9.930926596448707
 30
0.0
 40
0.125
 41
0.166
 71
     1
 72
     5
  1
{\fCentury Gothic|b0|i0|c0|p34;1}
 73
     1
 44
1.0
  0
MTEXT
  5
B2A
330
1F
100
AcDbEntity
  8
0
  6
Continuous
100
AcDbMText
 10
4.102146053980313
 20
9.344922962686923
 30
0.0
 40
0.125
 41
0.166
 71
     1
 72
     5
  1
{\fCentury Gothic|b0|i0|c0|p34;2}
 73
     1
 44
1.0
  0
MTEXT
  5
B2B
330
1F
100
AcDbEntity
  8
0
  6
Continuous
100
AcDbMText
 10
4.130665798408849
 20
8.817299526713146
 30
0.0
 40
0.125
 41
0.166
 71
     1
 72
     5
  1
{\fCentury Gothic|b0|i0|c0|p34;3}
 73
     1
 44
1.0
  0
MTEXT
  5
B2C
330
1F
100
AcDbEntity
  8
0
  6
Continuous
100
AcDbMText
 10
3.732573700657625
 20
6.850827689842163
 30
0.0
 40
0.125
 41
0.166
 71
     1
 72
     5
  1
{\fCentury Gothic|b0|i0|c0|p34;4}
 73
     1
 44
1.0
  0
MTEXT
  5
B2D
330
1F
100
AcDbEntity
  8
0
  6
Continuous
100
AcDbMText
 10
5.653437052711055
 20
4.181943979982226
 30
0.0
 40
0.125
 41
0.166
 71
     1
 72
     5
  1
{\fCentury Gothic|b0|i0|c0|p34;5}
 73
     1
 44
1.0
  0
MTEXT
  5
B2E
330
1F
100
AcDbEntity
  8
0
  6
Continuous
100
AcDbMText
 10
4.513260792091138
 20
3.088019046315932
 30
0.0
 40
0.125
 41
0.166
 71
     1
 72
     5
  1
{\fCentury Gothic|b0|i0|c0|p34;6}
 73
     1
 44
1.0
  0
MTEXT
  5
B3B
330
1F
100
AcDbEntity
  8
0
100
AcDbMText
 10
0.080554293238098
 20
0.1246924246521655
 30
9.014866294703786
 40
0.0684360496240188
 41
0.24
 71
     1
 72
     5
  1
{\fCentury Gothic|b0|i0|c0|p34;E-2}
 73
     1
 44
1.0
  0
MTEXT
  5
B55
330
1F
100
AcDbEntity
  8
0
  6
Continuous
100
AcDbMText
 10
5.054265628803241
 20
8.62347852799642
 30
0.0
 40
0.1
 41
3.556999999999999
 71
     1
 72
     5
  1
{\fCentury Gothic|b0|i0|c0|p0;3      HEAVY-DUTY STAINLESS STEEL ENCLOSURE \P        WITH LIGHT ACCESS THROUGH GRID ON TOP\P        AND INTERNAL CLAMP TO SECURE COLUMN\P        MOUNTING MODEL ENCL X}
 73
     1
 44
1.0
  0
MTEXT
  5
B56
330
1F
100
AcDbEntity
  8
0
  6
Continuous
100
AcDbMText
 10
5.060758342897629
 20
7.628675690623758
 30
0.0
 40
0.1
 41
3.613
 71
     1
 72
     5
  1
{\fCentury Gothic|b0|i0|c0|p34;4      GALVANIZED STEEL MOUNTING COLUMN\P         FOR LEIT X AND XRC}
 73
     1
 44
1.0
  0
MTEXT
  5
B57
102
{ACAD_XDICTIONARY
360
C34
102
}
330
1F
100
AcDbEntity
  8
0
  6
Continuous
100
AcDbMText
 10
5.362813350604107
 20
7.180072450303112
 30
0.0
 40
0.1
 41
3.34757945679996
 71
     1
 72
     5
  1
a. MODEL MCOLX 35" (89 cm) SHORT}
 73
     1
 44
1.0
  0
MTEXT
  5
B58
330
1F
100
AcDbEntity
  8
0
  6
Continuous
100
AcDbMText
 10
5.375490533356198
 20
6.956108888349513
 30
0.0
 40
0.1
 41
3.477027874826858
 71
     1
 72
     5
  1
{\fCentury Gothic|b0|i0|c0|p34;b. MODEL MCOLXL 51" (129 cm) LONG}
 73
     1
 44
1.0
  0
LINE
  5
B59
330
1F
100
AcDbEntity
  8
0
  6
Continuous
100
AcDbLine
 10
2.018664307177644
 20
0.796725755995829
 30
0.0
 11
7.470718530326758
 21
0.796725755995829
 31
0.0
  0
MTEXT
  5
B5A
330
1F
100
AcDbEntity
  8
0
  6
Continuous
100
AcDbMText
 10
2.825942722193285
 20
0.7208107403545363
 30
0.0
 40
0.135
 41
13.71203336809176
 71
     1
 72
     5
  1
{\fCentury Gothic|b0|i0|c0|p34;STAINLESS STEEL ENCLOSURE MODEL ENCLX\H1.3333x;                                    }
 73
     1
 44
1.0
  0
MTEXT
  5
B5C
330
1F
100
AcDbEntity
  8
0
  6
Continuous
100
AcDbMText
 10
5.063569128143038
 20
5.662935354684297
 30
0.0
 40
0.1
 41
2.81
 71
     1
 72
     5
  1
{\fCentury Gothic|b0|i0|c0|p34;6      FINISH GRADE}
 73
     1
 44
1.0
  0
MTEXT
  5
BA0
330
1F
100
AcDbEntity
  8
DET-IMAGE
 62
     7
100
AcDbMText
 10
1.033051247904197
 20
0.9567640193462666
 30
0.0
 40
0.4
 41
0.0
 71
     1
 72
     5
  1
{\fCentury Gothic|b1|i0|c0|p34;2}
  7
SLDTEXTSTYLE0
 73
     1
 44
1.0
  0
CIRCLE
  5
BA1
330
1F
100
AcDbEntity
  8
0
  6
Continuous
100
AcDbCircle
 10
1.119289234364975
 20
0.7513846840772876
 30
0.0
 40
0.4
  0
LINE
  5
BAE
330
1F
100
AcDbEntity
  8
DET-IMAGE
 62
     0
100
AcDbLine
 10
1.207745950113946
 20
2.149617848629831
 30
0.0
 11
0.622033211401436
 21
2.149617848629831
 31
0.0
  0
LINE
  5
BAF
330
1F
100
AcDbEntity
  8
DET-IMAGE
 62
     0
100
AcDbLine
 10
1.207745950113946
 20
2.184617848629831
 30
0.0
 11
0.622033211401436
 21
2.184617848629831
 31
0.0
  0
LINE
  5
BB0
330
1F
100
AcDbEntity
  8
DET-IMAGE
 62
     0
100
AcDbLine
 10
1.207745950113946
 20
2.219617848629831
 30
0.0
 11
0.622033211401436
 21
2.219617848629831
 31
0.0
  0
LINE
  5
BB1
330
1F
100
AcDbEntity
  8
DET-IMAGE
 62
     0
100
AcDbLine
 10
1.207745950113946
 20
2.254617848629831
 30
0.0
 11
0.622033211401436
 21
2.254617848629831
 31
0.0
  0
LINE
  5
BB2
330
1F
100
AcDbEntity
  8
DET-IMAGE
 62
     0
100
AcDbLine
 10
1.207745950113946
 20
2.289617848629832
 30
0.0
 11
0.622033211401436
 21
2.289617848629831
 31
0.0
  0
LINE
  5
BB3
330
1F
100
AcDbEntity
  8
DET-IMAGE
 62
     0
100
AcDbLine
 10
1.207745950113946
 20
2.32461784862983
 30
0.0
 11
0.622033211401436
 21
2.324617848629831
 31
0.0
  0
LINE
  5
BB4
330
1F
100
AcDbEntity
  8
DET-IMAGE
 62
     0
100
AcDbLine
 10
1.207745950113946
 20
2.359617848629831
 30
0.0
 11
0.622033211401436
 21
2.35961784862983
 31
0.0
  0
LINE
  5
BB5
330
1F
100
AcDbEntity
  8
DET-IMAGE
 62
     0
100
AcDbLine
 10
1.207745950113946
 20
2.394617848629831
 30
0.0
 11
0.622033211401436
 21
2.394617848629831
 31
0.0
  0
CIRCLE
  5
BB9
330
1F
100
AcDbEntity
  8
0
  6
Continuous
100
AcDbCircle
 10
5.100861737765102
 20
5.075358550048072
 30
0.0
 40
0.1068339234739888
  0
MTEXT
  5
BBA
330
1F
100
AcDbEntity
  8
0
  6
Continuous
100
AcDbMText
 10
5.05599664321704
 20
5.134835526140172
 30
0.0
 40
0.1
 41
3.190394413314537
 71
     1
 72
     5
  1
{\fCentury Gothic|b0|i0|c0|p34;7      DIRECT BURIAL CONTROL WIRES TO\P        CONTROL VALVES.}
 73
     1
 44
1.0
  0
CIRCLE
  5
BBC
330
1F
100
AcDbEntity
  8
0
  6
Continuous
100
AcDbCircle
 10
0.6538076961993949
 20
2.865291429191644
 30
0.0
 40
0.1068339234739888
  0
MTEXT
  5
BBD
330
1F
100
AcDbEntity
  8
0
  6
Continuous
100
AcDbMText
 10
0.6123983640151852
 20
2.921634720084839
 30
0.0
 40
0.125
 41
0.20305609
 71
     1
 72
     5
  1
{\fCentury Gothic|b0|i0|c0|p0;7}
 73
     1
 44
1.0
  0
LEADER
  5
BBF
330
1F
100
AcDbEntity
  8
DET-IMAGE
 62
     0
100
AcDbLeader
  3
SLDDIMSTYLE1
 76
     2
 10
0.8545656570608455
 20
2.403039624608968
 30
0.0
 10
0.7043059625322503
 20
2.772143964556053
 30
0.0
1001
ACAD
1000
DSTYLE
1002
{
1070
   176
1070
     0
1070
    77
1070
     0
1070
    40
1040
1.0
1070
   147
1040
1.5
1002
}
  0
MTEXT
  5
BD1
330
1F
100
AcDbEntity
  8
0
 62
     7
100
AcDbMText
 10
7.435030910174291
 20
0.1996238641441977
 30
0.0
 40
0.0899999999999999
 41
0.0
 71
     1
 72
     5
  1
{\fCentury Gothic|b0|i0|c0|p34;NOT TO SCALE}
 73
     1
 44
1.0
  0
MTEXT
  5
C05
330
1F
100
AcDbEntity
  8
0
  6
Continuous
100
AcDbMText
 10
5.060926797394473
 20
6.450526859059815
 30
0.0
 40
0.1
 41
3.556999999999998
 71
     1
 72
     5
  1
{\fCentury Gothic|b0|i0|c0|p34;5     12" X 18"  (30 x 45 cm) CONCRETE \P        BASE USING 90 Lb. (40 kg) BAG OF\P        CONCRETE  \H1.19x; }
 73
     1
 44
1.0
  0
ENDSEC
  0
SECTION
  2
OBJECTS
  0
DICTIONARY
  5
C
330
0
100
AcDbDictionary
281
     1
  3
ACAD_COLOR
350
6C
  3
ACAD_GROUP
350
D
  3
ACAD_LAYOUT
350
1A
  3
ACAD_MATERIAL
350
6B
  3
ACAD_MLEADERSTYLE
350
B4E
  3
ACAD_MLINESTYLE
350
17
  3
ACAD_PLOTSETTINGS
350
19
  3
ACAD_PLOTSTYLENAME
350
E
  3
ACAD_TABLESTYLE
350
92
  3
ACDBHEADERROUNDTRIPXREC
350
C30
  3
AcDbVariableDictionary
350
59
  3
ASE_INDEX_DICTIONARY
350
ADD
  3
DWGPROPS
350
C33
  0
DICTIONARY
  5
C34
330
B57
100
AcDbDictionary
280
     1
281
     1
  3
ACAD_MTEXT_RT
360
C35
  0
DICTIONARY
  5
6C
102
{ACAD_REACTORS
330
C
102
}
330
C
100
AcDbDictionary
281
     1
  0
DICTIONARY
  5
D
102
{ACAD_REACTORS
330
C
102
}
330
C
100
AcDbDictionary
281
     1
  0
DICTIONARY
  5
1A
102
{ACAD_REACTORS
330
C
102
}
330
C
100
AcDbDictionary
281
     1
  3
Layout1
350
74
  3
Model
350
22
  0
DICTIONARY
  5
6B
102
{ACAD_REACTORS
330
C
102
}
330
C
100
AcDbDictionary
281
     1
  0
DICTIONARY
  5
B4E
102
{ACAD_REACTORS
330
C
102
}
330
C
100
AcDbDictionary
281
     1
  0
DICTIONARY
  5
17
102
{ACAD_REACTORS
330
C
102
}
330
C
100
AcDbDictionary
281
     1
  3
Standard
350
18
  0
DICTIONARY
  5
19
102
{ACAD_REACTORS
330
C
102
}
330
C
100
AcDbDictionary
281
     1
  0
ACDBDICTIONARYWDFLT
  5
E
102
{ACAD_REACTORS
330
C
102
}
330
C
100
AcDbDictionary
281
     1
  3
Normal
350
F
100
AcDbDictionaryWithDefault
340
F
  0
DICTIONARY
  5
92
102
{ACAD_REACTORS
330
C
102
}
330
C
100
AcDbDictionary
281
     1
  0
DICTIONARY
  5
C30
102
{ACAD_REACTORS
330
C
102
}
330
C
100
AcDbDictionary
281
     1
  3
COLORDICT
350
C31
  3
MATERIALDICT
350
C32
  0
DICTIONARY
  5
59
102
{ACAD_REACTORS
330
C
102
}
330
C
100
AcDbDictionary
281
     1
  3
CTABLESTYLE
350
98
  3
DIMASSOC
350
B3E
  3
HIDETEXT
350
B67
  0
DICTIONARY
  5
ADD
102
{ACAD_REACTORS
330
C
102
}
330
C
100
AcDbDictionary
281
     1
  3
ASEBLOCKHIERARCHYINDEXRECORD
350
ADF
  0
XRECORD
  5
C33
102
{ACAD_REACTORS
330
C
102
}
330
C
100
AcDbXrecord
280
     1
  1
DWGPROPS COOKIE
  2

  3

  4

  6

  7

  8
fottrem
  9

300
=
301
=
302
=
303
=
304
=
305
=
306
=
307
=
308
=
309
=
 40
0.0
 41
2453353.717125822
 42
2454510.758782303
  1

 90
        0
  0
XRECORD
  5
C35
102
{ACAD_REACTORS
330
C34
102
}
330
C34
100
AcDbXrecord
280
     1
 40
38001.0
  1
{\fCentury Gothic|b0|i0|c0|p34;\pt17.4167;a. MODEL MCOLX 35" (89 cm) SHORT}
  0
LAYOUT
  5
74
102
{ACAD_REACTORS
330
1A
102
}
330
1A
100
AcDbPlotSettings
  1

  2
\\ADSCCNDC1\hq601xrx1
  4

  6

 40
0.0
 41
0.0
 42
0.0
 43
0.0
 44
0.0
 45
0.0
 46
0.0
 47
0.0
 48
0.0
 49
0.0
140
0.0
141
0.0
142
1.0
143
1.0
 70
   688
 72
     0
 73
     0
 74
     5
  7

 75
    16
147
1.0
148
0.0
149
0.0
100
AcDbLayout
  1
Layout1
 70
     1
 71
     1
 10
0.0
 20
0.0
 11
12.0
 21
9.0
 12
0.0
 22
0.0
 32
0.0
 14
1.000000000000000E+20
 24
1.000000000000000E+20
 34
1.000000000000000E+20
 15
-1.000000000000000E+20
 25
-1.000000000000000E+20
 35
-1.000000000000000E+20
146
0.0
 13
0.0
 23
0.0
 33
0.0
 16
1.0
 26
0.0
 36
0.0
 17
0.0
 27
1.0
 37
0.0
 76
     0
330
73
  0
LAYOUT
  5
22
102
{ACAD_REACTORS
330
1A
102
}
330
1A
100
AcDbPlotSettings
  1

  2
none_device
  4
Sun_Hi-Res_(1280.00_x_1600.00_Pixels)
  6

 40
7.143749713897705
 41
6.720414161682129
 42
7.14373779296875
 43
5.027069091796875
 44
1280.0
 45
1600.0
 46
0.0
 47
0.0
 48
-0.126
 49
-0.1860000000000001
140
8.626
141
11.209
142
1.0
143
0.007121875
 70
 11952
 72
     2
 73
     0
 74
     4
  7

 75
     0
147
140.4124616059675
148
0.0
149
-0.0000000000000397
100
AcDbLayout
  1
Model
 70
     1
 71
     0
 10
0.0
 20
0.0
 11
0.0
 21
0.0
 12
0.0
 22
0.0
 32
0.0
 14
0.0
 24
0.0
 34
0.0
 15
8.500000000000002
 25
11.0
 35
9.014866294703786
146
0.0
 13
0.0
 23
0.0
 33
0.0
 16
1.0
 26
0.0
 36
0.0
 17
0.0
 27
1.0
 37
0.0
 76
     0
330
1F
331
97
  0
MLINESTYLE
  5
18
102
{ACAD_REACTORS
330
17
102
}
330
17
100
AcDbMlineStyle
  2
Standard
 70
     0
  3

 62
     0
 51
90.0000000000002
 52
90.0000000000002
 71
     2
 49
0.5
 62
   256
  6
BYLAYER
 49
-0.5
 62
   256
  6
BYLAYER
  0
ACDBPLACEHOLDER
  5
F
102
{ACAD_REACTORS
330
E
102
}
330
E
  0
XRECORD
  5
C31
102
{ACAD_REACTORS
330
C30
102
}
330
C30
100
AcDbXrecord
280
     1
340
6C
  0
XRECORD
  5
C32
102
{ACAD_REACTORS
330
C30
102
}
330
C30
100
AcDbXrecord
280
     1
340
6B
  0
DICTIONARYVAR
  5
98
102
{ACAD_REACTORS
330
59
102
}
330
59
100
DictionaryVariables
280
     0
  1

  0
DICTIONARYVAR
  5
B3E
102
{ACAD_REACTORS
330
59
102
}
330
59
100
DictionaryVariables
280
     0
  1
2
  0
DICTIONARYVAR
  5
B67
102
{ACAD_REACTORS
330
59
102
}
330
59
100
DictionaryVariables
280
     0
  1
1
  0
XRECORD
  5
ADF
102
{ACAD_REACTORS
330
ADD
102
}
330
ADD
100
AcDbXrecord
280
     1
  0
ENDSEC
  0
EOF
