  0
SECTION
  2
HEADER
  9
$ACADVER
  1
AC1015
  9
$ACADMAINTVER
 70
     6
  9
$DWGCODEPAGE
  3
ANSI_1252
  9
$INSBASE
 10
0.0
 20
0.0
 30
0.0
  9
$EXTMIN
 10
0.0
 20
0.0
 30
0.0
  9
$EXTMAX
 10
10.5
 20
8.0
 30
3.004955431567929
  9
$LIMMIN
 10
0.0
 20
0.0
  9
$LIMMAX
 10
12.0
 20
9.0
  9
$ORTHOMODE
 70
     1
  9
$REGENMODE
 70
     1
  9
$FILLMODE
 70
     1
  9
$QTEXTMODE
 70
     0
  9
$MIRRTEXT
 70
     1
  9
$LTSCALE
 40
1.0
  9
$ATTMODE
 70
     1
  9
$TEXTSIZE
 40
0.2
  9
$TRACEWID
 40
0.05
  9
$TEXTSTYLE
  7
Standard
  9
$CLAYER
  8
0
  9
$CELTYPE
  6
ByLayer
  9
$CECOLOR
 62
   256
  9
$CELTSCALE
 40
1.0
  9
$DISPSILH
 70
     0
  9
$DIMSCALE
 40
1.0
  9
$DIMASZ
 40
0.18
  9
$DIMEXO
 40
0.0625
  9
$DIMDLI
 40
0.38
  9
$DIMRND
 40
0.0
  9
$DIMDLE
 40
0.0
  9
$DIMEXE
 40
0.18
  9
$DIMTP
 40
0.0
  9
$DIMTM
 40
0.0
  9
$DIMTXT
 40
0.18
  9
$DIMCEN
 40
0.09
  9
$DIMTSZ
 40
0.0
  9
$DIMTOL
 70
     0
  9
$DIMLIM
 70
     0
  9
$DIMTIH
 70
     1
  9
$DIMTOH
 70
     1
  9
$DIMSE1
 70
     0
  9
$DIMSE2
 70
     0
  9
$DIMTAD
 70
     0
  9
$DIMZIN
 70
     0
  9
$DIMBLK
  1

  9
$DIMASO
 70
     1
  9
$DIMSHO
 70
     1
  9
$DIMPOST
  1

  9
$DIMAPOST
  1

  9
$DIMALT
 70
     0
  9
$DIMALTD
 70
     2
  9
$DIMALTF
 40
25.4
  9
$DIMLFAC
 40
1.0
  9
$DIMTOFL
 70
     0
  9
$DIMTVP
 40
0.0
  9
$DIMTIX
 70
     0
  9
$DIMSOXD
 70
     0
  9
$DIMSAH
 70
     0
  9
$DIMBLK1
  1

  9
$DIMBLK2
  1

  9
$DIMSTYLE
  2
Standard
  9
$DIMCLRD
 70
     0
  9
$DIMCLRE
 70
     0
  9
$DIMCLRT
 70
     0
  9
$DIMTFAC
 40
1.0
  9
$DIMGAP
 40
0.09
  9
$DIMJUST
 70
     0
  9
$DIMSD1
 70
     0
  9
$DIMSD2
 70
     0
  9
$DIMTOLJ
 70
     1
  9
$DIMTZIN
 70
     0
  9
$DIMALTZ
 70
     0
  9
$DIMALTTZ
 70
     0
  9
$DIMUPT
 70
     0
  9
$DIMDEC
 70
     4
  9
$DIMTDEC
 70
     4
  9
$DIMALTU
 70
     2
  9
$DIMALTTD
 70
     2
  9
$DIMTXSTY
  7
Standard
  9
$DIMAUNIT
 70
     0
  9
$DIMADEC
 70
     0
  9
$DIMALTRND
 40
0.0
  9
$DIMAZIN
 70
     0
  9
$DIMDSEP
 70
    46
  9
$DIMATFIT
 70
     3
  9
$DIMFRAC
 70
     0
  9
$DIMLDRBLK
  1

  9
$DIMLUNIT
 70
     2
  9
$DIMLWD
 70
    -2
  9
$DIMLWE
 70
    -2
  9
$DIMTMOVE
 70
     0
  9
$LUNITS
 70
     2
  9
$LUPREC
 70
     4
  9
$SKETCHINC
 40
0.1
  9
$FILLETRAD
 40
0.5
  9
$AUNITS
 70
     0
  9
$AUPREC
 70
     0
  9
$MENU
  1
.
  9
$ELEVATION
 40
0.0
  9
$PELEVATION
 40
0.0
  9
$THICKNESS
 40
0.0
  9
$LIMCHECK
 70
     0
  9
$CHAMFERA
 40
0.5
  9
$CHAMFERB
 40
0.5
  9
$CHAMFERC
 40
1.0
  9
$CHAMFERD
 40
0.0
  9
$SKPOLY
 70
     0
  9
$TDCREATE
 40
2453353.383792488
  9
$TDUCREATE
 40
2453353.717125822
  9
$TDUPDATE
 40
2454351.440301771
  9
$TDUUPDATE
 40
2454351.773635104
  9
$TDINDWG
 40
0.5569898032
  9
$TDUSRTIMER
 40
0.5569608681
  9
$USRTIMER
 70
     1
  9
$ANGBASE
 50
0.0
  9
$ANGDIR
 70
     0
  9
$PDMODE
 70
     0
  9
$PDSIZE
 40
0.0
  9
$PLINEWID
 40
0.0
  9
$SPLFRAME
 70
     0
  9
$SPLINETYPE
 70
     6
  9
$SPLINESEGS
 70
     8
  9
$HANDSEED
  5
776
  9
$SURFTAB1
 70
     6
  9
$SURFTAB2
 70
     6
  9
$SURFTYPE
 70
     6
  9
$SURFU
 70
     6
  9
$SURFV
 70
     6
  9
$UCSBASE
  2

  9
$UCSNAME
  2

  9
$UCSORG
 10
0.0
 20
0.0
 30
0.0
  9
$UCSXDIR
 10
1.0
 20
0.0
 30
0.0
  9
$UCSYDIR
 10
0.0
 20
1.0
 30
0.0
  9
$UCSORTHOREF
  2

  9
$UCSORTHOVIEW
 70
     0
  9
$UCSORGTOP
 10
0.0
 20
0.0
 30
0.0
  9
$UCSORGBOTTOM
 10
0.0
 20
0.0
 30
0.0
  9
$UCSORGLEFT
 10
0.0
 20
0.0
 30
0.0
  9
$UCSORGRIGHT
 10
0.0
 20
0.0
 30
0.0
  9
$UCSORGFRONT
 10
0.0
 20
0.0
 30
0.0
  9
$UCSORGBACK
 10
0.0
 20
0.0
 30
0.0
  9
$PUCSBASE
  2

  9
$PUCSNAME
  2

  9
$PUCSORG
 10
0.0
 20
0.0
 30
0.0
  9
$PUCSXDIR
 10
1.0
 20
0.0
 30
0.0
  9
$PUCSYDIR
 10
0.0
 20
1.0
 30
0.0
  9
$PUCSORTHOREF
  2

  9
$PUCSORTHOVIEW
 70
     0
  9
$PUCSORGTOP
 10
0.0
 20
0.0
 30
0.0
  9
$PUCSORGBOTTOM
 10
0.0
 20
0.0
 30
0.0
  9
$PUCSORGLEFT
 10
0.0
 20
0.0
 30
0.0
  9
$PUCSORGRIGHT
 10
0.0
 20
0.0
 30
0.0
  9
$PUCSORGFRONT
 10
0.0
 20
0.0
 30
0.0
  9
$PUCSORGBACK
 10
0.0
 20
0.0
 30
0.0
  9
$USERI1
 70
     0
  9
$USERI2
 70
     0
  9
$USERI3
 70
     0
  9
$USERI4
 70
     0
  9
$USERI5
 70
     0
  9
$USERR1
 40
0.0
  9
$USERR2
 40
0.0
  9
$USERR3
 40
0.0
  9
$USERR4
 40
0.0
  9
$USERR5
 40
0.0
  9
$WORLDVIEW
 70
     1
  9
$SHADEDGE
 70
     3
  9
$SHADEDIF
 70
    70
  9
$TILEMODE
 70
     1
  9
$MAXACTVP
 70
    48
  9
$PINSBASE
 10
0.0
 20
0.0
 30
0.0
  9
$PLIMCHECK
 70
     0
  9
$PEXTMIN
 10
1.000000000000000E+20
 20
1.000000000000000E+20
 30
1.000000000000000E+20
  9
$PEXTMAX
 10
-1.000000000000000E+20
 20
-1.000000000000000E+20
 30
-1.000000000000000E+20
  9
$PLIMMIN
 10
0.0
 20
0.0
  9
$PLIMMAX
 10
12.0
 20
9.0
  9
$UNITMODE
 70
     0
  9
$VISRETAIN
 70
     1
  9
$PLINEGEN
 70
     0
  9
$PSLTSCALE
 70
     1
  9
$TREEDEPTH
 70
  3020
  9
$CMLSTYLE
  2
Standard
  9
$CMLJUST
 70
     0
  9
$CMLSCALE
 40
1.0
  9
$PROXYGRAPHICS
 70
     1
  9
$MEASUREMENT
 70
     0
  9
$CELWEIGHT
370
    -1
  9
$ENDCAPS
280
     0
  9
$JOINSTYLE
280
     0
  9
$LWDISPLAY
290
     0
  9
$INSUNITS
 70
     1
  9
$HYPERLINKBASE
  1

  9
$STYLESHEET
  1

  9
$XEDIT
290
     0
  9
$CEPSNTYPE
380
     0
  9
$PSTYLEMODE
290
     1
  9
$FINGERPRINTGUID
  2
{FDEAD576-A652-11D2-9A35-0060089B3A3F}
  9
$VERSIONGUID
  2
{59F7359B-0747-4F5D-93EA-DF6E36BCE430}
  9
$EXTNAMES
290
     1
  9
$PSVPSCALE
 40
0.0
  9
$OLESTARTUP
290
     0
  0
ENDSEC
  0
SECTION
  2
CLASSES
  0
CLASS
  1
ACDBDICTIONARYWDFLT
  2
AcDbDictionaryWithDefault
  3
ObjectDBX Classes
 90
        0
280
     0
281
     0
  0
CLASS
  1
ACDBPLACEHOLDER
  2
AcDbPlaceHolder
  3
ObjectDBX Classes
 90
        0
280
     0
281
     0
  0
CLASS
  1
LAYOUT
  2
AcDbLayout
  3
ObjectDBX Classes
 90
        0
280
     0
281
     0
  0
CLASS
  1
DICTIONARYVAR
  2
AcDbDictionaryVar
  3
ObjectDBX Classes
 90
        0
280
     0
281
     0
  0
CLASS
  1
TABLESTYLE
  2
AcDbTableStyle
  3
ObjectDBX Classes
 90
     4095
280
     0
281
     0
  0
ENDSEC
  0
SECTION
  2
TABLES
  0
TABLE
  2
VPORT
  5
8
330
0
100
AcDbSymbolTable
 70
     2
  0
VPORT
  5
97
330
8
100
AcDbSymbolTableRecord
100
AcDbViewportTableRecord
  2
*Active
 70
     0
 10
0.0
 20
0.0
 11
1.0
 21
1.0
 12
5.25
 22
3.999999999999999
 13
0.0
 23
0.0
 14
0.5
 24
0.5
 15
0.5
 25
0.5
 16
0.0
 26
0.0
 36
1.0
 17
0.0
 27
0.0
 37
0.0
 40
8.160000000000004
 41
1.704119850187266
 42
50.0
 43
0.0
 44
0.0
 50
0.0
 51
0.0
 71
    16
 72
   100
 73
     1
 74
     2
 75
     0
 76
     0
 77
     0
 78
     0
281
     0
 65
     0
110
0.0
120
0.0
130
0.0
111
1.0
121
0.0
131
0.0
112
0.0
122
1.0
132
0.0
 79
     0
146
0.0
  0
ENDTAB
  0
TABLE
  2
LTYPE
  5
5
330
0
100
AcDbSymbolTable
 70
     5
  0
LTYPE
  5
14
330
5
100
AcDbSymbolTableRecord
100
AcDbLinetypeTableRecord
  2
ByBlock
 70
     0
  3

 72
    65
 73
     0
 40
0.0
  0
LTYPE
  5
15
330
5
100
AcDbSymbolTableRecord
100
AcDbLinetypeTableRecord
  2
ByLayer
 70
     0
  3

 72
    65
 73
     0
 40
0.0
  0
LTYPE
  5
16
330
5
100
AcDbSymbolTableRecord
100
AcDbLinetypeTableRecord
  2
Continuous
 70
     0
  3
Solid line
 72
    65
 73
     0
 40
0.0
  0
LTYPE
  5
769
330
5
100
AcDbSymbolTableRecord
100
AcDbLinetypeTableRecord
  2
PHANTOM2
 70
     0
  3
Phantom (.5x) ___ _ _ ___ _ _ ___ _ _ ___ _ _
 72
    65
 73
     6
 40
1.25
 49
0.625
 74
     4
 75
     0
340
0
 46
1.0
 50
0.0
 44
0.0
 45
0.0
 49
-0.125
 74
     4
 75
     0
340
0
 46
1.0
 50
0.0
 44
0.0
 45
0.0
 49
0.125
 74
     4
 75
     0
340
0
 46
1.0
 50
0.0
 44
0.0
 45
0.0
 49
-0.125
 74
     4
 75
     0
340
0
 46
1.0
 50
0.0
 44
0.0
 45
0.0
 49
0.125
 74
     4
 75
     0
340
0
 46
1.0
 50
0.0
 44
0.0
 45
0.0
 49
-0.125
 74
     4
 75
     0
340
0
 46
1.0
 50
0.0
 44
0.0
 45
0.0
  0
LTYPE
  5
76A
330
5
100
AcDbSymbolTableRecord
100
AcDbLinetypeTableRecord
  2
CENTER2
 70
     0
  3
Center (.5x) ___ _ ___ _ ___ _ ___ _ ___ _ ___
 72
    65
 73
     4
 40
1.125
 49
0.75
 74
     4
 75
     0
340
0
 46
1.0
 50
0.0
 44
0.0
 45
0.0
 49
-0.125
 74
     4
 75
     0
340
0
 46
1.0
 50
0.0
 44
0.0
 45
0.0
 49
0.125
 74
     4
 75
     0
340
0
 46
1.0
 50
0.0
 44
0.0
 45
0.0
 49
-0.125
 74
     4
 75
     0
340
0
 46
1.0
 50
0.0
 44
0.0
 45
0.0
  0
LTYPE
  5
76B
330
5
100
AcDbSymbolTableRecord
100
AcDbLinetypeTableRecord
  2
DASHED2
 70
     0
  3
Dashed (.5x) _ _ _ _ _ _ _ _ _ _ _ _ _ _ _ _ _
 72
    65
 73
     2
 40
0.375
 49
0.25
 74
     4
 75
     0
340
0
 46
1.0
 50
0.0
 44
0.0
 45
0.0
 49
-0.125
 74
     4
 75
     0
340
0
 46
1.0
 50
0.0
 44
0.0
 45
0.0
  0
LTYPE
  5
76C
330
5
100
AcDbSymbolTableRecord
100
AcDbLinetypeTableRecord
  2
HIDDEN2
 70
     0
  3
Hidden (.5x) _ _ _ _ _ _ _ _ _ _ _ _ _ _ _ _ _
 72
    65
 73
     2
 40
0.1875
 49
0.125
 74
     4
 75
     0
340
0
 46
1.0
 50
0.0
 44
0.0
 45
0.0
 49
-0.0625
 74
     4
 75
     0
340
0
 46
1.0
 50
0.0
 44
0.0
 45
0.0
  0
ENDTAB
  0
TABLE
  2
LAYER
  5
2
330
0
100
AcDbSymbolTable
 70
     3
  0
LAYER
  5
10
330
2
100
AcDbSymbolTableRecord
100
AcDbLayerTableRecord
  2
0
 70
     0
 62
     7
  6
Continuous
370
    -3
390
F
  0
LAYER
  5
45C
330
2
100
AcDbSymbolTableRecord
100
AcDbLayerTableRecord
  2
BORD
 70
     0
 62
     3
  6
Continuous
370
    -3
390
F
  0
LAYER
  5
45D
330
2
100
AcDbSymbolTableRecord
100
AcDbLayerTableRecord
  2
LOGO
 70
     0
 62
     3
  6
Continuous
370
    -3
390
F
  0
ENDTAB
  0
TABLE
  2
STYLE
  5
3
330
0
100
AcDbSymbolTable
 70
     2
  0
STYLE
  5
11
330
3
100
AcDbSymbolTableRecord
100
AcDbTextStyleTableRecord
  2
Standard
 70
     0
 40
0.0
 41
1.0
 50
0.0
 71
     0
 42
0.2
  3
romans.shx
  4

  0
STYLE
  5
6F8
330
3
100
AcDbSymbolTableRecord
100
AcDbTextStyleTableRecord
  2

 70
     1
 40
0.0
 41
1.0
 50
0.0
 71
     0
 42
0.2
  3
ltypeshp.shx
  4

  0
ENDTAB
  0
TABLE
  2
VIEW
  5
6
330
0
100
AcDbSymbolTable
 70
     0
  0
ENDTAB
  0
TABLE
  2
UCS
  5
7
330
0
100
AcDbSymbolTable
 70
     0
  0
ENDTAB
  0
TABLE
  2
APPID
  5
9
330
0
100
AcDbSymbolTable
 70
     1
  0
APPID
  5
12
330
9
100
AcDbSymbolTableRecord
100
AcDbRegAppTableRecord
  2
ACAD
 70
     0
  0
ENDTAB
  0
TABLE
  2
DIMSTYLE
  5
A
330
0
100
AcDbSymbolTable
 70
     1
100
AcDbDimStyleTable
  0
DIMSTYLE
105
27
330
A
100
AcDbSymbolTableRecord
100
AcDbDimStyleTableRecord
  2
Standard
 70
     0
340
11
  0
ENDTAB
  0
TABLE
  2
BLOCK_RECORD
  5
1
330
0
100
AcDbSymbolTable
 70
     2
  0
BLOCK_RECORD
  5
1F
330
1
100
AcDbSymbolTableRecord
100
AcDbBlockTableRecord
  2
*Model_Space
340
22
  0
BLOCK_RECORD
  5
73
330
1
100
AcDbSymbolTableRecord
100
AcDbBlockTableRecord
  2
*Paper_Space
340
74
  0
BLOCK_RECORD
  5
23
330
1
100
AcDbSymbolTableRecord
100
AcDbBlockTableRecord
  2
*Paper_Space0
340
26
  0
BLOCK_RECORD
  5
4D6
330
1
100
AcDbSymbolTableRecord
100
AcDbBlockTableRecord
  2
A$C29337CB0
340
0
  0
ENDTAB
  0
ENDSEC
  0
SECTION
  2
BLOCKS
  0
BLOCK
  5
20
330
1F
100
AcDbEntity
  8
0
100
AcDbBlockBegin
  2
*Model_Space
 70
     0
 10
0.0
 20
0.0
 30
0.0
  3
*Model_Space
  1

  0
ENDBLK
  5
21
330
1F
100
AcDbEntity
  8
0
100
AcDbBlockEnd
  0
BLOCK
  5
75
330
73
100
AcDbEntity
 67
     1
  8
0
100
AcDbBlockBegin
  2
*Paper_Space
 70
     0
 10
0.0
 20
0.0
 30
0.0
  3
*Paper_Space
  1

  0
ENDBLK
  5
76
330
73
100
AcDbEntity
 67
     1
  8
0
100
AcDbBlockEnd
  0
BLOCK
  5
76D
330
23
100
AcDbEntity
  8
0
100
AcDbBlockBegin
  2
*Paper_Space0
 70
     0
 10
0.0
 20
0.0
 30
0.0
  3
*Paper_Space0
  1

  0
ENDBLK
  5
76E
330
23
100
AcDbEntity
  8
0
100
AcDbBlockEnd
  0
BLOCK
  5
76F
330
4D6
100
AcDbEntity
  8
0
100
AcDbBlockBegin
  2
A$C29337CB0
 70
     0
 10
0.0
 20
0.0
 30
0.0
  3
A$C29337CB0
  1

  0
LINE
  5
4D7
330
4D6
100
AcDbEntity
  8
BORD
 62
     7
100
AcDbLine
 10
10.34928386305439
 20
-0.0000000000000027
 30
0.0
 11
2.500000000000002
 21
-0.0000000000000027
 31
0.0
210
0.0
220
0.0
230
-1.0
  0
LINE
  5
4D8
330
4D6
100
AcDbEntity
  8
0
100
AcDbLine
 10
2.5
 20
-0.0000000000000027
 30
0.0
 11
10.44
 21
-0.0000000000000027
 31
0.0
  0
LWPOLYLINE
  5
4D9
330
4D6
100
AcDbEntity
  8
0
100
AcDbPolyline
 90
        2
 70
     0
 43
0.0
 10
10.44
 20
1.002308869295498
 10
-0.0000000000000018
 20
1.002308869295498
  0
LINE
  5
4DA
330
4D6
100
AcDbEntity
  8
0
100
AcDbLine
 10
10.44
 20
-0.0000000000000027
 30
0.0
 11
0.0
 21
-0.0000000000000009
 31
0.0
  0
TEXT
  5
4DB
330
4D6
100
AcDbEntity
  8
0
100
AcDbText
 10
0.1256255565431044
 20
0.7547771098106208
 30
0.0
 40
0.0608158393258724
  1
SWIVEL FITTINGS REQUIRE NO GLUE, TEFLON OR TOOLS
100
AcDbText
  0
TEXT
  5
4DC
330
4D6
100
AcDbEntity
  8
0
100
AcDbText
 10
0.1256255565431044
 20
0.8638800717457711
 30
0.0
 40
0.0608158393258724
  1
NOTE: 
100
AcDbText
  0
TEXT
  5
4DD
330
4D6
100
AcDbEntity
  8
0
100
AcDbText
 10
7.912541736107046
 20
0.2290409088609637
 30
0.0
 40
0.0689306978542596
  1
DRIP SYSTEM WITH CONTROLLER MOUNTED ON THE VALVE
 41
0.8031971795826328
 72
     5
 11
10.38514005043614
 21
0.2290409088609637
 31
0.0
100
AcDbText
  0
TEXT
  5
4DE
330
4D6
100
AcDbEntity
  8
0
100
AcDbText
 10
7.912541736107046
 20
0.4389337154658621
 30
0.0
 40
0.0689306978542596
  1
TOP VIEW PROGRAMMABLE FOUR BUTTON WITH LCD DISPLAY
 41
0.7725777738565665
 72
     5
 11
10.38514005043614
 21
0.4389337154658621
 31
0.0
100
AcDbText
  0
TEXT
  5
4DF
330
4D6
100
AcDbEntity
  8
0
100
AcDbText
 10
7.944503904166714
 20
0.8945385929909824
 30
0.0
 40
0.0608158393258724
  1
1210 ACTIVITY  DRIVE, VISTA, CA 92083 
100
AcDbText
  0
LINE
  5
4E0
330
4D6
100
AcDbEntity
  8
0
100
AcDbLine
 10
6.170030033830352
 20
1.002308869295498
 30
0.0
 11
10.44
 21
1.002308869295498
 31
0.0
  0
LINE
  5
4E1
330
4D6
100
AcDbEntity
  8
0
100
AcDbLine
 10
7.829001435024002
 20
0.1828592851675852
 30
0.0
 11
10.44
 21
0.1828592851675852
 31
0.0
  0
LINE
  5
4E2
330
4D6
100
AcDbEntity
  8
0
100
AcDbLine
 10
7.829001435024002
 20
0.6345470423051198
 30
0.0
 11
10.44
 21
0.6345470423051198
 31
0.0
  0
TEXT
  5
4E3
330
4D6
100
AcDbEntity
  8
0
100
AcDbText
 10
7.912541736107046
 20
0.3339873121634129
 30
0.0
 40
0.0689306978542596
  1
BATTERY OPERATED CONTROLLER ASSEMBLY FOR
 41
0.9621991963562335
 72
     5
 11
10.38514005043614
 21
0.3339873121634129
 31
0.0
100
AcDbText
  0
TEXT
  5
4E4
330
4D6
100
AcDbEntity
  8
0
100
AcDbText
 10
7.86282909161133
 20
0.5426324502828264
 30
0.0
 40
0.0608158393258724
  1
DWG. NAME
100
AcDbText
  0
TEXT
  5
4E5
330
4D6
100
AcDbEntity
  8
0
100
AcDbText
 10
7.842864410123296
 20
0.0868190188126219
 30
0.0
 40
0.0608158393258724
  1
SCALE
100
AcDbText
  0
LINE
  5
4E6
330
4D6
100
AcDbEntity
  8
0
100
AcDbLine
 10
6.242998022868777
 20
-0.0000000000000027
 30
0.0
 11
6.242998022868777
 21
1.002308869295498
 31
0.0
  0
LINE
  5
4E7
330
4D6
100
AcDbEntity
  8
0
100
AcDbLine
 10
7.829001435024002
 20
-0.0000000000000027
 30
0.0
 11
7.829001435024002
 21
1.002308869295498
 31
0.0
  0
LINE
  5
4E8
330
4D6
100
AcDbEntity
  8
0
100
AcDbLine
 10
6.242998022868777
 20
0.2791380906130909
 30
0.0
 11
7.829001435024002
 21
0.2791380906130909
 31
0.0
  0
TEXT
  5
4E9
330
4D6
100
AcDbEntity
  8
0
100
AcDbText
 10
6.308307049982949
 20
0.0940980738571957
 30
0.0
 40
0.0608158393258724
  1
REVISIONS:
100
AcDbText
  0
ARC
  5
4EA
330
4D6
100
AcDbEntity
  8
LOGO
 62
     7
100
AcDbCircle
 10
6.969876765019347
 20
0.8618060480400374
 30
0.0
 40
0.0675108796499993
100
AcDbArc
 50
55.76830433924557
 51
124.2316956607548
  0
ARC
  5
4EB
330
4D6
100
AcDbEntity
  8
LOGO
 62
     7
100
AcDbCircle
 10
6.969876765019347
 20
0.6142627440684612
 30
0.0
 40
0.3718478266740365
100
AcDbArc
 50
79.83810088077882
 51
100.1618991192212
  0
ARC
  5
4EC
330
4D6
100
AcDbEntity
  8
LOGO
 62
     7
100
AcDbCircle
 10
6.945349242638335
 20
0.9103970653576443
 30
0.0
 40
0.1131162792606516
100
AcDbArc
 50
206.3350300869302
 51
272.2277691305709
  0
LINE
  5
4ED
330
4D6
100
AcDbEntity
  8
LOGO
 62
     7
100
AcDbLine
 10
6.894057532004725
 20
0.7758026401774067
 30
0.0
 11
7.045695998033969
 21
0.7758026401774067
 31
0.0
  0
CIRCLE
  5
4EE
330
4D6
100
AcDbEntity
  8
LOGO
 62
     7
100
AcDbCircle
 10
6.969876765019347
 20
0.8618060480400374
 30
0.0
 40
0.0432555883111094
  0
ARC
  5
4EF
330
4D6
100
AcDbEntity
  8
LOGO
 62
     7
100
AcDbCircle
 10
6.969876765019347
 20
0.8618060480400374
 30
0.0
 40
0.0675108796499993
100
AcDbArc
 50
138.4175550410183
 51
252.6516243536209
  0
LINE
  5
4F0
330
4D6
100
AcDbEntity
  8
LOGO
 62
     7
100
AcDbLine
 10
6.921436690666948
 20
0.6158977095470783
 30
0.0
 11
7.018316839371748
 21
0.6158977095470783
 31
0.0
  0
TEXT
  5
4F1
330
4D6
100
AcDbEntity
  8
0
100
AcDbText
 10
6.308307049982949
 20
0.3607942143525653
 30
0.0
 40
0.0608158393258724
  1
DATE: 11-10-99
100
AcDbText
  0
LINE
  5
4F2
330
4D6
100
AcDbEntity
  8
0
100
AcDbLine
 10
6.242998022868777
 20
0.4928423006558331
 30
0.0
 11
7.829001435024002
 21
0.4928423006558331
 31
0.0
  0
TEXT
  5
4F3
330
4D6
100
AcDbEntity
  8
0
 62
     7
100
AcDbText
 10
6.650929230664977
 20
0.5244903989202481
 30
0.0
 40
0.0571569851655855
  1
IRRIGATION PRODUCTS
 41
0.6691042753526057
 72
     5
 11
7.283102271978413
 21
0.5244903989202481
 31
0.0
100
AcDbText
  0
LINE
  5
4F4
330
4D6
100
AcDbEntity
  8
LOGO
 62
     7
100
AcDbLine
 10
6.894057532004725
 20
0.7758026401774067
 30
0.0
 11
6.921436690666948
 21
0.6158977095470783
 31
0.0
  0
LWPOLYLINE
  5
4F5
330
4D6
100
AcDbEntity
  8
LOGO
 62
     7
100
AcDbPolyline
 90
        4
 70
     1
 43
0.0
 10
6.65817541081225
 20
0.6158977108463457
 10
6.755055542565339
 20
0.6158977108463457
 42
1.11220835911755
 10
6.755055542565339
 20
0.8431310259274749
 10
6.65817541081225
 20
0.8431310259274758
  0
LWPOLYLINE
  5
4F6
330
4D6
100
AcDbEntity
  8
LOGO
 62
     7
100
AcDbPolyline
 90
        4
 70
     1
 43
0.0
 10
6.724863123141615
 20
0.6825854231757109
 10
6.759365463121759
 20
0.6825854231757109
 42
1.043882780016063
 10
6.759365463121759
 20
0.7764433135981097
 10
6.724863123141615
 20
0.7764433135981097
  0
ARC
  5
4F7
330
4D6
100
AcDbEntity
  8
LOGO
 62
     7
100
AcDbCircle
 10
6.906624714878383
 20
0.9671491309353728
 30
0.0
 40
0.0133375424658731
100
AcDbArc
 50
100.1618991192206
 51
220.9147103934802
  0
LINE
  5
4F8
330
4D6
100
AcDbEntity
  8
LOGO
 62
     7
100
AcDbLine
 10
6.919378527265764
 20
0.9066128204622865
 30
0.0
 11
6.884877452862851
 21
0.9464212931674929
 31
0.0
  0
LINE
  5
4F9
330
4D6
100
AcDbEntity
  8
LOGO
 62
     7
100
AcDbLine
 10
6.931899138913357
 20
0.9176219847111202
 30
0.0
 11
6.896545729525846
 21
0.9584139095133182
 31
0.0
  0
ARC
  5
4FA
330
4D6
100
AcDbEntity
  8
LOGO
 62
     7
100
AcDbCircle
 10
6.874798467510312
 20
0.9376860717454383
 30
0.0
 40
0.0133375424658731
100
AcDbArc
 50
40.91471039347918
 51
122.0260033892479
  0
ARC
  5
4FB
330
4D6
100
AcDbEntity
  8
LOGO
 62
     7
100
AcDbCircle
 10
6.903458304391826
 20
0.8918670308341845
 30
0.0
 40
0.0673816981175471
100
AcDbArc
 50
122.0260033892477
 51
208.0161118868835
  0
LINE
  5
4FC
330
4D6
100
AcDbEntity
  8
LOGO
 62
     7
100
AcDbLine
 10
7.04569599803397
 20
0.7758026401774067
 30
0.0
 11
7.018316839371748
 21
0.6158977095470783
 31
0.0
  0
ARC
  5
4FD
330
4D6
100
AcDbEntity
  8
LOGO
 62
     7
100
AcDbCircle
 10
7.170375868852332
 20
0.7295143683869103
 30
0.0
 40
0.1137288586413809
100
AcDbArc
 50
43.57405058908683
 51
10.6612766956538
  0
LINE
  5
4FE
330
4D6
100
AcDbEntity
  8
LOGO
 62
     7
100
AcDbLine
 10
7.170375868852332
 20
0.7084742480591935
 30
0.0
 11
7.212449409028357
 21
0.7084742480591935
 31
0.0
  0
LINE
  5
4FF
330
4D6
100
AcDbEntity
  8
LOGO
 62
     7
100
AcDbLine
 10
7.170375868852332
 20
0.7505544887146272
 30
0.0
 11
7.282141546161899
 21
0.7505544887146272
 31
0.0
  0
ARC
  5
500
330
4D6
100
AcDbEntity
  8
LOGO
 62
     7
100
AcDbCircle
 10
7.170375868852332
 20
0.7295143683869103
 30
0.0
 40
0.0470411463120155
100
AcDbArc
 50
43.57405058908686
 51
333.4312990519632
  0
ARC
  5
501
330
4D6
100
AcDbEntity
  8
LOGO
 62
     7
100
AcDbCircle
 10
6.994404287400361
 20
0.9103970653576443
 30
0.0
 40
0.1131162792606516
100
AcDbArc
 50
267.7722308694291
 51
333.6649699130697
  0
ARC
  5
502
330
4D6
100
AcDbEntity
  8
LOGO
 62
     7
100
AcDbCircle
 10
6.969876765019347
 20
0.8618060480400374
 30
0.0
 40
0.0675108796499993
100
AcDbArc
 50
287.3483756463791
 51
41.58244495898143
  0
LINE
  5
503
330
4D6
100
AcDbEntity
  8
LOGO
 62
     7
100
AcDbLine
 10
7.170375868852332
 20
0.7505544887146272
 30
0.0
 11
7.170375868852332
 21
0.7084742480591935
 31
0.0
  0
LINE
  5
504
330
4D6
100
AcDbEntity
  8
LOGO
 62
     7
100
AcDbLine
 10
7.020375002772932
 20
0.9066128204622865
 30
0.0
 11
7.054876077175845
 21
0.9464212931674929
 31
0.0
  0
ARC
  5
505
330
4D6
100
AcDbEntity
  8
LOGO
 62
     7
100
AcDbCircle
 10
7.064955062528382
 20
0.9376860717454383
 30
0.0
 40
0.0133375424658731
100
AcDbArc
 50
57.97399661075209
 51
139.0852896065208
  0
ARC
  5
506
330
4D6
100
AcDbEntity
  8
LOGO
 62
     7
100
AcDbCircle
 10
7.033128815160312
 20
0.9671491309353728
 30
0.0
 40
0.0133375424658731
100
AcDbArc
 50
319.0852896065217
 51
79.83810088077948
  0
LINE
  5
507
330
4D6
100
AcDbEntity
  8
LOGO
 62
     7
100
AcDbLine
 10
7.007854391125337
 20
0.9176219847111202
 30
0.0
 11
7.04320780051285
 21
0.9584139095133182
 31
0.0
  0
CIRCLE
  5
508
330
4D6
100
AcDbEntity
  8
LOGO
 62
     7
100
AcDbCircle
 10
6.969876765019347
 20
0.8618060480400374
 30
0.0
 40
0.0311279426416641
  0
ARC
  5
509
330
4D6
100
AcDbEntity
  8
LOGO
 62
     7
100
AcDbCircle
 10
7.036295225646869
 20
0.8918670308341845
 30
0.0
 40
0.0673816981175471
100
AcDbArc
 50
331.9838881131166
 51
57.97399661075228
  0
LINE
  5
50A
330
4D6
100
AcDbEntity
  8
LOGO
 62
     7
100
AcDbLine
 10
7.204456432232883
 20
0.7619394303916724
 30
0.0
 11
7.252770620659971
 21
0.8079067032317706
 31
0.0
  0
TEXT
  5
50B
330
4D6
100
AcDbEntity
  8
0
100
AcDbText
 10
8.255811098541544
 20
0.0346501239216659
 30
0.0
 40
0.0939845171888294
  1
NOT TO SCALE
 41
0.6259487054333952
 72
     5
 11
8.908818402744492
 21
0.0346501239216659
 31
0.0
100
AcDbText
  0
TEXT
  5
50C
330
4D6
100
AcDbEntity
  8
0
100
AcDbText
 10
9.21899074666692
 20
0.082091825714147
 30
0.0
 40
0.0608158393258724
  1
DWG. NO.
100
AcDbText
  0
LINE
  5
50D
330
4D6
100
AcDbEntity
  8
0
100
AcDbLine
 10
9.170732656587875
 20
-0.0000000000000027
 30
0.0
 11
9.170732656587875
 21
0.1828592851675852
 31
0.0
  0
TEXT
  5
50E
330
4D6
100
AcDbEntity
  8
0
100
AcDbText
 10
7.944503904166714
 20
0.7794515230954149
 30
0.0
 40
0.0608158393258724
  1
TEL. 1-800-322-9146
100
AcDbText
  0
TEXT
  5
50F
330
4D6
100
AcDbEntity
  8
0
100
AcDbText
 10
7.944503904166714
 20
0.6670629024592545
 30
0.0
 40
0.0608158393258724
  1
EMAIL dig@digcorp.com
100
AcDbText
  0
TEXT
  5
510
330
4D6
100
AcDbEntity
  8
0
100
AcDbText
 10
9.775437225653503
 20
0.0442068310701718
 30
0.0
 40
0.0751876137510635
  1
O1    
 41
0.7720034033678519
 72
     5
 11
10.29784306901586
 21
0.0442068310701718
 31
0.0
100
AcDbText
  0
ENDBLK
  5
770
330
4D6
100
AcDbEntity
  8
0
100
AcDbBlockEnd
  0
ENDSEC
  0
SECTION
  2
ENTITIES
  0
LINE
  5
4A
330
1F
100
AcDbEntity
  8
0
100
AcDbLine
 10
0.0
 20
0.0
 30
0.0
 11
10.5
 21
0.0
 31
0.0
  0
LINE
  5
4B
330
1F
100
AcDbEntity
  8
0
100
AcDbLine
 10
10.5
 20
8.0
 30
0.0
 11
10.5
 21
0.0
 31
0.0
  0
LINE
  5
4C
330
1F
100
AcDbEntity
  8
0
100
AcDbLine
 10
0.0
 20
0.0
 30
0.0
 11
0.0
 21
8.0
 31
0.0
  0
LINE
  5
87
330
1F
100
AcDbEntity
  8
0
100
AcDbLine
 10
0.0
 20
8.0
 30
0.0
 11
10.5
 21
8.0
 31
0.0
  0
ARC
  5
89
330
1F
100
AcDbEntity
  8
0
  6
PHANTOM2
100
AcDbCircle
 10
5.011542199067805
 20
1.904402955623561
 30
0.0
 40
1.350998506473271
100
AcDbArc
 50
186.4538192446228
 51
356.4159843438209
  0
ARC
  5
8F
330
1F
100
AcDbEntity
  8
0
100
AcDbCircle
 10
5.011542199067805
 20
1.904402955623561
 30
0.0
 40
1.186133545222102
100
AcDbArc
 50
8.671450176336856
 51
173.9031639436409
  0
ARC
  5
701
330
1F
100
AcDbEntity
  8
0
100
AcDbCircle
 10
5.011542199067805
 20
1.904402955623561
 30
0.0
 40
1.000314963707728
100
AcDbArc
 50
11.67346815248442
 51
171.7593802561096
  0
CIRCLE
  5
AF
330
1F
100
AcDbEntity
  8
0
100
AcDbCircle
 10
5.011542199067805
 20
1.904402955623561
 30
0.0
 40
0.449980146562799
  0
CIRCLE
  5
B0
330
1F
100
AcDbEntity
  8
0
100
AcDbCircle
 10
5.011542199067805
 20
1.904402955623561
 30
0.0
 40
0.4978839762135725
  0
ARC
  5
B1
330
1F
100
AcDbEntity
  8
0
100
AcDbCircle
 10
5.011542199067805
 20
1.904402955623561
 30
0.0
 40
0.5272189950310796
100
AcDbArc
 50
8.959131819258694
 51
351.0408681807413
  0
LINE
  5
B6
330
1F
100
AcDbEntity
  8
0
100
AcDbLine
 10
5.532328949210413
 20
1.986506728968529
 30
0.0
 11
5.507260047217283
 21
1.950795506709804
 31
0.0
  0
LINE
  5
B7
330
1F
100
AcDbEntity
  8
0
100
AcDbLine
 10
5.532328949210413
 20
1.822299182278592
 30
0.0
 11
5.507260047217283
 21
1.858010404537318
 31
0.0
  0
CIRCLE
  5
B8
330
1F
100
AcDbEntity
  8
0
100
AcDbCircle
 10
5.011542199067805
 20
1.904402955623561
 30
0.0
 40
0.1772078653368179
  0
CIRCLE
  5
B9
330
1F
100
AcDbEntity
  8
0
100
AcDbCircle
 10
5.011542199067805
 20
2.251412253045536
 30
0.0
 40
0.0689675844116953
  0
CIRCLE
  5
BA
330
1F
100
AcDbEntity
  8
0
100
AcDbCircle
 10
4.838037550356817
 20
2.204921822540381
 30
0.0
 40
0.0689675844116953
  0
CIRCLE
  5
BB
330
1F
100
AcDbEntity
  8
0
100
AcDbCircle
 10
4.711023332150986
 20
2.077907604334548
 30
0.0
 40
0.0689675844116953
  0
CIRCLE
  5
BC
330
1F
100
AcDbEntity
  8
0
100
AcDbCircle
 10
4.66453290164583
 20
1.904402955623561
 30
0.0
 40
0.0689675844116953
  0
CIRCLE
  5
BD
330
1F
100
AcDbEntity
  8
0
100
AcDbCircle
 10
4.711023332150986
 20
1.730898306912574
 30
0.0
 40
0.0689675844116953
  0
CIRCLE
  5
C2
330
1F
100
AcDbEntity
  8
0
100
AcDbCircle
 10
5.358551496489781
 20
1.904402955623561
 30
0.0
 40
0.0689675844116953
  0
CIRCLE
  5
C3
330
1F
100
AcDbEntity
  8
0
100
AcDbCircle
 10
5.312061065984625
 20
2.077907604334548
 30
0.0
 40
0.0689675844116953
  0
CIRCLE
  5
C4
330
1F
100
AcDbEntity
  8
0
100
AcDbCircle
 10
5.185046847778792
 20
2.204921822540382
 30
0.0
 40
0.0689675844116953
  0
CIRCLE
  5
CC
330
1F
100
AcDbEntity
  8
0
100
AcDbCircle
 10
4.838037550356817
 20
2.204921822540381
 30
0.0
 40
0.0878882851411555
  0
CIRCLE
  5
CD
330
1F
100
AcDbEntity
  8
0
100
AcDbCircle
 10
5.011542199067805
 20
2.251412253045536
 30
0.0
 40
0.0878882851411555
  0
CIRCLE
  5
CE
330
1F
100
AcDbEntity
  8
0
100
AcDbCircle
 10
4.711023332150986
 20
2.077907604334548
 30
0.0
 40
0.0878882851411555
  0
CIRCLE
  5
CF
330
1F
100
AcDbEntity
  8
0
100
AcDbCircle
 10
5.185046847778792
 20
2.204921822540382
 30
0.0
 40
0.0878882851411555
  0
CIRCLE
  5
D0
330
1F
100
AcDbEntity
  8
0
100
AcDbCircle
 10
4.66453290164583
 20
1.904402955623561
 30
0.0
 40
0.0878882851411555
  0
CIRCLE
  5
D1
330
1F
100
AcDbEntity
  8
0
100
AcDbCircle
 10
4.711023332150986
 20
1.730898306912574
 30
0.0
 40
0.0878882851411555
  0
ARC
  5
D2
330
1F
100
AcDbEntity
  8
0
100
AcDbCircle
 10
4.838037550356819
 20
1.603884088706741
 30
0.0
 40
0.0878882851411555
100
AcDbArc
 50
81.32099099327633
 51
38.67900900672377
  0
ARC
  5
D3
330
1F
100
AcDbEntity
  8
0
100
AcDbCircle
 10
5.011542199067804
 20
1.557393658201585
 30
0.0
 40
0.0878882851411555
100
AcDbArc
 50
111.3209909932762
 51
68.67900900672376
  0
ARC
  5
D4
330
1F
100
AcDbEntity
  8
0
100
AcDbCircle
 10
5.185046847778792
 20
1.60388408870674
 30
0.0
 40
0.0878882851411555
100
AcDbArc
 50
141.325449911895
 51
98.70517484332895
  0
ARC
  5
D5
330
1F
100
AcDbEntity
  8
0
100
AcDbCircle
 10
5.312061065984625
 20
1.730898306912573
 30
0.0
 40
0.0878882851411555
100
AcDbArc
 50
171.3209909932754
 51
128.6790090067224
  0
CIRCLE
  5
D6
330
1F
100
AcDbEntity
  8
0
100
AcDbCircle
 10
5.358551496489781
 20
1.904402955623561
 30
0.0
 40
0.0878882851411555
  0
CIRCLE
  5
D7
330
1F
100
AcDbEntity
  8
0
100
AcDbCircle
 10
5.312061065984625
 20
2.077907604334548
 30
0.0
 40
0.0878882851411555
  0
CIRCLE
  5
D8
330
1F
100
AcDbEntity
  8
0
100
AcDbCircle
 10
4.711023332150986
 20
1.730898306912574
 30
0.0
 40
0.0353888488084991
  0
CIRCLE
  5
DD
330
1F
100
AcDbEntity
  8
0
100
AcDbCircle
 10
5.358551496489781
 20
1.904402955623561
 30
0.0
 40
0.0353888488084991
  0
CIRCLE
  5
DE
330
1F
100
AcDbEntity
  8
0
100
AcDbCircle
 10
5.312061065984623
 20
2.077907604334547
 30
0.0
 40
0.0353888488084991
  0
CIRCLE
  5
DF
330
1F
100
AcDbEntity
  8
0
100
AcDbCircle
 10
5.185046847778792
 20
2.204921822540379
 30
0.0
 40
0.0353888488084991
  0
CIRCLE
  5
E0
330
1F
100
AcDbEntity
  8
0
100
AcDbCircle
 10
5.011542199067805
 20
2.251412253045534
 30
0.0
 40
0.0353888488084991
  0
CIRCLE
  5
E1
330
1F
100
AcDbEntity
  8
0
100
AcDbCircle
 10
4.838037550356819
 20
2.20492182254038
 30
0.0
 40
0.0353888488084991
  0
CIRCLE
  5
E2
330
1F
100
AcDbEntity
  8
0
100
AcDbCircle
 10
4.711023332150986
 20
2.077907604334548
 30
0.0
 40
0.0353888488084991
  0
CIRCLE
  5
E3
330
1F
100
AcDbEntity
  8
0
100
AcDbCircle
 10
4.664532901645832
 20
1.904402955623561
 30
0.0
 40
0.0353888488084991
  0
ARC
  5
E6
330
1F
100
AcDbEntity
  8
0
100
AcDbCircle
 10
4.881981692927396
 20
1.679997576334032
 30
0.0
 40
0.0325167452920748
100
AcDbArc
 50
319.3395045033614
 51
160.6604954966383
  0
ARC
  5
E7
330
1F
100
AcDbEntity
  8
0
100
AcDbCircle
 10
5.011542199067804
 20
1.645281943342741
 30
0.0
 40
0.0325167452920748
100
AcDbArc
 50
349.3395045033618
 51
190.6604954966382
  0
LINE
  5
E8
330
1F
100
AcDbEntity
  8
0
100
AcDbLine
 10
0.0
 20
3.683822178918704
 30
0.0
 11
10.5
 21
3.683822178918703
 31
0.0
  0
LINE
  5
E9
330
1F
100
AcDbEntity
  8
0
100
AcDbLine
 10
0.0
 20
3.284198362867354
 30
0.0
 11
10.5
 21
3.284198362867354
 31
0.0
  0
ARC
  5
EA
330
1F
100
AcDbEntity
  8
0
100
AcDbCircle
 10
1.058338291499163
 20
7.502233988399631
 30
0.0
 40
0.2288441919398957
100
AcDbArc
 50
37.82459241652744
 51
247.1215881442038
  0
ARC
  5
EB
330
1F
100
AcDbEntity
  8
0
100
AcDbCircle
 10
0.9117130656219827
 20
7.012249524288507
 30
0.0
 40
0.285035114116896
100
AcDbArc
 50
78.32988576137923
 51
294.3662260059739
  0
ARC
  5
EC
330
1F
100
AcDbEntity
  8
0
100
AcDbCircle
 10
1.239100457858507
 20
6.677883860414703
 30
0.0
 40
0.2227000893294359
100
AcDbArc
 50
160.3960716833022
 51
19.6039283166987
  0
ARC
  5
ED
330
1F
100
AcDbEntity
  8
0
100
AcDbCircle
 10
1.688428488936574
 20
6.812468796193775
 30
0.0
 40
0.2469044092031281
100
AcDbArc
 50
194.0320197727585
 51
75.89637345113806
  0
ARC
  5
EE
330
1F
100
AcDbEntity
  8
0
100
AcDbCircle
 10
1.728846938248972
 20
7.293163501044889
 30
0.0
 40
0.2420396629408486
100
AcDbArc
 50
274.6795639353235
 51
107.6701576344381
  0
ARC
  5
EF
330
1F
100
AcDbEntity
  8
0
100
AcDbCircle
 10
1.450283836666561
 20
7.593845461206802
 30
0.0
 40
0.2167318072706948
100
AcDbArc
 50
341.1395086675648
 51
167.0075160340217
  0
ARC
  5
F0
330
1F
100
AcDbEntity
  8
0
100
AcDbCircle
 10
2.771726908950071
 20
6.221576854072033
 30
0.0
 40
0.1215753392843428
100
AcDbArc
 50
194.0320197727585
 51
75.89637345113806
  0
ARC
  5
F1
330
1F
100
AcDbEntity
  8
0
100
AcDbCircle
 10
2.389273467062905
 20
6.319948567558153
 30
0.0
 40
0.1403508378750896
100
AcDbArc
 50
78.32988576137923
 51
294.3662260059739
  0
ARC
  5
F2
330
1F
100
AcDbEntity
  8
0
100
AcDbCircle
 10
2.550478499476184
 20
6.155307445264348
 30
0.0
 40
0.1096571705878495
100
AcDbArc
 50
160.3960716833022
 51
19.6039283166987
  0
ARC
  5
F3
330
1F
100
AcDbEntity
  8
0
100
AcDbCircle
 10
2.461471495608423
 20
6.561216140140703
 30
0.0
 40
0.1126825169632961
100
AcDbArc
 50
37.82459241652744
 51
247.1215881442038
  0
ARC
  5
F4
330
1F
100
AcDbEntity
  8
0
100
AcDbCircle
 10
2.791628889252331
 20
6.458270163936671
 30
0.0
 40
0.1191799459445572
100
AcDbArc
 50
274.6795639353235
 51
107.6701576344381
  0
ARC
  5
F5
330
1F
100
AcDbEntity
  8
0
100
AcDbCircle
 10
2.654464860078924
 20
6.606325483974684
 30
0.0
 40
0.1067183979730634
100
AcDbArc
 50
341.1395086675648
 51
167.0075160340217
  0
ARC
  5
F6
330
1F
100
AcDbEntity
  8
0
100
AcDbCircle
 10
0.5653811660516617
 20
5.841480362838681
 30
0.0
 40
0.1403508378750896
100
AcDbArc
 50
78.32988576137923
 51
294.3662260059739
  0
ARC
  5
F7
330
1F
100
AcDbEntity
  8
0
100
AcDbCircle
 10
0.9478346079388271
 20
5.74310864935256
 30
0.0
 40
0.1215753392843428
100
AcDbArc
 50
194.0320197727585
 51
75.89637345113806
  0
ARC
  5
F8
330
1F
100
AcDbEntity
  8
0
100
AcDbCircle
 10
0.7265861984649407
 20
5.676839240544874
 30
0.0
 40
0.1096571705878495
100
AcDbArc
 50
160.3960716833022
 51
19.6039283166987
  0
ARC
  5
F9
330
1F
100
AcDbEntity
  8
0
100
AcDbCircle
 10
0.8305725590676809
 20
6.127857279255212
 30
0.0
 40
0.1067183979730634
100
AcDbArc
 50
341.1395086675648
 51
167.0075160340217
  0
ARC
  5
FA
330
1F
100
AcDbEntity
  8
0
100
AcDbCircle
 10
0.9677365882410869
 20
5.979801959217197
 30
0.0
 40
0.1191799459445572
100
AcDbArc
 50
274.6795639353235
 51
107.6701576344381
  0
ARC
  5
FB
330
1F
100
AcDbEntity
  8
0
100
AcDbCircle
 10
0.6375791945971792
 20
6.082747935421229
 30
0.0
 40
0.1126825169632961
100
AcDbArc
 50
37.82459241652744
 51
247.1215881442038
  0
ARC
  5
FC
330
1F
100
AcDbEntity
  8
0
100
AcDbCircle
 10
2.757605599932197
 20
5.316661095214219
 30
0.0
 40
0.1403508378750896
100
AcDbArc
 50
78.32988576137923
 51
294.3662260059739
  0
ARC
  5
FD
330
1F
100
AcDbEntity
  8
0
100
AcDbCircle
 10
3.022796992948216
 20
5.603038011630749
 30
0.0
 40
0.1067183979730634
100
AcDbArc
 50
341.1395086675648
 51
167.0075160340217
  0
ARC
  5
FE
330
1F
100
AcDbEntity
  8
0
100
AcDbCircle
 10
3.159961022121622
 20
5.454982691592736
 30
0.0
 40
0.1191799459445572
100
AcDbArc
 50
274.6795639353235
 51
107.6701576344381
  0
ARC
  5
FF
330
1F
100
AcDbEntity
  8
0
100
AcDbCircle
 10
2.829803628477714
 20
5.557928667796768
 30
0.0
 40
0.1126825169632961
100
AcDbArc
 50
37.82459241652744
 51
247.1215881442038
  0
ARC
  5
100
330
1F
100
AcDbEntity
  8
0
100
AcDbCircle
 10
3.140059041819362
 20
5.218289381728098
 30
0.0
 40
0.1215753392843428
100
AcDbArc
 50
194.0320197727585
 51
75.89637345113806
  0
ARC
  5
101
330
1F
100
AcDbEntity
  8
0
100
AcDbCircle
 10
2.918810632345476
 20
5.152019972920413
 30
0.0
 40
0.1096571705878495
100
AcDbArc
 50
160.3960716833022
 51
19.6039283166987
  0
ARC
  5
102
330
1F
100
AcDbEntity
  8
0
100
AcDbCircle
 10
4.221218769781706
 20
5.72220042563508
 30
0.0
 40
0.1215753392843428
100
AcDbArc
 50
194.0320197727585
 51
75.89637345113806
  0
ARC
  5
103
330
1F
100
AcDbEntity
  8
0
100
AcDbCircle
 10
4.241120750083966
 20
5.958893735499718
 30
0.0
 40
0.1191799459445572
100
AcDbArc
 50
274.6795639353235
 51
107.6701576344381
  0
ARC
  5
104
330
1F
100
AcDbEntity
  8
0
100
AcDbCircle
 10
3.99997036030782
 20
5.655931016827394
 30
0.0
 40
0.1096571705878495
100
AcDbArc
 50
160.3960716833022
 51
19.6039283166987
  0
ARC
  5
105
330
1F
100
AcDbEntity
  8
0
100
AcDbCircle
 10
3.910963356440058
 20
6.061839711703749
 30
0.0
 40
0.1126825169632961
100
AcDbArc
 50
37.82459241652744
 51
247.1215881442038
  0
ARC
  5
106
330
1F
100
AcDbEntity
  8
0
100
AcDbCircle
 10
3.838765327894541
 20
5.8205721391212
 30
0.0
 40
0.1403508378750896
100
AcDbArc
 50
78.32988576137923
 51
294.3662260059739
  0
ARC
  5
107
330
1F
100
AcDbEntity
  8
0
100
AcDbCircle
 10
4.10395672091056
 20
6.106949055537731
 30
0.0
 40
0.1067183979730634
100
AcDbArc
 50
341.1395086675648
 51
167.0075160340217
  0
ARC
  5
108
330
1F
100
AcDbEntity
  8
0
100
AcDbCircle
 10
4.608497924585521
 20
7.690669479245384
 30
0.0
 40
0.1067183979730634
100
AcDbArc
 50
341.1395086675648
 51
167.0075160340217
  0
ARC
  5
109
330
1F
100
AcDbEntity
  8
0
100
AcDbCircle
 10
4.745661953758927
 20
7.542614159207371
 30
0.0
 40
0.1191799459445572
100
AcDbArc
 50
274.6795639353235
 51
107.6701576344381
  0
ARC
  5
10A
330
1F
100
AcDbEntity
  8
0
100
AcDbCircle
 10
4.725759973456667
 20
7.305920849342733
 30
0.0
 40
0.1215753392843428
100
AcDbArc
 50
194.0320197727585
 51
75.89637345113806
  0
ARC
  5
10B
330
1F
100
AcDbEntity
  8
0
100
AcDbCircle
 10
4.343306531569501
 20
7.404292562828854
 30
0.0
 40
0.1403508378750896
100
AcDbArc
 50
78.32988576137923
 51
294.3662260059739
  0
ARC
  5
10C
330
1F
100
AcDbEntity
  8
0
100
AcDbCircle
 10
4.504511563982781
 20
7.239651440535048
 30
0.0
 40
0.1096571705878495
100
AcDbArc
 50
160.3960716833022
 51
19.6039283166987
  0
ARC
  5
10D
330
1F
100
AcDbEntity
  8
0
100
AcDbCircle
 10
4.41550456011502
 20
7.645560135411403
 30
0.0
 40
0.1126825169632961
100
AcDbArc
 50
37.82459241652744
 51
247.1215881442038
  0
ARC
  5
10E
330
1F
100
AcDbEntity
  8
0
100
AcDbCircle
 10
6.356958782706393
 20
5.754905758913464
 30
0.0
 40
0.1494057571622887
100
AcDbArc
 50
341.1395086675648
 51
167.0075160340217
  0
ARC
  5
10F
330
1F
100
AcDbEntity
  8
0
100
AcDbCircle
 10
6.548988423549162
 20
5.547628310860246
 30
0.0
 40
0.1668519243223801
100
AcDbArc
 50
274.6795639353235
 51
107.6701576344381
  0
ARC
  5
110
330
1F
100
AcDbEntity
  8
0
100
AcDbCircle
 10
6.521125651125997
 20
5.216257677049752
 30
0.0
 40
0.1702054749980799
100
AcDbArc
 50
194.0320197727585
 51
75.89637345113806
  0
ARC
  5
111
330
1F
100
AcDbEntity
  8
0
100
AcDbCircle
 10
5.985690832483965
 20
5.35397807593032
 30
0.0
 40
0.1964911730251254
100
AcDbArc
 50
78.32988576137923
 51
294.3662260059739
  0
ARC
  5
112
330
1F
100
AcDbEntity
  8
0
100
AcDbCircle
 10
6.211377877862557
 20
5.123480504718993
 30
0.0
 40
0.1535200388229893
100
AcDbArc
 50
160.3960716833022
 51
19.6039283166987
  0
ARC
  5
113
330
1F
100
AcDbEntity
  8
0
100
AcDbCircle
 10
6.086768072447692
 20
5.691752677545889
 30
0.0
 40
0.1577555237486146
100
AcDbArc
 50
37.82459241652744
 51
247.1215881442038
  0
ARC
  5
114
330
1F
100
AcDbEntity
  8
0
100
AcDbCircle
 10
5.985533044380594
 20
6.497633863406508
 30
0.0
 40
0.1975235273625025
100
AcDbArc
 50
194.0320197727585
 51
75.89637345113806
  0
ARC
  5
115
330
1F
100
AcDbEntity
  8
0
100
AcDbCircle
 10
5.364160705728921
 20
6.657458445882293
 30
0.0
 40
0.2280280912935168
100
AcDbArc
 50
78.32988576137923
 51
294.3662260059739
  0
ARC
  5
116
330
1F
100
AcDbEntity
  8
0
100
AcDbCircle
 10
5.62607061951814
 20
6.38996591478325
 30
0.0
 40
0.1781600714635487
100
AcDbArc
 50
160.3960716833022
 51
19.6039283166987
  0
ARC
  5
117
330
1F
100
AcDbEntity
  8
0
100
AcDbCircle
 10
5.481460886430664
 20
7.049446017171193
 30
0.0
 40
0.1830753535519166
100
AcDbArc
 50
37.82459241652744
 51
247.1215881442038
  0
ARC
  5
118
330
1F
100
AcDbEntity
  8
0
100
AcDbCircle
 10
6.017867803830512
 20
6.882189627287399
 30
0.0
 40
0.1936317303526788
100
AcDbArc
 50
274.6795639353235
 51
107.6701576344381
  0
ARC
  5
119
330
1F
100
AcDbEntity
  8
0
100
AcDbCircle
 10
5.795017322564583
 20
7.12273519541693
 30
0.0
 40
0.1733854458165558
100
AcDbArc
 50
341.1395086675648
 51
167.0075160340217
  0
ARC
  5
11A
330
1F
100
AcDbEntity
  8
0
100
AcDbCircle
 10
7.905379557631868
 20
6.628394550808356
 30
0.0
 40
0.2241698236508897
100
AcDbArc
 50
274.6795639353235
 51
107.6701576344381
  0
ARC
  5
11B
330
1F
100
AcDbEntity
  8
0
100
AcDbCircle
 10
7.867945210944576
 20
6.183189637253649
 30
0.0
 40
0.2286754046720798
100
AcDbArc
 50
194.0320197727585
 51
75.89637345113806
  0
ARC
  5
11C
330
1F
100
AcDbEntity
  8
0
100
AcDbCircle
 10
7.148574850914328
 20
6.368220512118102
 30
0.0
 40
0.2639909116115042
100
AcDbArc
 50
78.32988576137923
 51
294.3662260059739
  0
ARC
  5
11D
330
1F
100
AcDbEntity
  8
0
100
AcDbCircle
 10
7.451791163032239
 20
6.058541135627558
 30
0.0
 40
0.2062580948322404
100
AcDbArc
 50
160.3960716833022
 51
19.6039283166987
  0
ARC
  5
11E
330
1F
100
AcDbEntity
  8
0
100
AcDbCircle
 10
7.647382828506381
 20
6.906877098526053
 30
0.0
 40
0.2007304522948529
100
AcDbArc
 50
341.1395086675648
 51
167.0075160340217
  0
ARC
  5
11F
330
1F
100
AcDbEntity
  8
0
100
AcDbCircle
 10
7.284374705484825
 20
6.822029320050172
 30
0.0
 40
0.2119485770529843
100
AcDbArc
 50
37.82459241652744
 51
247.1215881442038
  0
CIRCLE
  5
12C
330
1F
100
AcDbEntity
  8
0
  6
PHANTOM2
100
AcDbCircle
 10
9.230651946734788
 20
4.446255669089066
 30
0.0
 40
0.7415954095972164
  0
LINE
  5
12E
330
1F
100
AcDbEntity
  8
0
100
AcDbLine
 10
8.944884189602929
 20
5.130580548455211
 30
0.0
 11
4.488432475967629
 21
3.150016532175721
 31
0.0
  0
LINE
  5
12F
330
1F
100
AcDbEntity
  8
0
100
AcDbLine
 10
9.742057350551661
 20
3.909200490841464
 30
0.0
 11
5.720743876644105
 21
0.7545203768286783
 31
0.0
  0
CIRCLE
  5
131
330
1F
100
AcDbEntity
  8
0
100
AcDbCircle
 10
9.230651946734788
 20
4.446255669089066
 30
0.0
 40
0.0945455607208172
  0
CIRCLE
  5
132
330
1F
100
AcDbEntity
  8
0
100
AcDbCircle
 10
9.070316372882965
 20
4.353685882365043
 30
0.0
 40
0.0468909615477163
  0
CIRCLE
  5
133
330
1F
100
AcDbEntity
  8
0
100
AcDbCircle
 10
9.045512373286744
 20
4.446255669089066
 30
0.0
 40
0.0468909615477163
  0
CIRCLE
  5
134
330
1F
100
AcDbEntity
  8
0
100
AcDbCircle
 10
9.415791520182838
 20
4.446255669089066
 30
0.0
 40
0.0468909615477163
  0
ARC
  5
135
330
1F
100
AcDbEntity
  8
0
100
AcDbCircle
 10
9.390987520586615
 20
4.353685882365042
 30
0.0
 40
0.0468909615477163
100
AcDbArc
 50
163.7867423683548
 51
121.1447603818015
  0
ARC
  5
136
330
1F
100
AcDbEntity
  8
0
100
AcDbCircle
 10
9.230651946734788
 20
4.446255669089066
 30
0.0
 40
0.2812866991718272
100
AcDbArc
 50
8.959131819258694
 51
351.0408681807413
  0
CIRCLE
  5
137
330
1F
100
AcDbEntity
  8
0
100
AcDbCircle
 10
9.230651946734788
 20
4.446255669089066
 30
0.0
 40
0.2656356116899857
  0
CIRCLE
  5
138
330
1F
100
AcDbEntity
  8
0
100
AcDbCircle
 10
9.230651946734788
 20
4.446255669089066
 30
0.0
 40
0.2400775224573296
  0
CIRCLE
  5
139
330
1F
100
AcDbEntity
  8
0
100
AcDbCircle
 10
9.230651946734788
 20
4.446255669089066
 30
0.0
 40
0.6328368151698214
  0
CIRCLE
  5
13A
330
1F
100
AcDbEntity
  8
0
100
AcDbCircle
 10
9.230651946734788
 20
4.446255669089066
 30
0.0
 40
0.5336971864167109
  0
ARC
  5
13C
330
1F
100
AcDbEntity
  8
0
100
AcDbCircle
 10
9.323221733458814
 20
4.285920095237242
 30
0.0
 40
0.0468909615477163
100
AcDbArc
 50
139.1032816359979
 51
96.46129964944637
  0
CIRCLE
  5
13E
330
1F
100
AcDbEntity
  8
0
100
AcDbCircle
 10
9.070316372882965
 20
4.353685882365043
 30
0.0
 40
0.0367962162817683
  0
ARC
  5
13F
330
1F
100
AcDbEntity
  8
0
100
AcDbCircle
 10
9.138082160010768
 20
4.285920095237242
 30
0.0
 40
0.0468909615477163
100
AcDbArc
 50
81.32099099327633
 51
38.67900900672377
  0
CIRCLE
  5
140
330
1F
100
AcDbEntity
  8
0
100
AcDbCircle
 10
9.070316372882965
 20
4.353685882365043
 30
0.0
 40
0.0188809822154582
  0
ARC
  5
141
330
1F
100
AcDbEntity
  8
0
100
AcDbCircle
 10
9.230651946734788
 20
4.308007057188735
 30
0.0
 40
0.0173486312845757
100
AcDbArc
 50
349.3395045033618
 51
190.6604954966382
  0
ARC
  5
142
330
1F
100
AcDbEntity
  8
0
100
AcDbCircle
 10
9.230651946734788
 20
4.261116095641018
 30
0.0
 40
0.0468909615477163
100
AcDbArc
 50
111.3209909932762
 51
68.67900900672376
  0
ARC
  5
143
330
1F
100
AcDbEntity
  8
0
100
AcDbCircle
 10
9.161527640784625
 20
4.326528859145444
 30
0.0
 40
0.0173486312845757
100
AcDbArc
 50
319.3395045033614
 51
160.6604954966383
  0
CIRCLE
  5
147
330
1F
100
AcDbEntity
  8
0
100
AcDbCircle
 10
9.323221733458814
 20
4.60659124294089
 30
0.0
 40
0.0468909615477163
  0
CIRCLE
  5
148
330
1F
100
AcDbEntity
  8
0
100
AcDbCircle
 10
9.323221733458814
 20
4.60659124294089
 30
0.0
 40
0.0367962162817683
  0
CIRCLE
  5
149
330
1F
100
AcDbEntity
  8
0
100
AcDbCircle
 10
9.390987520586615
 20
4.53882545581309
 30
0.0
 40
0.0468909615477163
  0
CIRCLE
  5
14A
330
1F
100
AcDbEntity
  8
0
100
AcDbCircle
 10
9.070316372882965
 20
4.53882545581309
 30
0.0
 40
0.0367962162817683
  0
CIRCLE
  5
14B
330
1F
100
AcDbEntity
  8
0
100
AcDbCircle
 10
9.070316372882965
 20
4.53882545581309
 30
0.0
 40
0.0468909615477163
  0
CIRCLE
  5
14C
330
1F
100
AcDbEntity
  8
0
100
AcDbCircle
 10
9.138082160010764
 20
4.60659124294089
 30
0.0
 40
0.0468909615477163
  0
CIRCLE
  5
14D
330
1F
100
AcDbEntity
  8
0
100
AcDbCircle
 10
9.045512373286744
 20
4.446255669089066
 30
0.0
 40
0.0188809822154582
  0
CIRCLE
  5
14E
330
1F
100
AcDbEntity
  8
0
100
AcDbCircle
 10
9.045512373286744
 20
4.446255669089066
 30
0.0
 40
0.0367962162817683
  0
CIRCLE
  5
14F
330
1F
100
AcDbEntity
  8
0
100
AcDbCircle
 10
9.070316372882965
 20
4.53882545581309
 30
0.0
 40
0.0188809822154582
  0
CIRCLE
  5
150
330
1F
100
AcDbEntity
  8
0
100
AcDbCircle
 10
9.323221733458814
 20
4.606591242940889
 30
0.0
 40
0.0188809822154582
  0
CIRCLE
  5
151
330
1F
100
AcDbEntity
  8
0
100
AcDbCircle
 10
9.230651946734788
 20
4.631395242537113
 30
0.0
 40
0.0468909615477163
  0
CIRCLE
  5
152
330
1F
100
AcDbEntity
  8
0
100
AcDbCircle
 10
9.230651946734788
 20
4.631395242537113
 30
0.0
 40
0.0367962162817683
  0
CIRCLE
  5
153
330
1F
100
AcDbEntity
  8
0
100
AcDbCircle
 10
9.138082160010764
 20
4.60659124294089
 30
0.0
 40
0.0367962162817683
  0
CIRCLE
  5
154
330
1F
100
AcDbEntity
  8
0
100
AcDbCircle
 10
9.138082160010768
 20
4.606591242940889
 30
0.0
 40
0.0188809822154582
  0
CIRCLE
  5
155
330
1F
100
AcDbEntity
  8
0
100
AcDbCircle
 10
9.230651946734788
 20
4.631395242537112
 30
0.0
 40
0.0188809822154582
  0
CIRCLE
  5
156
330
1F
100
AcDbEntity
  8
0
100
AcDbCircle
 10
9.415791520182838
 20
4.446255669089066
 30
0.0
 40
0.0188809822154582
  0
CIRCLE
  5
157
330
1F
100
AcDbEntity
  8
0
100
AcDbCircle
 10
9.415791520182838
 20
4.446255669089066
 30
0.0
 40
0.0367962162817683
  0
CIRCLE
  5
158
330
1F
100
AcDbEntity
  8
0
100
AcDbCircle
 10
9.390987520586611
 20
4.538825455813089
 30
0.0
 40
0.0188809822154582
  0
CIRCLE
  5
159
330
1F
100
AcDbEntity
  8
0
100
AcDbCircle
 10
9.390987520586615
 20
4.53882545581309
 30
0.0
 40
0.0367962162817683
  0
LINE
  5
15A
330
1F
100
AcDbEntity
  8
0
100
AcDbLine
 10
9.508506855796634
 20
4.402450913169001
 30
0.0
 11
9.495131865972729
 21
4.42150389101544
 31
0.0
  0
LINE
  5
15B
330
1F
100
AcDbEntity
  8
0
100
AcDbLine
 10
9.508506855796634
 20
4.49006042500913
 30
0.0
 11
9.495131865972729
 21
4.471007447162692
 31
0.0
  0
CIRCLE
  5
189
330
1F
100
AcDbEntity
  8
0
100
AcDbCircle
 10
4.998582782427851
 20
4.285920095237242
 30
0.0
 40
0.0468909615477163
  0
CIRCLE
  5
18A
330
1F
100
AcDbEntity
  8
0
100
AcDbCircle
 10
4.998582782427851
 20
4.285920095237242
 30
0.0
 40
0.0367962162817683
  0
CIRCLE
  5
18D
330
1F
100
AcDbEntity
  8
0
100
AcDbCircle
 10
4.745677421852003
 20
4.353685882365043
 30
0.0
 40
0.0468909615477163
  0
CIRCLE
  5
18E
330
1F
100
AcDbEntity
  8
0
100
AcDbCircle
 10
5.066348569555652
 20
4.353685882365042
 30
0.0
 40
0.0468909615477163
  0
ARC
  5
18F
330
1F
100
AcDbEntity
  8
0
100
AcDbCircle
 10
4.906012995703826
 20
4.446255669089066
 30
0.0
 40
0.2812866991718272
100
AcDbArc
 50
8.959131819258694
 51
351.0408681807413
  0
CIRCLE
  5
190
330
1F
100
AcDbEntity
  8
0
100
AcDbCircle
 10
4.906012995703826
 20
4.446255669089066
 30
0.0
 40
0.2656356116899857
  0
CIRCLE
  5
191
330
1F
100
AcDbEntity
  8
0
100
AcDbCircle
 10
4.906012995703826
 20
4.446255669089066
 30
0.0
 40
0.2400775224573296
  0
CIRCLE
  5
192
330
1F
100
AcDbEntity
  8
0
100
AcDbCircle
 10
4.906012995703826
 20
4.446255669089066
 30
0.0
 40
0.6328368151698214
  0
CIRCLE
  5
193
330
1F
100
AcDbEntity
  8
0
100
AcDbCircle
 10
4.906012995703826
 20
4.446255669089066
 30
0.0
 40
0.5336971864167109
  0
CIRCLE
  5
195
330
1F
100
AcDbEntity
  8
0
100
AcDbCircle
 10
4.998582782427849
 20
4.285920095237242
 30
0.0
 40
0.0188809822154582
  0
CIRCLE
  5
196
330
1F
100
AcDbEntity
  8
0
100
AcDbCircle
 10
4.998582782427851
 20
4.60659124294089
 30
0.0
 40
0.0468909615477163
  0
CIRCLE
  5
197
330
1F
100
AcDbEntity
  8
0
100
AcDbCircle
 10
4.906012995703826
 20
4.446255669089066
 30
0.0
 40
0.0945455607208172
  0
CIRCLE
  5
198
330
1F
100
AcDbEntity
  8
0
100
AcDbCircle
 10
4.906012995703826
 20
4.631395242537113
 30
0.0
 40
0.0468909615477163
  0
CIRCLE
  5
199
330
1F
100
AcDbEntity
  8
0
100
AcDbCircle
 10
4.720873422255782
 20
4.446255669089066
 30
0.0
 40
0.0188809822154582
  0
CIRCLE
  5
19A
330
1F
100
AcDbEntity
  8
0
100
AcDbCircle
 10
4.720873422255782
 20
4.446255669089066
 30
0.0
 40
0.0367962162817683
  0
CIRCLE
  5
19B
330
1F
100
AcDbEntity
  8
0
100
AcDbCircle
 10
4.720873422255782
 20
4.446255669089066
 30
0.0
 40
0.0468909615477163
  0
CIRCLE
  5
19C
330
1F
100
AcDbEntity
  8
0
100
AcDbCircle
 10
4.745677421852003
 20
4.53882545581309
 30
0.0
 40
0.0468909615477163
  0
CIRCLE
  5
19D
330
1F
100
AcDbEntity
  8
0
100
AcDbCircle
 10
4.745677421852003
 20
4.53882545581309
 30
0.0
 40
0.0367962162817683
  0
CIRCLE
  5
19E
330
1F
100
AcDbEntity
  8
0
100
AcDbCircle
 10
4.745677421852003
 20
4.353685882365043
 30
0.0
 40
0.0367962162817683
  0
CIRCLE
  5
19F
330
1F
100
AcDbEntity
  8
0
100
AcDbCircle
 10
4.745677421852003
 20
4.353685882365043
 30
0.0
 40
0.0188809822154582
  0
CIRCLE
  5
1A0
330
1F
100
AcDbEntity
  8
0
100
AcDbCircle
 10
4.813443208979802
 20
4.60659124294089
 30
0.0
 40
0.0468909615477163
  0
CIRCLE
  5
1A1
330
1F
100
AcDbEntity
  8
0
100
AcDbCircle
 10
4.813443208979802
 20
4.60659124294089
 30
0.0
 40
0.0367962162817683
  0
CIRCLE
  5
1A2
330
1F
100
AcDbEntity
  8
0
100
AcDbCircle
 10
4.813443208979805
 20
4.606591242940889
 30
0.0
 40
0.0188809822154582
  0
CIRCLE
  5
1A3
330
1F
100
AcDbEntity
  8
0
100
AcDbCircle
 10
4.745677421852003
 20
4.53882545581309
 30
0.0
 40
0.0188809822154582
  0
CIRCLE
  5
1A4
330
1F
100
AcDbEntity
  8
0
100
AcDbCircle
 10
4.906012995703826
 20
4.631395242537112
 30
0.0
 40
0.0188809822154582
  0
CIRCLE
  5
1A5
330
1F
100
AcDbEntity
  8
0
100
AcDbCircle
 10
4.906012995703826
 20
4.631395242537113
 30
0.0
 40
0.0367962162817683
  0
CIRCLE
  5
1A6
330
1F
100
AcDbEntity
  8
0
100
AcDbCircle
 10
5.066348569555652
 20
4.53882545581309
 30
0.0
 40
0.0468909615477163
  0
CIRCLE
  5
1A7
330
1F
100
AcDbEntity
  8
0
100
AcDbCircle
 10
5.091152569151875
 20
4.446255669089066
 30
0.0
 40
0.0367962162817683
  0
CIRCLE
  5
1A8
330
1F
100
AcDbEntity
  8
0
100
AcDbCircle
 10
5.091152569151875
 20
4.446255669089066
 30
0.0
 40
0.0468909615477163
  0
CIRCLE
  5
1A9
330
1F
100
AcDbEntity
  8
0
100
AcDbCircle
 10
5.091152569151875
 20
4.446255669089066
 30
0.0
 40
0.0188809822154582
  0
CIRCLE
  5
1AA
330
1F
100
AcDbEntity
  8
0
100
AcDbCircle
 10
5.066348569555652
 20
4.353685882365042
 30
0.0
 40
0.0367962162817683
  0
CIRCLE
  5
1AB
330
1F
100
AcDbEntity
  8
0
100
AcDbCircle
 10
5.066348569555652
 20
4.353685882365042
 30
0.0
 40
0.0188809822154582
  0
LINE
  5
1AC
330
1F
100
AcDbEntity
  8
0
100
AcDbLine
 10
5.183867904765671
 20
4.402450913169001
 30
0.0
 11
5.170492914941766
 21
4.42150389101544
 31
0.0
  0
LINE
  5
1AD
330
1F
100
AcDbEntity
  8
0
100
AcDbLine
 10
5.183867904765671
 20
4.49006042500913
 30
0.0
 11
5.170492914941766
 21
4.471007447162692
 31
0.0
  0
CIRCLE
  5
1AE
330
1F
100
AcDbEntity
  8
0
100
AcDbCircle
 10
5.066348569555648
 20
4.538825455813089
 30
0.0
 40
0.0188809822154582
  0
CIRCLE
  5
1AF
330
1F
100
AcDbEntity
  8
0
100
AcDbCircle
 10
5.066348569555652
 20
4.53882545581309
 30
0.0
 40
0.0367962162817683
  0
CIRCLE
  5
1B0
330
1F
100
AcDbEntity
  8
0
100
AcDbCircle
 10
4.998582782427851
 20
4.60659124294089
 30
0.0
 40
0.0367962162817683
  0
CIRCLE
  5
1B1
330
1F
100
AcDbEntity
  8
0
100
AcDbCircle
 10
4.998582782427851
 20
4.606591242940889
 30
0.0
 40
0.0188809822154582
  0
CIRCLE
  5
1B2
330
1F
100
AcDbEntity
  8
0
100
AcDbCircle
 10
1.446301849096152
 20
4.446255669089066
 30
0.0
 40
0.5336971864167109
  0
CIRCLE
  5
1B3
330
1F
100
AcDbEntity
  8
0
100
AcDbCircle
 10
1.446301849096152
 20
4.446255669089066
 30
0.0
 40
0.6328368151698214
  0
CIRCLE
  5
1B4
330
1F
100
AcDbEntity
  8
0
100
AcDbCircle
 10
1.446301849096152
 20
4.446255669089066
 30
0.0
 40
0.2400775224573296
  0
CIRCLE
  5
1B5
330
1F
100
AcDbEntity
  8
0
100
AcDbCircle
 10
1.446301849096152
 20
4.446255669089066
 30
0.0
 40
0.2656356116899857
  0
ARC
  5
1B6
330
1F
100
AcDbEntity
  8
0
100
AcDbCircle
 10
1.446301849096152
 20
4.446255669089066
 30
0.0
 40
0.2812866991718272
100
AcDbArc
 50
8.959131819258694
 51
351.0408681807413
  0
CIRCLE
  5
1B7
330
1F
100
AcDbEntity
  8
0
100
AcDbCircle
 10
1.606637422947978
 20
4.353685882365042
 30
0.0
 40
0.0468909615477163
  0
CIRCLE
  5
1B8
330
1F
100
AcDbEntity
  8
0
100
AcDbCircle
 10
1.285966275244329
 20
4.353685882365043
 30
0.0
 40
0.0468909615477163
  0
ARC
  5
1BA
330
1F
100
AcDbEntity
  8
0
100
AcDbCircle
 10
1.353732062372131
 20
4.285920095237242
 30
0.0
 40
0.0468909615477163
100
AcDbArc
 50
81.32099099327633
 51
38.67900900672377
  0
CIRCLE
  5
1BB
330
1F
100
AcDbEntity
  8
0
100
AcDbCircle
 10
1.538871635820177
 20
4.285920095237242
 30
0.0
 40
0.0367962162817683
  0
CIRCLE
  5
1BC
330
1F
100
AcDbEntity
  8
0
100
AcDbCircle
 10
1.538871635820177
 20
4.285920095237242
 30
0.0
 40
0.0468909615477163
  0
ARC
  5
1BF
330
1F
100
AcDbEntity
  8
0
100
AcDbCircle
 10
1.446301849096152
 20
4.261116095641018
 30
0.0
 40
0.0468909615477163
100
AcDbArc
 50
111.3209909932762
 51
68.67900900672376
  0
CIRCLE
  5
1C0
330
1F
100
AcDbEntity
  8
0
100
AcDbCircle
 10
1.538871635820175
 20
4.285920095237242
 30
0.0
 40
0.0188809822154582
  0
CIRCLE
  5
1C1
330
1F
100
AcDbEntity
  8
0
100
AcDbCircle
 10
1.606637422947978
 20
4.53882545581309
 30
0.0
 40
0.0367962162817683
  0
CIRCLE
  5
1C2
330
1F
100
AcDbEntity
  8
0
100
AcDbCircle
 10
1.606637422947975
 20
4.538825455813089
 30
0.0
 40
0.0188809822154582
  0
CIRCLE
  5
1C3
330
1F
100
AcDbEntity
  8
0
100
AcDbCircle
 10
1.606637422947978
 20
4.353685882365042
 30
0.0
 40
0.0188809822154582
  0
CIRCLE
  5
1C4
330
1F
100
AcDbEntity
  8
0
100
AcDbCircle
 10
1.606637422947978
 20
4.353685882365042
 30
0.0
 40
0.0367962162817683
  0
CIRCLE
  5
1C5
330
1F
100
AcDbEntity
  8
0
100
AcDbCircle
 10
1.631441422544201
 20
4.446255669089066
 30
0.0
 40
0.0468909615477163
  0
CIRCLE
  5
1C6
330
1F
100
AcDbEntity
  8
0
100
AcDbCircle
 10
1.631441422544201
 20
4.446255669089066
 30
0.0
 40
0.0367962162817683
  0
CIRCLE
  5
1C7
330
1F
100
AcDbEntity
  8
0
100
AcDbCircle
 10
1.606637422947978
 20
4.53882545581309
 30
0.0
 40
0.0468909615477163
  0
CIRCLE
  5
1C8
330
1F
100
AcDbEntity
  8
0
100
AcDbCircle
 10
1.446301849096152
 20
4.631395242537113
 30
0.0
 40
0.0468909615477163
  0
CIRCLE
  5
1C9
330
1F
100
AcDbEntity
  8
0
100
AcDbCircle
 10
1.353732062372131
 20
4.606591242940889
 30
0.0
 40
0.0188809822154582
  0
CIRCLE
  5
1CA
330
1F
100
AcDbEntity
  8
0
100
AcDbCircle
 10
1.353732062372128
 20
4.60659124294089
 30
0.0
 40
0.0367962162817683
  0
CIRCLE
  5
1CB
330
1F
100
AcDbEntity
  8
0
100
AcDbCircle
 10
1.353732062372128
 20
4.60659124294089
 30
0.0
 40
0.0468909615477163
  0
CIRCLE
  5
1CC
330
1F
100
AcDbEntity
  8
0
100
AcDbCircle
 10
1.446301849096152
 20
4.446255669089066
 30
0.0
 40
0.0945455607208172
  0
CIRCLE
  5
1CD
330
1F
100
AcDbEntity
  8
0
100
AcDbCircle
 10
1.285966275244329
 20
4.53882545581309
 30
0.0
 40
0.0468909615477163
  0
CIRCLE
  5
1CE
330
1F
100
AcDbEntity
  8
0
100
AcDbCircle
 10
1.285966275244329
 20
4.353685882365043
 30
0.0
 40
0.0367962162817683
  0
CIRCLE
  5
1CF
330
1F
100
AcDbEntity
  8
0
100
AcDbCircle
 10
1.261162275648108
 20
4.446255669089066
 30
0.0
 40
0.0468909615477163
  0
CIRCLE
  5
1D0
330
1F
100
AcDbEntity
  8
0
100
AcDbCircle
 10
1.261162275648108
 20
4.446255669089066
 30
0.0
 40
0.0367962162817683
  0
CIRCLE
  5
1D1
330
1F
100
AcDbEntity
  8
0
100
AcDbCircle
 10
1.261162275648108
 20
4.446255669089066
 30
0.0
 40
0.0188809822154582
  0
CIRCLE
  5
1D2
330
1F
100
AcDbEntity
  8
0
100
AcDbCircle
 10
1.285966275244329
 20
4.353685882365043
 30
0.0
 40
0.0188809822154582
  0
CIRCLE
  5
1D3
330
1F
100
AcDbEntity
  8
0
100
AcDbCircle
 10
1.285966275244329
 20
4.53882545581309
 30
0.0
 40
0.0367962162817683
  0
CIRCLE
  5
1D4
330
1F
100
AcDbEntity
  8
0
100
AcDbCircle
 10
1.285966275244329
 20
4.53882545581309
 30
0.0
 40
0.0188809822154582
  0
CIRCLE
  5
1D5
330
1F
100
AcDbEntity
  8
0
100
AcDbCircle
 10
1.446301849096152
 20
4.631395242537113
 30
0.0
 40
0.0367962162817683
  0
CIRCLE
  5
1D6
330
1F
100
AcDbEntity
  8
0
100
AcDbCircle
 10
1.446301849096152
 20
4.631395242537112
 30
0.0
 40
0.0188809822154582
  0
CIRCLE
  5
1D7
330
1F
100
AcDbEntity
  8
0
100
AcDbCircle
 10
1.538871635820177
 20
4.606591242940889
 30
0.0
 40
0.0188809822154582
  0
CIRCLE
  5
1D8
330
1F
100
AcDbEntity
  8
0
100
AcDbCircle
 10
1.538871635820177
 20
4.60659124294089
 30
0.0
 40
0.0367962162817683
  0
CIRCLE
  5
1D9
330
1F
100
AcDbEntity
  8
0
100
AcDbCircle
 10
1.538871635820177
 20
4.60659124294089
 30
0.0
 40
0.0468909615477163
  0
LINE
  5
1DA
330
1F
100
AcDbEntity
  8
0
100
AcDbLine
 10
1.724156758157998
 20
4.49006042500913
 30
0.0
 11
1.710781768334092
 21
4.471007447162692
 31
0.0
  0
LINE
  5
1DB
330
1F
100
AcDbEntity
  8
0
100
AcDbLine
 10
1.724156758157998
 20
4.402450913169001
 30
0.0
 11
1.710781768334092
 21
4.42150389101544
 31
0.0
  0
CIRCLE
  5
1DC
330
1F
100
AcDbEntity
  8
0
100
AcDbCircle
 10
1.631441422544201
 20
4.446255669089066
 30
0.0
 40
0.0188809822154582
  0
CIRCLE
  5
1DD
330
1F
100
AcDbEntity
  8
0
100
AcDbCircle
 10
4.906012995703827
 20
4.261116095641018
 30
0.0
 40
0.0468909615477163
  0
CIRCLE
  5
1DE
330
1F
100
AcDbEntity
  8
0
100
AcDbCircle
 10
4.906012995703826
 20
4.261116095641018
 30
0.0
 40
0.0188809822154582
  0
CIRCLE
  5
1DF
330
1F
100
AcDbEntity
  8
0
100
AcDbCircle
 10
4.906012995703827
 20
4.261116095641018
 30
0.0
 40
0.0367962162817683
  0
CIRCLE
  5
1E0
330
1F
100
AcDbEntity
  8
0
100
AcDbCircle
 10
4.813443208979805
 20
4.285920095237242
 30
0.0
 40
0.0468909615477163
  0
CIRCLE
  5
1E1
330
1F
100
AcDbEntity
  8
0
100
AcDbCircle
 10
4.813443208979804
 20
4.285920095237242
 30
0.0
 40
0.0188809822154582
  0
CIRCLE
  5
1E2
330
1F
100
AcDbEntity
  8
0
100
AcDbCircle
 10
4.813443208979805
 20
4.285920095237242
 30
0.0
 40
0.0367962162817683
  0
CIRCLE
  5
1E3
330
1F
100
AcDbEntity
  8
0
100
AcDbCircle
 10
1.446301849096153
 20
4.261116095641018
 30
0.0
 40
0.0468909615477163
  0
CIRCLE
  5
1E4
330
1F
100
AcDbEntity
  8
0
100
AcDbCircle
 10
1.446301849096152
 20
4.261116095641018
 30
0.0
 40
0.0188809822154582
  0
CIRCLE
  5
1E5
330
1F
100
AcDbEntity
  8
0
100
AcDbCircle
 10
1.446301849096153
 20
4.261116095641018
 30
0.0
 40
0.0367962162817683
  0
CIRCLE
  5
1E6
330
1F
100
AcDbEntity
  8
0
100
AcDbCircle
 10
1.35373206237213
 20
4.285920095237242
 30
0.0
 40
0.0188809822154582
  0
CIRCLE
  5
1E7
330
1F
100
AcDbEntity
  8
0
100
AcDbCircle
 10
1.353732062372131
 20
4.285920095237242
 30
0.0
 40
0.0468909615477163
  0
CIRCLE
  5
1E8
330
1F
100
AcDbEntity
  8
0
100
AcDbCircle
 10
1.353732062372131
 20
4.285920095237242
 30
0.0
 40
0.0367962162817683
  0
ARC
  5
1E9
330
1F
100
AcDbEntity
  8
0
100
AcDbCircle
 10
9.301365237041896
 20
4.327405705263451
 30
0.0
 40
0.0173486312845757
100
AcDbArc
 50
17.12179514608419
 51
218.4427861393607
  0
ARC
  5
1EA
330
1F
100
AcDbEntity
  8
0
100
AcDbCircle
 10
9.353803489312664
 20
4.382253523028688
 30
0.0
 40
0.0173486312845757
100
AcDbArc
 50
41.8052558784394
 51
243.1262468717159
  0
LINE
  5
1EE
330
1F
100
AcDbEntity
  8
0
100
AcDbLine
 10
9.653155470472687
 20
6.500493579850551
 30
0.0
 11
9.725542100698604
 21
6.457566607592767
 31
0.0
  0
LINE
  5
1F3
330
1F
100
AcDbEntity
  8
0
100
AcDbLine
 10
9.664988208109268
 20
6.520446815748855
 30
0.0
 11
9.737374838335185
 21
6.477519843491071
 31
0.0
  0
LINE
  5
1F4
330
1F
100
AcDbEntity
  8
0
100
AcDbLine
 10
9.725542100698604
 20
6.457566607592767
 30
0.0
 11
9.737374838335185
 21
6.477519843491071
 31
0.0
  0
LINE
  5
1F5
330
1F
100
AcDbEntity
  8
0
100
AcDbLine
 10
9.653155470472687
 20
6.500493579850551
 30
0.0
 11
9.664988208109268
 21
6.520446815748855
 31
0.0
  0
LINE
  5
1F6
330
1F
100
AcDbEntity
  8
0
100
AcDbLine
 10
9.705757048914199
 20
6.543714888070554
 30
0.0
 11
9.738237207343508
 21
6.524453391085932
 31
0.0
  0
LINE
  5
1F7
330
1F
100
AcDbEntity
  8
0
100
AcDbLine
 10
9.684941444007572
 20
6.508614078112275
 30
0.0
 11
9.705757048914199
 21
6.543714888070554
 31
0.0
  0
LINE
  5
1F8
330
1F
100
AcDbEntity
  8
0
100
AcDbLine
 10
9.71742160243688
 20
6.489352581127654
 30
0.0
 11
9.73823720734351
 21
6.524453391085932
 31
0.0
  0
LINE
  5
1FB
330
1F
100
AcDbEntity
  8
0
100
AcDbLine
 10
9.954152000702882
 20
6.487818752518375
 30
0.0
 11
9.930061797386736
 21
6.520758369570531
 31
0.0
  0
LINE
  5
1FC
330
1F
100
AcDbEntity
  8
0
100
AcDbLine
 10
9.984632322431258
 20
6.510110364057616
 30
0.0
 11
9.960542119115113
 21
6.543049981109772
 31
0.0
  0
LINE
  5
1FD
330
1F
100
AcDbEntity
  8
0
100
AcDbLine
 10
9.960542119115113
 20
6.543049981109772
 30
0.0
 11
9.930061797386738
 21
6.520758369570531
 31
0.0
  0
LINE
  5
1FE
330
1F
100
AcDbEntity
  8
0
100
AcDbLine
 10
10.01705121704934
 20
6.505079869318426
 30
0.0
 11
10.00335701710989
 21
6.52380456399706
 31
0.0
  0
LINE
  5
1FF
330
1F
100
AcDbEntity
  8
0
100
AcDbLine
 10
9.949121505963696
 20
6.455399857900295
 30
0.0
 11
9.935427306024252
 21
6.474124552578927
 31
0.0
  0
LINE
  5
200
330
1F
100
AcDbEntity
  8
0
100
AcDbLine
 10
10.00335701710989
 20
6.52380456399706
 30
0.0
 11
9.935427306024252
 21
6.474124552578927
 31
0.0
  0
LINE
  5
201
330
1F
100
AcDbEntity
  8
0
100
AcDbLine
 10
10.01705121704934
 20
6.505079869318426
 30
0.0
 11
9.949121505963696
 21
6.455399857900295
 31
0.0
  0
LINE
  5
202
330
1F
100
AcDbEntity
  8
0
100
AcDbLine
 10
7.456553981111337
 20
6.176266026273487
 30
0.0
 11
7.463311692334578
 21
6.216511393788013
 31
0.0
  0
LINE
  5
203
330
1F
100
AcDbEntity
  8
0
100
AcDbLine
 10
7.419313361465486
 20
6.18251920195266
 30
0.0
 11
7.426071072688725
 21
6.222764569467184
 31
0.0
  0
LINE
  5
204
330
1F
100
AcDbEntity
  8
0
100
AcDbLine
 10
7.426071072688725
 20
6.222764569467184
 30
0.0
 11
7.463311692334576
 21
6.216511393788013
 31
0.0
  0
LINE
  5
205
330
1F
100
AcDbEntity
  8
0
100
AcDbLine
 10
7.392594219681694
 20
6.163482971550692
 30
0.0
 11
7.396435675372608
 21
6.18636065764357
 31
0.0
  0
LINE
  5
206
330
1F
100
AcDbEntity
  8
0
100
AcDbLine
 10
7.475590211513304
 20
6.149546884489693
 30
0.0
 11
7.479431667204217
 21
6.172424570582573
 31
0.0
  0
LINE
  5
207
330
1F
100
AcDbEntity
  8
0
100
AcDbLine
 10
7.396435675372608
 20
6.18636065764357
 30
0.0
 11
7.479431667204217
 21
6.172424570582573
 31
0.0
  0
LINE
  5
208
330
1F
100
AcDbEntity
  8
0
100
AcDbLine
 10
7.392594219681694
 20
6.163482971550692
 30
0.0
 11
7.475590211513304
 21
6.149546884489693
 31
0.0
  0
LINE
  5
209
330
1F
100
AcDbEntity
  8
0
100
AcDbLine
 10
7.277120238691085
 20
6.416234971944209
 30
0.0
 11
7.297935843597713
 21
6.451335781902487
 31
0.0
  0
LINE
  5
20A
330
1F
100
AcDbEntity
  8
0
100
AcDbLine
 10
7.244640080261776
 20
6.435496468928831
 30
0.0
 11
7.265455685168403
 21
6.470597278887109
 31
0.0
  0
LINE
  5
20B
330
1F
100
AcDbEntity
  8
0
100
AcDbLine
 10
7.265455685168403
 20
6.470597278887109
 30
0.0
 11
7.297935843597712
 21
6.451335781902487
 31
0.0
  0
LINE
  5
20C
330
1F
100
AcDbEntity
  8
0
100
AcDbLine
 10
7.212854106726891
 20
6.427375970667106
 30
0.0
 11
7.224686844363472
 21
6.44732920656541
 31
0.0
  0
LINE
  5
20D
330
1F
100
AcDbEntity
  8
0
100
AcDbLine
 10
7.285240736952808
 20
6.384448998409322
 30
0.0
 11
7.297073474589389
 21
6.404402234307626
 31
0.0
  0
LINE
  5
20E
330
1F
100
AcDbEntity
  8
0
100
AcDbLine
 10
7.224686844363472
 20
6.44732920656541
 30
0.0
 11
7.297073474589389
 21
6.404402234307626
 31
0.0
  0
LINE
  5
20F
330
1F
100
AcDbEntity
  8
0
100
AcDbLine
 10
7.212854106726891
 20
6.427375970667106
 30
0.0
 11
7.285240736952808
 21
6.384448998409322
 31
0.0
  0
LINE
  5
210
330
1F
100
AcDbEntity
  8
0
100
AcDbLine
 10
8.619285982659756
 20
7.196156086901936
 30
0.0
 11
8.640101587566384
 21
7.231256896860214
 31
0.0
  0
LINE
  5
211
330
1F
100
AcDbEntity
  8
0
100
AcDbLine
 10
8.586805824230447
 20
7.215417583886557
 30
0.0
 11
8.607621429137074
 21
7.250518393844835
 31
0.0
  0
LINE
  5
212
330
1F
100
AcDbEntity
  8
0
100
AcDbLine
 10
8.607621429137074
 20
7.250518393844835
 30
0.0
 11
8.640101587566383
 21
7.231256896860214
 31
0.0
  0
LINE
  5
213
330
1F
100
AcDbEntity
  8
0
100
AcDbLine
 10
8.555019850695562
 20
7.207297085624833
 30
0.0
 11
8.566852588332143
 21
7.227250321523137
 31
0.0
  0
LINE
  5
214
330
1F
100
AcDbEntity
  8
0
100
AcDbLine
 10
8.62740648092148
 20
7.164370113367049
 30
0.0
 11
8.63923921855806
 21
7.184323349265353
 31
0.0
  0
LINE
  5
215
330
1F
100
AcDbEntity
  8
0
100
AcDbLine
 10
8.566852588332143
 20
7.227250321523137
 30
0.0
 11
8.63923921855806
 21
7.184323349265353
 31
0.0
  0
LINE
  5
216
330
1F
100
AcDbEntity
  8
0
100
AcDbLine
 10
8.555019850695562
 20
7.207297085624833
 30
0.0
 11
8.62740648092148
 21
7.164370113367049
 31
0.0
  0
LINE
  5
217
330
1F
100
AcDbEntity
  8
0
100
AcDbLine
 10
6.061851034856113
 20
5.403312766080698
 30
0.0
 11
6.082666639762742
 21
5.438413576038976
 31
0.0
  0
LINE
  5
218
330
1F
100
AcDbEntity
  8
0
100
AcDbLine
 10
6.029370876426805
 20
5.42257426306532
 30
0.0
 11
6.050186481333432
 21
5.457675073023598
 31
0.0
  0
LINE
  5
219
330
1F
100
AcDbEntity
  8
0
100
AcDbLine
 10
6.050186481333432
 20
5.457675073023598
 30
0.0
 11
6.08266663976274
 21
5.438413576038976
 31
0.0
  0
LINE
  5
21A
330
1F
100
AcDbEntity
  8
0
100
AcDbLine
 10
5.997584902891919
 20
5.414453764803596
 30
0.0
 11
6.0094176405285
 21
5.434407000701899
 31
0.0
  0
LINE
  5
21B
330
1F
100
AcDbEntity
  8
0
100
AcDbLine
 10
6.069971533117837
 20
5.371526792545811
 30
0.0
 11
6.081804270754418
 21
5.391480028444115
 31
0.0
  0
LINE
  5
21C
330
1F
100
AcDbEntity
  8
0
100
AcDbLine
 10
6.0094176405285
 20
5.434407000701899
 30
0.0
 11
6.081804270754418
 21
5.391480028444115
 31
0.0
  0
LINE
  5
21D
330
1F
100
AcDbEntity
  8
0
100
AcDbLine
 10
5.997584902891919
 20
5.414453764803596
 30
0.0
 11
6.069971533117837
 21
5.371526792545811
 31
0.0
  0
LINE
  5
21E
330
1F
100
AcDbEntity
  8
0
100
AcDbLine
 10
6.159463092654756
 20
5.135214872836495
 30
0.0
 11
6.180278697561384
 21
5.170315682794773
 31
0.0
  0
LINE
  5
21F
330
1F
100
AcDbEntity
  8
0
100
AcDbLine
 10
6.126982934225447
 20
5.154476369821117
 30
0.0
 11
6.147798539132074
 21
5.189577179779395
 31
0.0
  0
LINE
  5
220
330
1F
100
AcDbEntity
  8
0
100
AcDbLine
 10
6.147798539132074
 20
5.189577179779395
 30
0.0
 11
6.180278697561382
 21
5.170315682794773
 31
0.0
  0
LINE
  5
221
330
1F
100
AcDbEntity
  8
0
100
AcDbLine
 10
6.095196960690561
 20
5.146355871559392
 30
0.0
 11
6.107029698327143
 21
5.166309107457696
 31
0.0
  0
LINE
  5
222
330
1F
100
AcDbEntity
  8
0
100
AcDbLine
 10
6.167583590916479
 20
5.103428899301608
 30
0.0
 11
6.17941632855306
 21
5.123382135199912
 31
0.0
  0
LINE
  5
223
330
1F
100
AcDbEntity
  8
0
100
AcDbLine
 10
6.107029698327143
 20
5.166309107457696
 30
0.0
 11
6.17941632855306
 21
5.123382135199912
 31
0.0
  0
LINE
  5
224
330
1F
100
AcDbEntity
  8
0
100
AcDbLine
 10
6.095196960690561
 20
5.146355871559392
 30
0.0
 11
6.167583590916479
 21
5.103428899301608
 31
0.0
  0
LINE
  5
225
330
1F
100
AcDbEntity
  8
0
100
AcDbLine
 10
5.572292846576683
 20
6.895378389968988
 30
0.0
 11
5.613079451186784
 21
6.896723437081686
 31
0.0
  0
LINE
  5
226
330
1F
100
AcDbEntity
  8
0
100
AcDbLine
 10
5.571048221641608
 20
6.933119837562483
 30
0.0
 11
5.611834826251706
 21
6.934464884675183
 31
0.0
  0
LINE
  5
227
330
1F
100
AcDbEntity
  8
0
100
AcDbLine
 10
5.611834826251706
 20
6.934464884675183
 30
0.0
 11
5.61307945118678
 21
6.896723437081688
 31
0.0
  0
LINE
  5
228
330
1F
100
AcDbEntity
  8
0
100
AcDbLine
 10
5.547098267591845
 20
6.955540593718181
 30
0.0
 11
5.570283622694574
 21
6.956305192665214
 31
0.0
  0
LINE
  5
229
330
1F
100
AcDbEntity
  8
0
100
AcDbLine
 10
5.549872090420982
 20
6.871428435919224
 30
0.0
 11
5.573057445523713
 21
6.872193034866255
 31
0.0
  0
LINE
  5
22A
330
1F
100
AcDbEntity
  8
0
100
AcDbLine
 10
5.570283622694574
 20
6.956305192665214
 30
0.0
 11
5.573057445523713
 21
6.872193034866255
 31
0.0
  0
LINE
  5
22B
330
1F
100
AcDbEntity
  8
0
100
AcDbLine
 10
5.547098267591845
 20
6.955540593718181
 30
0.0
 11
5.549872090420982
 21
6.871428435919224
 31
0.0
  0
LINE
  5
23A
330
1F
100
AcDbEntity
  8
0
100
AcDbLine
 10
3.93878886910843
 20
5.805176181508197
 30
0.0
 11
3.959604474015059
 21
5.840276991466475
 31
0.0
  0
LINE
  5
23B
330
1F
100
AcDbEntity
  8
0
100
AcDbLine
 10
3.906308710679122
 20
5.824437678492819
 30
0.0
 11
3.927124315585749
 21
5.859538488451097
 31
0.0
  0
LINE
  5
23C
330
1F
100
AcDbEntity
  8
0
100
AcDbLine
 10
3.927124315585749
 20
5.859538488451097
 30
0.0
 11
3.959604474015057
 21
5.840276991466475
 31
0.0
  0
LINE
  5
23D
330
1F
100
AcDbEntity
  8
0
100
AcDbLine
 10
3.874522737144236
 20
5.816317180231095
 30
0.0
 11
3.886355474780817
 21
5.836270416129398
 31
0.0
  0
LINE
  5
23E
330
1F
100
AcDbEntity
  8
0
100
AcDbLine
 10
3.946909367370154
 20
5.773390207973311
 30
0.0
 11
3.958742105006735
 21
5.793343443871614
 31
0.0
  0
LINE
  5
23F
330
1F
100
AcDbEntity
  8
0
100
AcDbLine
 10
3.886355474780817
 20
5.836270416129398
 30
0.0
 11
3.958742105006735
 21
5.793343443871614
 31
0.0
  0
LINE
  5
240
330
1F
100
AcDbEntity
  8
0
100
AcDbLine
 10
3.874522737144236
 20
5.816317180231095
 30
0.0
 11
3.946909367370154
 21
5.773390207973311
 31
0.0
  0
LINE
  5
241
330
1F
100
AcDbEntity
  8
0
100
AcDbLine
 10
4.426849158101641
 20
7.41818994723653
 30
0.0
 11
4.44766476300827
 21
7.453290757194808
 31
0.0
  0
LINE
  5
242
330
1F
100
AcDbEntity
  8
0
100
AcDbLine
 10
4.394368999672333
 20
7.437451444221152
 30
0.0
 11
4.415184604578959
 21
7.47255225417943
 31
0.0
  0
LINE
  5
243
330
1F
100
AcDbEntity
  8
0
100
AcDbLine
 10
4.415184604578959
 20
7.47255225417943
 30
0.0
 11
4.447664763008268
 21
7.453290757194808
 31
0.0
  0
LINE
  5
244
330
1F
100
AcDbEntity
  8
0
100
AcDbLine
 10
4.362583026137447
 20
7.429330945959427
 30
0.0
 11
4.374415763774028
 21
7.449284181857731
 31
0.0
  0
LINE
  5
245
330
1F
100
AcDbEntity
  8
0
100
AcDbLine
 10
4.434969656363364
 20
7.386403973701643
 30
0.0
 11
4.446802393999945
 21
7.406357209599947
 31
0.0
  0
LINE
  5
246
330
1F
100
AcDbEntity
  8
0
100
AcDbLine
 10
4.374415763774028
 20
7.449284181857731
 30
0.0
 11
4.446802393999945
 21
7.406357209599947
 31
0.0
  0
LINE
  5
247
330
1F
100
AcDbEntity
  8
0
100
AcDbLine
 10
4.362583026137447
 20
7.429330945959427
 30
0.0
 11
4.434969656363364
 21
7.386403973701643
 31
0.0
  0
LINE
  5
248
330
1F
100
AcDbEntity
  8
0
100
AcDbLine
 10
2.849927746935977
 20
5.370897060382442
 30
0.0
 11
2.870743351842606
 21
5.405997870340721
 31
0.0
  0
LINE
  5
249
330
1F
100
AcDbEntity
  8
0
100
AcDbLine
 10
2.817447588506669
 20
5.390158557367064
 30
0.0
 11
2.838263193413296
 21
5.425259367325342
 31
0.0
  0
LINE
  5
24A
330
1F
100
AcDbEntity
  8
0
100
AcDbLine
 10
2.838263193413296
 20
5.425259367325342
 30
0.0
 11
2.870743351842604
 21
5.405997870340721
 31
0.0
  0
LINE
  5
24B
330
1F
100
AcDbEntity
  8
0
100
AcDbLine
 10
2.785661614971783
 20
5.38203805910534
 30
0.0
 11
2.797494352608364
 21
5.401991295003644
 31
0.0
  0
LINE
  5
24C
330
1F
100
AcDbEntity
  8
0
100
AcDbLine
 10
2.858048245197701
 20
5.339111086847556
 30
0.0
 11
2.869880982834282
 21
5.359064322745859
 31
0.0
  0
LINE
  5
24D
330
1F
100
AcDbEntity
  8
0
100
AcDbLine
 10
2.797494352608364
 20
5.401991295003644
 30
0.0
 11
2.869880982834282
 21
5.359064322745859
 31
0.0
  0
LINE
  5
24E
330
1F
100
AcDbEntity
  8
0
100
AcDbLine
 10
2.785661614971783
 20
5.38203805910534
 30
0.0
 11
2.858048245197701
 21
5.339111086847556
 31
0.0
  0
LINE
  5
24F
330
1F
100
AcDbEntity
  8
0
100
AcDbLine
 10
2.459479515741416
 20
6.321425894626038
 30
0.0
 11
2.480295120648044
 21
6.356526704584316
 31
0.0
  0
LINE
  5
250
330
1F
100
AcDbEntity
  8
0
100
AcDbLine
 10
2.426999357312107
 20
6.340687391610659
 30
0.0
 11
2.447814962218734
 21
6.375788201568938
 31
0.0
  0
LINE
  5
251
330
1F
100
AcDbEntity
  8
0
100
AcDbLine
 10
2.447814962218734
 20
6.375788201568938
 30
0.0
 11
2.480295120648043
 21
6.356526704584316
 31
0.0
  0
LINE
  5
252
330
1F
100
AcDbEntity
  8
0
100
AcDbLine
 10
2.395213383777222
 20
6.332566893348935
 30
0.0
 11
2.407046121413803
 21
6.352520129247239
 31
0.0
  0
LINE
  5
253
330
1F
100
AcDbEntity
  8
0
100
AcDbLine
 10
2.467600014003139
 20
6.289639921091151
 30
0.0
 11
2.47943275163972
 21
6.309593156989455
 31
0.0
  0
LINE
  5
254
330
1F
100
AcDbEntity
  8
0
100
AcDbLine
 10
2.407046121413803
 20
6.352520129247239
 30
0.0
 11
2.47943275163972
 21
6.309593156989455
 31
0.0
  0
LINE
  5
255
330
1F
100
AcDbEntity
  8
0
100
AcDbLine
 10
2.395213383777222
 20
6.332566893348935
 30
0.0
 11
2.467600014003139
 21
6.289639921091151
 31
0.0
  0
LINE
  5
256
330
1F
100
AcDbEntity
  8
0
100
AcDbLine
 10
0.629253523389659
 20
5.833975216402101
 30
0.0
 11
0.6500691282962876
 21
5.869076026360379
 31
0.0
  0
LINE
  5
257
330
1F
100
AcDbEntity
  8
0
100
AcDbLine
 10
0.5967733649603506
 20
5.853236713386723
 30
0.0
 11
0.6175889698669774
 21
5.888337523345001
 31
0.0
  0
LINE
  5
258
330
1F
100
AcDbEntity
  8
0
100
AcDbLine
 10
0.6175889698669774
 20
5.888337523345001
 30
0.0
 11
0.6500691282962858
 21
5.869076026360379
 31
0.0
  0
LINE
  5
259
330
1F
100
AcDbEntity
  8
0
100
AcDbLine
 10
0.5649873914254648
 20
5.845116215124999
 30
0.0
 11
0.576820129062046
 21
5.865069451023302
 31
0.0
  0
LINE
  5
25A
330
1F
100
AcDbEntity
  8
0
100
AcDbLine
 10
0.6373740216513823
 20
5.802189242867215
 30
0.0
 11
0.6492067592879636
 21
5.822142478765518
 31
0.0
  0
LINE
  5
25B
330
1F
100
AcDbEntity
  8
0
100
AcDbLine
 10
0.576820129062046
 20
5.865069451023302
 30
0.0
 11
0.6492067592879636
 21
5.822142478765518
 31
0.0
  0
LINE
  5
25C
330
1F
100
AcDbEntity
  8
0
100
AcDbLine
 10
0.5649873914254648
 20
5.845116215124999
 30
0.0
 11
0.6373740216513823
 21
5.802189242867215
 31
0.0
  0
LINE
  5
25D
330
1F
100
AcDbEntity
  8
0
100
AcDbLine
 10
1.009827409855456
 20
7.164627702992269
 30
0.0
 11
1.04695506700951
 21
7.181565629122909
 31
0.0
  0
LINE
  5
25E
330
1F
100
AcDbEntity
  8
0
100
AcDbLine
 10
0.9941540813812395
 20
7.198983382758807
 30
0.0
 11
1.031281738535293
 21
7.215921308889448
 31
0.0
  0
LINE
  5
25F
330
1F
100
AcDbEntity
  8
0
100
AcDbLine
 10
1.031281738535293
 20
7.215921308889448
 30
0.0
 11
1.046955067009509
 21
7.18156562912291
 31
0.0
  0
LINE
  5
260
330
1F
100
AcDbEntity
  8
0
100
AcDbLine
 10
0.9634202225745288
 20
7.210460339168423
 30
0.0
 11
0.9845256301826923
 21
7.22008879036697
 31
0.0
  0
LINE
  5
261
330
1F
100
AcDbEntity
  8
0
100
AcDbLine
 10
0.9983504534458394
 20
7.133893844185557
 30
0.0
 11
1.019455861054002
 21
7.143522295384104
 31
0.0
  0
LINE
  5
262
330
1F
100
AcDbEntity
  8
0
100
AcDbLine
 10
0.9845256301826923
 20
7.22008879036697
 30
0.0
 11
1.019455861054002
 21
7.143522295384104
 31
0.0
  0
LINE
  5
263
330
1F
100
AcDbEntity
  8
0
100
AcDbLine
 10
0.9634202225745288
 20
7.210460339168423
 30
0.0
 11
0.9983504534458394
 21
7.133893844185557
 31
0.0
  0
LINE
  5
264
330
1F
100
AcDbEntity
  8
0
100
AcDbLine
 10
1.016234640583596
 20
6.932471986858746
 30
0.0
 11
1.037050245490224
 21
6.967572796817024
 31
0.0
  0
LINE
  5
265
330
1F
100
AcDbEntity
  8
0
100
AcDbLine
 10
0.9837544821542874
 20
6.951733483843368
 30
0.0
 11
1.004570087060914
 21
6.986834293801646
 31
0.0
  0
LINE
  5
266
330
1F
100
AcDbEntity
  8
0
100
AcDbLine
 10
1.004570087060914
 20
6.986834293801646
 30
0.0
 11
1.037050245490223
 21
6.967572796817024
 31
0.0
  0
LINE
  5
267
330
1F
100
AcDbEntity
  8
0
100
AcDbLine
 10
0.9519685086194016
 20
6.943612985581644
 30
0.0
 11
0.9638012462559828
 21
6.963566221479947
 31
0.0
  0
LINE
  5
268
330
1F
100
AcDbEntity
  8
0
100
AcDbLine
 10
1.024355138845319
 20
6.90068601332386
 30
0.0
 11
1.0361878764819
 21
6.920639249222163
 31
0.0
  0
LINE
  5
269
330
1F
100
AcDbEntity
  8
0
100
AcDbLine
 10
0.9638012462559828
 20
6.963566221479947
 30
0.0
 11
1.0361878764819
 21
6.920639249222163
 31
0.0
  0
LINE
  5
26A
330
1F
100
AcDbEntity
  8
0
100
AcDbLine
 10
0.9519685086194016
 20
6.943612985581644
 30
0.0
 11
1.024355138845319
 21
6.90068601332386
 31
0.0
  0
LINE
  5
272
330
1F
100
AcDbEntity
  8
0
100
AcDbLine
 10
8.918915637882323
 20
7.16313830939884
 30
0.0
 11
8.850985926796682
 21
7.113458297980708
 31
0.0
  0
LINE
  5
273
330
1F
100
AcDbEntity
  8
0
100
AcDbLine
 10
8.905221437942878
 20
7.181863004077473
 30
0.0
 11
8.837291726857238
 21
7.132182992659341
 31
0.0
  0
LINE
  5
274
330
1F
100
AcDbEntity
  8
0
100
AcDbLine
 10
8.850985926796682
 20
7.113458297980708
 30
0.0
 11
8.837291726857238
 21
7.132182992659341
 31
0.0
  0
LINE
  5
275
330
1F
100
AcDbEntity
  8
0
100
AcDbLine
 10
8.918915637882323
 20
7.16313830939884
 30
0.0
 11
8.905221437942878
 21
7.181863004077473
 31
0.0
  0
LINE
  5
276
330
1F
100
AcDbEntity
  8
0
100
AcDbLine
 10
8.862406539948099
 20
7.201108421190185
 30
0.0
 11
8.831926218219724
 21
7.178816809650945
 31
0.0
  0
LINE
  5
277
330
1F
100
AcDbEntity
  8
0
100
AcDbLine
 10
8.886496743264244
 20
7.16816880413803
 30
0.0
 11
8.862406539948099
 21
7.201108421190185
 31
0.0
  0
LINE
  5
278
330
1F
100
AcDbEntity
  8
0
100
AcDbLine
 10
8.856016421535868
 20
7.145877192598788
 30
0.0
 11
8.831926218219722
 21
7.178816809650945
 31
0.0
  0
LINE
  5
279
330
1F
100
AcDbEntity
  8
0
100
AcDbLine
 10
7.819451904096342
 20
6.307418635150261
 30
0.0
 11
7.763868479670936
 21
6.244228191950124
 31
0.0
  0
LINE
  5
27A
330
1F
100
AcDbEntity
  8
0
100
AcDbLine
 10
7.8020335795279
 20
6.32274009957172
 30
0.0
 11
7.746450155102497
 21
6.259549656371583
 31
0.0
  0
LINE
  5
27B
330
1F
100
AcDbEntity
  8
0
100
AcDbLine
 10
7.763868479670936
 20
6.244228191950124
 30
0.0
 11
7.746450155102497
 21
6.259549656371583
 31
0.0
  0
LINE
  5
27C
330
1F
100
AcDbEntity
  8
0
100
AcDbLine
 10
7.819451904096342
 20
6.307418635150261
 30
0.0
 11
7.8020335795279
 21
6.32274009957172
 31
0.0
  0
LINE
  5
27D
330
1F
100
AcDbEntity
  8
0
100
AcDbLine
 10
7.756070603945817
 20
6.332274586751766
 30
0.0
 11
7.731130108363329
 21
6.303920792688509
 31
0.0
  0
LINE
  5
27E
330
1F
100
AcDbEntity
  8
0
100
AcDbLine
 10
7.786712115106441
 20
6.305321775003281
 30
0.0
 11
7.756070603945817
 21
6.332274586751766
 31
0.0
  0
LINE
  5
27F
330
1F
100
AcDbEntity
  8
0
100
AcDbLine
 10
7.761771619523952
 20
6.276967980940024
 30
0.0
 11
7.731130108363327
 21
6.303920792688509
 31
0.0
  0
LINE
  5
280
330
1F
100
AcDbEntity
  8
0
100
AcDbLine
 10
7.841269170651639
 20
6.632694810987153
 30
0.0
 11
7.820070969000195
 21
6.551250440835317
 31
0.0
  0
LINE
  5
281
330
1F
100
AcDbEntity
  8
0
100
AcDbLine
 10
7.818819186101226
 20
6.638538054647632
 30
0.0
 11
7.797620984449783
 21
6.557093684495798
 31
0.0
  0
LINE
  5
282
330
1F
100
AcDbEntity
  8
0
100
AcDbLine
 10
7.820070969000195
 20
6.551250440835317
 30
0.0
 11
7.797620984449783
 21
6.557093684495798
 31
0.0
  0
LINE
  5
283
330
1F
100
AcDbEntity
  8
0
100
AcDbLine
 10
7.841269170651639
 20
6.632694810987153
 30
0.0
 11
7.818819186101226
 21
6.638538054647632
 31
0.0
  0
LINE
  5
284
330
1F
100
AcDbEntity
  8
0
100
AcDbLine
 10
7.773482967702882
 20
6.626367234154205
 30
0.0
 11
7.763971253372397
 21
6.589822833103196
 31
0.0
  0
LINE
  5
285
330
1F
100
AcDbEntity
  8
0
100
AcDbLine
 10
7.812975942440745
 20
6.616088070097221
 30
0.0
 11
7.773482967702882
 21
6.626367234154205
 31
0.0
  0
LINE
  5
286
330
1F
100
AcDbEntity
  8
0
100
AcDbLine
 10
7.80346422811026
 20
6.579543669046211
 30
0.0
 11
7.763971253372396
 21
6.589822833103196
 31
0.0
  0
LINE
  5
287
330
1F
100
AcDbEntity
  8
0
100
AcDbLine
 10
6.555684217397005
 20
5.512074625999853
 30
0.0
 11
6.521311551839982
 21
5.435256209944916
 31
0.0
  0
LINE
  5
288
330
1F
100
AcDbEntity
  8
0
100
AcDbLine
 10
6.534509368228111
 20
5.521549385388049
 30
0.0
 11
6.500136702671091
 21
5.44473096933311
 31
0.0
  0
LINE
  5
289
330
1F
100
AcDbEntity
  8
0
100
AcDbLine
 10
6.521311551839982
 20
5.435256209944916
 30
0.0
 11
6.500136702671091
 21
5.44473096933311
 31
0.0
  0
LINE
  5
28A
330
1F
100
AcDbEntity
  8
0
100
AcDbLine
 10
6.555684217397005
 20
5.512074625999853
 30
0.0
 11
6.534509368228111
 21
5.521549385388049
 31
0.0
  0
LINE
  5
28B
330
1F
100
AcDbEntity
  8
0
100
AcDbLine
 10
6.487784793303193
 20
5.517042094823706
 30
0.0
 11
6.472361646522561
 21
5.482573377106554
 31
0.0
  0
LINE
  5
28C
330
1F
100
AcDbEntity
  8
0
100
AcDbLine
 10
6.525034608839916
 20
5.500374536219155
 30
0.0
 11
6.487784793303193
 21
5.517042094823706
 31
0.0
  0
LINE
  5
28D
330
1F
100
AcDbEntity
  8
0
100
AcDbLine
 10
6.509611462059281
 20
5.465905818502003
 30
0.0
 11
6.472361646522559
 21
5.482573377106554
 31
0.0
  0
LINE
  5
28E
330
1F
100
AcDbEntity
  8
0
100
AcDbLine
 10
5.980235441954914
 20
6.59877224828641
 30
0.0
 11
5.924987948592754
 21
6.535287890686426
 31
0.0
  0
LINE
  5
28F
330
1F
100
AcDbEntity
  8
0
100
AcDbLine
 10
5.96273610044542
 20
6.61400111395407
 30
0.0
 11
5.907488607083263
 21
6.550516756354087
 31
0.0
  0
LINE
  5
290
330
1F
100
AcDbEntity
  8
0
100
AcDbLine
 10
5.924987948592754
 20
6.535287890686426
 30
0.0
 11
5.907488607083263
 21
6.550516756354087
 31
0.0
  0
LINE
  5
291
330
1F
100
AcDbEntity
  8
0
100
AcDbLine
 10
5.980235441954914
 20
6.59877224828641
 30
0.0
 11
5.96273610044542
 21
6.61400111395407
 31
0.0
  0
LINE
  5
292
330
1F
100
AcDbEntity
  8
0
100
AcDbLine
 10
5.916723202360643
 20
6.623291688747133
 30
0.0
 11
5.891933440333807
 21
6.594806014166137
 31
0.0
  0
LINE
  5
293
330
1F
100
AcDbEntity
  8
0
100
AcDbLine
 10
5.947507234777759
 20
6.596501772444578
 30
0.0
 11
5.916723202360643
 21
6.623291688747133
 31
0.0
  0
LINE
  5
294
330
1F
100
AcDbEntity
  8
0
100
AcDbLine
 10
5.922717472750921
 20
6.568016097863581
 30
0.0
 11
5.891933440333805
 21
6.594806014166137
 31
0.0
  0
LINE
  5
295
330
1F
100
AcDbEntity
  8
0
100
AcDbLine
 10
6.089683825441634
 20
6.916337987555487
 30
0.0
 11
6.07365872796649
 21
6.833719917900016
 31
0.0
  0
LINE
  5
296
330
1F
100
AcDbEntity
  8
0
100
AcDbLine
 10
6.066910312872348
 20
6.920755274963632
 30
0.0
 11
6.050885215397206
 21
6.838137205308159
 31
0.0
  0
LINE
  5
297
330
1F
100
AcDbEntity
  8
0
100
AcDbLine
 10
6.07365872796649
 20
6.833719917900016
 30
0.0
 11
6.050885215397206
 21
6.838137205308159
 31
0.0
  0
LINE
  5
298
330
1F
100
AcDbEntity
  8
0
100
AcDbLine
 10
6.089683825441634
 20
6.916337987555487
 30
0.0
 11
6.066910312872348
 21
6.920755274963632
 31
0.0
  0
LINE
  5
299
330
1F
100
AcDbEntity
  8
0
100
AcDbLine
 10
6.022430915195418
 20
6.905752450148182
 30
0.0
 11
6.01524039253656
 21
6.868681405631278
 31
0.0
  0
LINE
  5
29A
330
1F
100
AcDbEntity
  8
0
100
AcDbLine
 10
6.062493025464204
 20
6.897981762394346
 30
0.0
 11
6.022430915195418
 21
6.905752450148182
 31
0.0
  0
LINE
  5
29B
330
1F
100
AcDbEntity
  8
0
100
AcDbLine
 10
6.055302502805345
 20
6.860910717877443
 30
0.0
 11
6.015240392536559
 21
6.868681405631278
 31
0.0
  0
LINE
  5
29C
330
1F
100
AcDbEntity
  8
0
100
AcDbLine
 10
4.218142069516489
 20
5.805398243583572
 30
0.0
 11
4.150212358430847
 21
5.755718232165441
 31
0.0
  0
LINE
  5
29D
330
1F
100
AcDbEntity
  8
0
100
AcDbLine
 10
4.204447869577043
 20
5.824122938262206
 30
0.0
 11
4.136518158491404
 21
5.774442926844073
 31
0.0
  0
LINE
  5
29E
330
1F
100
AcDbEntity
  8
0
100
AcDbLine
 10
4.150212358430847
 20
5.755718232165441
 30
0.0
 11
4.136518158491404
 21
5.774442926844073
 31
0.0
  0
LINE
  5
29F
330
1F
100
AcDbEntity
  8
0
100
AcDbLine
 10
4.218142069516489
 20
5.805398243583572
 30
0.0
 11
4.204447869577043
 21
5.824122938262206
 31
0.0
  0
LINE
  5
2A0
330
1F
100
AcDbEntity
  8
0
100
AcDbLine
 10
4.161632971582264
 20
5.843368355374918
 30
0.0
 11
4.13115264985389
 21
5.821076743835677
 31
0.0
  0
LINE
  5
2A1
330
1F
100
AcDbEntity
  8
0
100
AcDbLine
 10
4.18572317489841
 20
5.810428738322762
 30
0.0
 11
4.161632971582264
 21
5.843368355374918
 31
0.0
  0
LINE
  5
2A2
330
1F
100
AcDbEntity
  8
0
100
AcDbLine
 10
4.155242853170034
 20
5.78813712678352
 30
0.0
 11
4.131152649853888
 21
5.821076743835677
 31
0.0
  0
LINE
  5
2A3
330
1F
100
AcDbEntity
  8
0
100
AcDbLine
 10
4.676150581837051
 20
7.415525133785416
 30
0.0
 11
4.60822087075141
 21
7.365845122367285
 31
0.0
  0
LINE
  5
2A4
330
1F
100
AcDbEntity
  8
0
100
AcDbLine
 10
4.662456381897606
 20
7.43424982846405
 30
0.0
 11
4.594526670811966
 21
7.384569817045917
 31
0.0
  0
LINE
  5
2A5
330
1F
100
AcDbEntity
  8
0
100
AcDbLine
 10
4.60822087075141
 20
7.365845122367285
 30
0.0
 11
4.594526670811966
 21
7.384569817045917
 31
0.0
  0
LINE
  5
2A6
330
1F
100
AcDbEntity
  8
0
100
AcDbLine
 10
4.676150581837051
 20
7.415525133785416
 30
0.0
 11
4.662456381897606
 21
7.43424982846405
 31
0.0
  0
LINE
  5
2A7
330
1F
100
AcDbEntity
  8
0
100
AcDbLine
 10
4.619641483902827
 20
7.453495245576762
 30
0.0
 11
4.589161162174452
 21
7.431203634037521
 31
0.0
  0
LINE
  5
2A8
330
1F
100
AcDbEntity
  8
0
100
AcDbLine
 10
4.643731687218972
 20
7.420555628524606
 30
0.0
 11
4.619641483902827
 21
7.453495245576762
 31
0.0
  0
LINE
  5
2A9
330
1F
100
AcDbEntity
  8
0
100
AcDbLine
 10
4.613251365490596
 20
7.398264016985364
 30
0.0
 11
4.589161162174451
 21
7.431203634037521
 31
0.0
  0
LINE
  5
2AA
330
1F
100
AcDbEntity
  8
0
100
AcDbLine
 10
3.142398894630427
 20
5.368345233628927
 30
0.0
 11
3.074469183544785
 21
5.318665222210795
 31
0.0
  0
LINE
  5
2AB
330
1F
100
AcDbEntity
  8
0
100
AcDbLine
 10
3.128704694690981
 20
5.38706992830756
 30
0.0
 11
3.060774983605342
 21
5.337389916889427
 31
0.0
  0
LINE
  5
2AC
330
1F
100
AcDbEntity
  8
0
100
AcDbLine
 10
3.074469183544785
 20
5.318665222210795
 30
0.0
 11
3.060774983605342
 21
5.337389916889427
 31
0.0
  0
LINE
  5
2AD
330
1F
100
AcDbEntity
  8
0
100
AcDbLine
 10
3.142398894630427
 20
5.368345233628927
 30
0.0
 11
3.128704694690981
 21
5.38706992830756
 31
0.0
  0
LINE
  5
2AE
330
1F
100
AcDbEntity
  8
0
100
AcDbLine
 10
3.085889796696202
 20
5.406315345420272
 30
0.0
 11
3.055409474967828
 21
5.384023733881032
 31
0.0
  0
LINE
  5
2AF
330
1F
100
AcDbEntity
  8
0
100
AcDbLine
 10
3.109980000012348
 20
5.373375728368116
 30
0.0
 11
3.085889796696202
 21
5.406315345420272
 31
0.0
  0
LINE
  5
2B0
330
1F
100
AcDbEntity
  8
0
100
AcDbLine
 10
3.079499678283971
 20
5.351084116828875
 30
0.0
 11
3.055409474967826
 21
5.384023733881032
 31
0.0
  0
LINE
  5
2B1
330
1F
100
AcDbEntity
  8
0
100
AcDbLine
 10
2.72754767944379
 20
6.318874067872525
 30
0.0
 11
2.659617968358148
 21
6.269194056454394
 31
0.0
  0
LINE
  5
2B2
330
1F
100
AcDbEntity
  8
0
100
AcDbLine
 10
2.713853479504344
 20
6.337598762551159
 30
0.0
 11
2.645923768418704
 21
6.287918751133026
 31
0.0
  0
LINE
  5
2B3
330
1F
100
AcDbEntity
  8
0
100
AcDbLine
 10
2.659617968358148
 20
6.269194056454394
 30
0.0
 11
2.645923768418704
 21
6.287918751133026
 31
0.0
  0
LINE
  5
2B4
330
1F
100
AcDbEntity
  8
0
100
AcDbLine
 10
2.72754767944379
 20
6.318874067872525
 30
0.0
 11
2.713853479504344
 21
6.337598762551159
 31
0.0
  0
LINE
  5
2B5
330
1F
100
AcDbEntity
  8
0
100
AcDbLine
 10
2.671038581509565
 20
6.356844179663871
 30
0.0
 11
2.640558259781191
 21
6.33455256812463
 31
0.0
  0
LINE
  5
2B6
330
1F
100
AcDbEntity
  8
0
100
AcDbLine
 10
2.695128784825711
 20
6.323904562611715
 30
0.0
 11
2.671038581509565
 21
6.356844179663871
 31
0.0
  0
LINE
  5
2B7
330
1F
100
AcDbEntity
  8
0
100
AcDbLine
 10
2.664648463097334
 20
6.301612951072474
 30
0.0
 11
2.640558259781189
 21
6.33455256812463
 31
0.0
  0
LINE
  5
2B8
330
1F
100
AcDbEntity
  8
0
100
AcDbLine
 10
0.9217247116942193
 20
5.831423389648585
 30
0.0
 11
0.8537950006085779
 21
5.781743378230454
 31
0.0
  0
LINE
  5
2B9
330
1F
100
AcDbEntity
  8
0
100
AcDbLine
 10
0.9080305117547738
 20
5.850148084327219
 30
0.0
 11
0.8401008006691342
 21
5.800468072909086
 31
0.0
  0
LINE
  5
2BA
330
1F
100
AcDbEntity
  8
0
100
AcDbLine
 10
0.8537950006085779
 20
5.781743378230454
 30
0.0
 11
0.8401008006691342
 21
5.800468072909086
 31
0.0
  0
LINE
  5
2BB
330
1F
100
AcDbEntity
  8
0
100
AcDbLine
 10
0.9217247116942193
 20
5.831423389648585
 30
0.0
 11
0.9080305117547738
 21
5.850148084327219
 31
0.0
  0
LINE
  5
2BC
330
1F
100
AcDbEntity
  8
0
100
AcDbLine
 10
0.8652156137599949
 20
5.869393501439931
 30
0.0
 11
0.8347352920316204
 21
5.84710188990069
 31
0.0
  0
LINE
  5
2BD
330
1F
100
AcDbEntity
  8
0
100
AcDbLine
 10
0.8893058170761403
 20
5.836453884387775
 30
0.0
 11
0.8652156137599949
 21
5.869393501439931
 31
0.0
  0
LINE
  5
2BE
330
1F
100
AcDbEntity
  8
0
100
AcDbLine
 10
0.8588254953477641
 20
5.814162272848534
 30
0.0
 11
0.8347352920316187
 21
5.84710188990069
 31
0.0
  0
LINE
  5
2C6
330
1F
100
AcDbEntity
  8
0
100
AcDbLine
 10
1.668569171464405
 20
7.146676652798722
 30
0.0
 11
1.645394040824994
 21
7.065772620127102
 31
0.0
  0
LINE
  5
2C7
330
1F
100
AcDbEntity
  8
0
100
AcDbLine
 10
1.646268129904897
 20
7.153064833146101
 30
0.0
 11
1.623092999265487
 21
7.072160800474481
 31
0.0
  0
LINE
  5
2C8
330
1F
100
AcDbEntity
  8
0
100
AcDbLine
 10
1.645394040824994
 20
7.065772620127102
 30
0.0
 11
1.623092999265487
 21
7.072160800474481
 31
0.0
  0
LINE
  5
2C9
330
1F
100
AcDbEntity
  8
0
100
AcDbLine
 10
1.668569171464405
 20
7.146676652798722
 30
0.0
 11
1.646268129904897
 21
7.153064833146101
 31
0.0
  0
LINE
  5
2CA
330
1F
100
AcDbEntity
  8
0
100
AcDbLine
 10
1.600648988442157
 20
7.142001583065398
 30
0.0
 11
1.590250218497504
 21
7.105699633512795
 31
0.0
  0
LINE
  5
2CB
330
1F
100
AcDbEntity
  8
0
100
AcDbLine
 10
1.639879949557517
 20
7.130763791586594
 30
0.0
 11
1.600648988442157
 21
7.142001583065398
 31
0.0
  0
LINE
  5
2CC
330
1F
100
AcDbEntity
  8
0
100
AcDbLine
 10
1.629481179612862
 20
7.094461842033988
 30
0.0
 11
1.590250218497502
 21
7.105699633512794
 31
0.0
  0
LINE
  5
2CD
330
1F
100
AcDbEntity
  8
0
100
AcDbLine
 10
1.566476307617374
 20
7.363052072479075
 30
0.0
 11
1.559490870451027
 21
7.279184600535063
 31
0.0
  0
LINE
  5
2CE
330
1F
100
AcDbEntity
  8
0
100
AcDbLine
 10
1.543358399701638
 20
7.364977594846919
 30
0.0
 11
1.536372962535292
 21
7.281110122902909
 31
0.0
  0
LINE
  5
2CF
330
1F
100
AcDbEntity
  8
0
100
AcDbLine
 10
1.559490870451027
 20
7.279184600535063
 30
0.0
 11
1.536372962535292
 21
7.281110122902909
 31
0.0
  0
LINE
  5
2D0
330
1F
100
AcDbEntity
  8
0
100
AcDbLine
 10
1.566476307617374
 20
7.363052072479075
 30
0.0
 11
1.543358399701638
 21
7.364977594846919
 31
0.0
  0
LINE
  5
2D1
330
1F
100
AcDbEntity
  8
0
100
AcDbLine
 10
1.500764922696308
 20
7.345246976844887
 30
0.0
 11
1.49763053026565
 21
7.307615320732351
 31
0.0
  0
LINE
  5
2D2
330
1F
100
AcDbEntity
  8
0
100
AcDbLine
 10
1.541432877333792
 20
7.341859686931184
 30
0.0
 11
1.500764922696308
 21
7.345246976844887
 31
0.0
  0
LINE
  5
2D3
330
1F
100
AcDbEntity
  8
0
100
AcDbLine
 10
1.538298484903133
 20
7.304228030818644
 30
0.0
 11
1.497630530265649
 21
7.30761532073235
 31
0.0
  0
SPLINE
  5
2DB
330
1F
100
AcDbEntity
  8
0
100
AcDbSpline
210
0.0
220
0.0
230
1.0
 70
    12
 71
     3
 72
    18
 73
    14
 74
     0
 42
0.0000000001
 43
0.0000000001
 40
0.0
 40
0.0
 40
0.0
 40
0.0
 40
0.2485917088868648
 40
0.2485917088868648
 40
0.4918747761986226
 40
0.4918747761986226
 40
0.7351578435103804
 40
0.7351578435103804
 40
1.018282605138176
 40
1.018282605138176
 40
1.301407366765972
 40
1.301407366765972
 40
1.898327159142577
 40
1.898327159142577
 40
1.898327159142577
 40
1.898327159142577
 10
8.22626801229989
 20
6.097464385831974
 30
0.0
 41
1.0
 10
8.274919419449224
 20
6.026888183719165
 30
0.0
 41
1.0
 10
8.322098867548588
 20
5.957995310278394
 30
0.0
 41
1.0
 10
8.383481355120542
 20
5.818742347497889
 30
0.0
 41
1.0
 10
8.39515867624039
 20
5.748002223734172
 30
0.0
 41
1.0
 10
8.39209002006169
 20
5.59031929602195
 30
0.0
 41
1.0
 10
8.379120401650509
 20
5.506232771538784
 30
0.0
 41
1.0
 10
8.358653257762562
 20
5.324736384664416
 30
0.0
 41
1.0
 10
8.353421415911109
 20
5.2258775801146
 30
0.0
 41
1.0
 10
8.403440774365727
 20
5.046863034696591
 30
0.0
 41
1.0
 10
8.453705870667436
 20
4.968233603131787
 30
0.0
 41
1.0
 10
8.656975564116449
 20
4.749277905230298
 30
0.0
 41
1.0
 10
8.862262168938171
 20
4.634242053346436
 30
0.0
 41
1.0
 10
9.06470697529306
 20
4.519663731097938
 30
0.0
 41
1.0
  0
SPLINE
  5
2E6
330
1F
100
AcDbEntity
  8
0
100
AcDbSpline
210
0.0
220
0.0
230
1.0
 70
    12
 71
     3
 72
    10
 73
     6
 74
     0
 42
0.0000000001
 43
0.0000000001
 40
0.0
 40
0.0
 40
0.0
 40
0.0
 40
0.1236266290720888
 40
0.3345157674751856
 40
0.4959975305747766
 40
0.4959975305747766
 40
0.4959975305747766
 40
0.4959975305747766
 10
8.22626801229989
 20
6.097464385831974
 30
0.0
 41
1.0
 10
8.195462976956879
 20
6.128223422887473
 30
0.0
 41
1.0
 10
8.112109009310808
 20
6.211452925824237
 30
0.0
 41
1.0
 10
7.922532820120278
 20
6.144226195783483
 30
0.0
 41
1.0
 10
7.821854241623827
 20
6.224039211827032
 30
0.0
 41
1.0
 10
7.779129922653533
 20
6.261578280684547
 30
0.0
 41
1.0
  0
SPLINE
  5
2E8
330
1F
100
AcDbEntity
  8
0
100
AcDbSpline
210
0.0
220
0.0
230
1.0
 70
    12
 71
     3
 72
    11
 73
     7
 74
     0
 42
0.0000000001
 43
0.0000000001
 40
0.02323713032557
 40
0.02323713032557
 40
0.02323713032557
 40
0.02323713032557
 40
0.1246001135084278
 40
0.4226433025150803
 40
0.9974880759913954
 40
1.119113129399613
 40
1.119113129399613
 40
1.119113129399613
 40
1.119113129399613
 10
8.576255764732922
 20
7.194703689718705
 30
0.0
 41
1.0
 10
8.560985665796935
 20
7.164551624332401
 30
0.0
 41
1.0
 10
8.502622989279912
 20
7.044883616309576
 30
0.0
 41
1.0
 10
8.45338791921674
 20
6.708755961703909
 30
0.0
 41
1.0
 10
8.619876954889456
 20
6.40131590844802
 30
0.0
 41
1.0
 10
8.758689639038211
 20
6.209747414571291
 30
0.0
 41
1.0
 10
8.782982494369714
 20
6.176626186886604
 30
0.0
 41
1.0
  0
SPLINE
  5
2E9
330
1F
100
AcDbEntity
  8
0
100
AcDbSpline
210
0.0
220
0.0
230
1.0
 70
    12
 71
     3
 72
     8
 73
     4
 74
     0
 42
0.0000000001
 43
0.0000000001
 40
0.0
 40
0.0
 40
0.0
 40
0.0
 40
0.0023847667135625
 40
0.0023847667135625
 40
0.0023847667135625
 40
0.0023847667135625
 10
8.620435054455486
 20
7.198240831220435
 30
0.0
 41
1.0
 10
8.620073321560865
 20
7.197532618263677
 30
0.0
 41
1.0
 10
8.619712079057528
 20
7.196824788282313
 30
0.0
 41
1.0
 10
8.619351339006215
 20
7.19611732905314
 30
0.0
 41
1.0
  0
ARC
  5
2F0
330
1F
100
AcDbEntity
  8
0
100
AcDbCircle
 10
5.235947578357336
 20
1.774842449483152
 30
0.0
 40
0.0325167452920748
100
AcDbArc
 50
49.30065079745069
 51
250.6604954966347
  0
ARC
  5
2F1
330
1F
100
AcDbEntity
  8
0
100
AcDbCircle
 10
5.141038410331934
 20
1.680061914825075
 30
0.0
 40
0.0325167452920748
100
AcDbArc
 50
19.20808374873955
 51
220.822541006485
  0
ARC
  5
37D
330
1F
100
AcDbEntity
  8
0
100
AcDbCircle
 10
8.66776206692616
 20
7.501595847885055
 30
0.0
 40
0.1126825169632961
100
AcDbArc
 50
37.82459241652744
 51
247.1215881442038
  0
ARC
  5
37E
330
1F
100
AcDbEntity
  8
0
100
AcDbCircle
 10
8.860755431396662
 20
7.546705191719036
 30
0.0
 40
0.1067183979730634
100
AcDbArc
 50
341.1395086675648
 51
167.0075160340217
  0
ARC
  5
37F
330
1F
100
AcDbEntity
  8
0
100
AcDbCircle
 10
8.595564038380642
 20
7.260328275302506
 30
0.0
 40
0.1403508378750896
100
AcDbArc
 50
78.32988576137923
 51
294.3662260059739
  0
ARC
  5
380
330
1F
100
AcDbEntity
  8
0
100
AcDbCircle
 10
8.756769070793922
 20
7.0956871530087
 30
0.0
 40
0.1096571705878495
100
AcDbArc
 50
160.3960716833022
 51
19.6039283166987
  0
ARC
  5
381
330
1F
100
AcDbEntity
  8
0
100
AcDbCircle
 10
8.978017480267809
 20
7.161956561816385
 30
0.0
 40
0.1215753392843428
100
AcDbArc
 50
194.0320197727585
 51
75.89637345113806
  0
ARC
  5
382
330
1F
100
AcDbEntity
  8
0
100
AcDbCircle
 10
8.997919460570067
 20
7.398649871681023
 30
0.0
 40
0.1191799459445572
100
AcDbArc
 50
274.6795639353235
 51
107.6701576344381
  0
ARC
  5
383
330
1F
100
AcDbEntity
  8
0
100
AcDbCircle
 10
10.02054965999471
 20
6.704900704079495
 30
0.0
 40
0.1191799459445572
100
AcDbArc
 50
274.6795639353235
 51
107.6701576344381
  0
ARC
  5
384
330
1F
100
AcDbEntity
  8
0
100
AcDbCircle
 10
9.618194237805282
 20
6.566579107700978
 30
0.0
 40
0.1403508378750896
100
AcDbArc
 50
78.32988576137923
 51
294.3662260059739
  0
ARC
  5
385
330
1F
100
AcDbEntity
  8
0
100
AcDbCircle
 10
9.6903922663508
 20
6.807846680283527
 30
0.0
 40
0.1126825169632961
100
AcDbArc
 50
37.82459241652744
 51
247.1215881442038
  0
ARC
  5
386
330
1F
100
AcDbEntity
  8
0
100
AcDbCircle
 10
9.883385630821302
 20
6.852956024117509
 30
0.0
 40
0.1067183979730634
100
AcDbArc
 50
341.1395086675648
 51
167.0075160340217
  0
ARC
  5
387
330
1F
100
AcDbEntity
  8
0
100
AcDbCircle
 10
9.779399270218562
 20
6.401937985407172
 30
0.0
 40
0.1096571705878495
100
AcDbArc
 50
160.3960716833022
 51
19.6039283166987
  0
ARC
  5
388
330
1F
100
AcDbEntity
  8
0
100
AcDbCircle
 10
10.00064767969245
 20
6.468207394214858
 30
0.0
 40
0.1215753392843428
100
AcDbArc
 50
194.0320197727585
 51
75.89637345113806
  0
SPLINE
  5
38F
330
1F
100
AcDbEntity
  8
0
100
AcDbSpline
210
0.0
220
0.0
230
1.0
 70
    12
 71
     3
 72
    11
 73
     7
 74
     0
 42
0.0000000001
 43
0.0000000001
 40
0.0213906781556727
 40
0.0213906781556727
 40
0.0213906781556727
 40
0.0213906781556727
 40
0.2545196808999549
 40
0.6997399444642778
 40
0.9250429347547917
 40
1.02460329415034
 40
1.02460329415034
 40
1.02460329415034
 40
1.02460329415034
 10
8.873016031078519
 20
7.129569890607452
 30
0.0
 41
1.0
 10
8.934571627964337
 20
7.070296096723703
 30
0.0
 41
1.0
 10
9.104081130305465
 20
6.896330055595167
 30
0.0
 41
1.0
 10
8.887012119643163
 20
6.595698384566965
 30
0.0
 41
1.0
 10
8.786249520962961
 20
6.342722632234204
 30
0.0
 41
1.0
 10
8.823993718918116
 20
6.245729383773325
 30
0.0
 41
1.0
 10
8.839641354844508
 20
6.21647817231857
 30
0.0
 41
1.0
  0
SPLINE
  5
390
330
1F
100
AcDbEntity
  8
0
100
AcDbSpline
210
0.0
220
0.0
230
1.0
 70
    12
 71
     3
 72
    16
 73
    12
 74
     0
 42
0.0000000001
 43
0.0000000001
 40
0.0259769794585911
 40
0.0259769794585911
 40
0.0259769794585911
 40
0.0259769794585911
 40
0.1932298922949371
 40
0.1932298922949371
 40
0.3524601294754776
 40
0.3524601294754776
 40
0.5116903666560182
 40
0.5116903666560182
 40
0.8973913182461651
 40
0.8973913182461651
 40
1.019958893234657
 40
1.019958893234657
 40
1.019958893234657
 40
1.019958893234657
 10
8.896810509550829
 20
7.146971848356145
 30
0.0
 41
1.0
 10
8.941283881997936
 20
7.104159043150443
 30
0.0
 41
1.0
 10
8.98500410242096
 20
7.059977362318683
 30
0.0
 41
1.0
 10
9.042296881257073
 20
6.962709513946115
 30
0.0
 41
1.0
 10
9.05280242570836
 20
6.907904001694911
 30
0.0
 41
1.0
 10
9.03836022346321
 20
6.801456045186048
 30
0.0
 41
1.0
 10
9.017081514506028
 20
6.748695039074146
 30
0.0
 41
1.0
 10
8.928459338184682
 20
6.568301421519862
 30
0.0
 41
1.0
 10
8.835594736589725
 20
6.436010338665949
 30
0.0
 41
1.0
 10
8.835792876442323
 20
6.298773050709698
 30
0.0
 41
1.0
 10
8.846463528249261
 20
6.266467944955773
 30
0.0
 41
1.0
 10
8.863670298148987
 20
6.233379343465607
 30
0.0
 41
1.0
  0
SPLINE
  5
391
330
1F
100
AcDbEntity
  8
0
100
AcDbSpline
210
0.0
220
0.0
230
1.0
 70
    12
 71
     3
 72
    14
 73
    10
 74
     0
 42
0.0000000001
 43
0.0000000001
 40
0.02323713032557
 40
0.02323713032557
 40
0.02323713032557
 40
0.02323713032557
 40
0.2345264582132231
 40
0.2345264582132231
 40
0.4458157861008762
 40
0.4458157861008762
 40
0.9584550975651264
 40
0.9584550975651264
 40
1.119694239500903
 40
1.119694239500903
 40
1.119694239500903
 40
1.119694239500903
 10
8.602143595753207
 20
7.181593153645862
 30
0.0
 41
1.0
 10
8.570586916211061
 20
7.119281896271688
 30
0.0
 41
1.0
 10
8.544685925584082
 20
7.057409957896695
 30
0.0
 41
1.0
 10
8.516837031012823
 20
6.923949910181525
 30
0.0
 41
1.0
 10
8.51333652536711
 20
6.854833728403367
 30
0.0
 41
1.0
 10
8.537772056023314
 20
6.625555064845048
 30
0.0
 41
1.0
 10
8.616604491424162
 20
6.470747392210401
 30
0.0
 41
1.0
 10
8.742771823395671
 20
6.281247442494023
 30
0.0
 41
1.0
 10
8.77465108316141
 20
6.237144565957011
 30
0.0
 41
1.0
 10
8.806777191339263
 20
6.193362596850415
 30
0.0
 41
1.0
  0
SPLINE
  5
39A
330
1F
100
AcDbEntity
  8
0
100
AcDbSpline
210
0.0
220
0.0
230
1.0
 70
    12
 71
     3
 72
    18
 73
    14
 74
     0
 42
0.0000000001
 43
0.0000000001
 40
0.0
 40
0.0
 40
0.0
 40
0.0
 40
0.252867235801132
 40
0.252867235801132
 40
0.505734471602264
 40
0.505734471602264
 40
0.758601707403396
 40
0.758601707403396
 40
1.017579596297187
 40
1.017579596297187
 40
1.589885455786928
 40
1.589885455786928
 40
1.898327159142577
 40
1.898327159142577
 40
1.898327159142577
 40
1.898327159142577
 10
8.250159761882855
 20
6.113934062602238
 30
0.0
 41
1.0
 10
8.299681346633063
 20
6.042095536667124
 30
0.0
 41
1.0
 10
8.348587368942269
 20
5.971516548576318
 30
0.0
 41
1.0
 10
8.4141218986029
 20
5.8194171969154
 30
0.0
 41
1.0
 10
8.425245027804195
 20
5.739798794957925
 30
0.0
 41
1.0
 10
8.419263056587571
 20
5.56943668322745
 30
0.0
 41
1.0
 10
8.404620194505036
 20
5.481103547158767
 30
0.0
 41
1.0
 10
8.387031192893042
 20
5.307149766524986
 30
0.0
 41
1.0
 10
8.385075018701812
 20
5.220922101623397
 30
0.0
 41
1.0
 10
8.45290385304056
 20
4.976577555373972
 30
0.0
 41
1.0
 10
8.59770284590532
 20
4.843623182064738
 30
0.0
 41
1.0
 10
8.869549270755801
 20
4.663190599900727
 30
0.0
 41
1.0
 10
8.974354957685435
 20
4.604144229440207
 30
0.0
 41
1.0
 10
9.079000138469633
 20
4.544917868134473
 30
0.0
 41
1.0
  0
SPLINE
  5
39B
330
1F
100
AcDbEntity
  8
0
100
AcDbSpline
210
0.0
220
0.0
230
1.0
 70
    12
 71
     3
 72
    16
 73
    12
 74
     0
 42
0.0000000001
 43
0.0000000001
 40
0.0
 40
0.0
 40
0.0
 40
0.0
 40
0.1146352424023984
 40
0.1146352424023984
 40
0.2292704848047968
 40
0.2292704848047968
 40
0.3439057272071952
 40
0.3439057272071952
 40
0.4585409696095936
 40
0.4585409696095936
 40
0.4959975305747766
 40
0.4959975305747766
 40
0.4959975305747766
 40
0.4959975305747766
 10
8.246771763587228
 20
6.117998799244563
 30
0.0
 41
1.0
 10
8.218207183931
 20
6.146520726076891
 30
0.0
 41
1.0
 10
8.187900137255127
 20
6.177994723395077
 30
0.0
 41
1.0
 10
8.106690329081891
 20
6.21329111761991
 30
0.0
 41
1.0
 10
8.061903861480394
 20
6.21113160842071
 30
0.0
 41
1.0
 10
7.981444108993654
 20
6.205199704775421
 30
0.0
 41
1.0
 10
7.944978412274626
 20
6.201878706210709
 30
0.0
 41
1.0
 10
7.885547915193852
 20
6.217013303451503
 30
0.0
 41
1.0
 10
7.856700667046151
 20
6.235143914212133
 30
0.0
 41
1.0
 10
7.817676596291347
 20
6.266539480188323
 30
0.0
 41
1.0
 10
7.808026664806927
 20
6.274816828009065
 30
0.0
 41
1.0
 10
7.798283490036736
 20
6.28337751937651
 30
0.0
 41
1.0
  0
SPLINE
  5
39C
330
1F
100
AcDbEntity
  8
0
100
AcDbSpline
210
0.0
220
0.0
230
1.0
 70
    12
 71
     3
 72
    15
 73
    11
 74
     0
 42
0.0000000001
 43
0.0000000001
 40
0.0228537045303072
 40
0.0228537045303072
 40
0.0228537045303072
 40
0.0228537045303072
 40
0.1251418804878401
 40
0.5174242827809883
 40
0.5823394242250366
 40
0.7366860513154786
 40
1.09516152070099
 40
1.502530758269692
 40
1.583941603208728
 40
2.55136616730632
 40
2.55136616730632
 40
2.55136616730632
 40
2.55136616730632
 10
7.82666058993631
 20
6.576568037815377
 30
0.0
 41
1.0
 10
7.861184137751611
 20
6.571959916547409
 30
0.0
 41
1.0
 10
8.02538995514963
 20
6.544203246561445
 30
0.0
 41
1.0
 10
8.129742725127723
 20
6.348790009299456
 30
0.0
 41
1.0
 10
8.211530876744067
 20
6.162590961365956
 30
0.0
 41
1.0
 10
8.364797759250688
 20
6.036598519037009
 30
0.0
 41
1.0
 10
8.473495272536054
 20
5.722450150521121
 30
0.0
 41
1.0
 10
8.406234012113874
 20
5.44568236333003
 30
0.0
 41
1.0
 10
8.39854709987779
 20
4.953175685298767
 30
0.0
 41
1.0
 10
8.773785168217659
 20
4.770244305062747
 30
0.0
 41
1.0
 10
9.119897171653884
 20
4.601512100505357
 30
0.0
 41
1.0
  0
SPLINE
  5
39D
330
1F
100
AcDbEntity
  8
0
100
AcDbSpline
210
0.0
220
0.0
230
1.0
 70
    12
 71
     3
 72
     8
 73
     4
 74
     0
 42
0.0000000001
 43
0.0000000001
 40
0.0
 40
0.0
 40
0.0
 40
0.0
 40
0.0036842442196855
 40
0.0036842442196855
 40
0.0036842442196855
 40
0.0036842442196855
 10
7.807083094886889
 20
6.608335503900994
 30
0.0
 41
1.0
 10
7.808331097461322
 20
6.608178641544825
 30
0.0
 41
1.0
 10
7.809581728755638
 20
6.608020803638278
 30
0.0
 41
1.0
 10
7.810834818339993
 20
6.607861782471207
 30
0.0
 41
1.0
  0
SPLINE
  5
39E
330
1F
100
AcDbEntity
  8
0
100
AcDbSpline
210
0.0
220
0.0
230
1.0
 70
    12
 71
     3
 72
    17
 73
    13
 74
     0
 42
0.0000000001
 43
0.0000000001
 40
0.0222998953007705
 40
0.0222998953007705
 40
0.0222998953007705
 40
0.0222998953007705
 40
0.0981233819500989
 40
0.5853521712065466
 40
0.9079628307578613
 40
1.041914805657906
 40
1.267217795948421
 40
1.645642985558498
 40
1.89616558259789
 40
2.157985114530493
 40
2.509550185463651
 40
2.766274190764984
 40
2.766274190764984
 40
2.766274190764984
 40
2.766274190764984
 10
7.448403100000688
 20
6.154111947748961
 30
0.0
 41
1.0
 10
7.439452781764209
 20
6.129080114207515
 30
0.0
 41
1.0
 10
7.383889857379723
 20
5.946129205598152
 30
0.0
 41
1.0
 10
7.856745586864575
 20
5.809007946699634
 30
0.0
 41
1.0
 10
8.110183868724805
 20
5.92156696914736
 30
0.0
 41
1.0
 10
8.370044839746763
 20
5.893213266808491
 30
0.0
 41
1.0
 10
8.385993626541477
 20
5.587308009162595
 30
0.0
 41
1.0
 10
8.330427167007889
 20
5.333585406166663
 30
0.0
 41
1.0
 10
8.367272336150833
 20
5.021268732109046
 30
0.0
 41
1.0
 10
8.566063994610738
 20
4.799196365629667
 30
0.0
 41
1.0
 10
8.800096856574278
 20
4.6304259702605
 30
0.0
 41
1.0
 10
8.96436505778011
 20
4.511269099464722
 30
0.0
 41
1.0
 10
9.033693264063649
 20
4.460979803922495
 30
0.0
 41
1.0
  0
SPLINE
  5
39F
330
1F
100
AcDbEntity
  8
0
100
AcDbSpline
210
0.0
220
0.0
230
1.0
 70
    12
 71
     3
 72
     8
 73
     4
 74
     0
 42
0.0000000001
 43
0.0000000001
 40
0.0
 40
0.0
 40
0.0
 40
0.0
 40
0.0052509063478516
 40
0.0052509063478516
 40
0.0052509063478516
 40
0.0052509063478516
 10
7.429366056732669
 20
6.186409138174277
 30
0.0
 41
1.0
 10
7.428716334318236
 20
6.184667601253112
 30
0.0
 41
1.0
 10
7.428062278985866
 20
6.182917879422333
 30
0.0
 41
1.0
 10
7.427405970296842
 20
6.181160349570327
 30
0.0
 41
1.0
  0
SPLINE
  5
3A0
330
1F
100
AcDbEntity
  8
0
100
AcDbSpline
210
0.0
220
0.0
230
1.0
 70
    12
 71
     3
 72
    17
 73
    13
 74
     0
 42
0.0000000001
 43
0.0000000001
 40
0.0232332297245017
 40
0.0232332297245017
 40
0.0232332297245017
 40
0.0232332297245017
 40
0.1226120186066909
 40
0.4567003622058612
 40
1.352600590800729
 40
1.426685692248693
 40
1.532455622565144
 40
1.752064368487768
 40
2.228273792276311
 40
2.411858577053084
 40
3.110399025320852
 40
3.33344328283945
 40
3.33344328283945
 40
3.33344328283945
 40
3.33344328283945
 10
7.263656896341109
 20
6.397248722947722
 30
0.0
 41
1.0
 10
7.244599710648431
 20
6.370091391800639
 30
0.0
 41
1.0
 10
7.165367728359242
 20
6.249217434260746
 30
0.0
 41
1.0
 10
7.197064511616139
 20
5.707677797728548
 30
0.0
 41
1.0
 10
7.858150518558599
 20
5.771762115296383
 30
0.0
 41
1.0
 10
8.19428354615933
 20
5.870404862768702
 30
0.0
 41
1.0
 10
8.346629832106242
 20
5.833372375727336
 30
0.0
 41
1.0
 10
8.302204842580311
 20
5.500802690473624
 30
0.0
 41
1.0
 10
8.264000444510096
 20
5.236277304660751
 30
0.0
 41
1.0
 10
8.40827514364605
 20
4.791834819736112
 30
0.0
 41
1.0
 10
8.735854112090559
 20
4.566600695153464
 30
0.0
 41
1.0
 10
8.996139885909114
 20
4.407424196694139
 30
0.0
 41
1.0
 10
9.059134906116698
 20
4.368899898612415
 30
0.0
 41
1.0
  0
SPLINE
  5
3A1
330
1F
100
AcDbEntity
  8
0
100
AcDbSpline
210
0.0
220
0.0
230
1.0
 70
    12
 71
     3
 72
     8
 73
     4
 74
     0
 42
0.0000000001
 43
0.0000000001
 40
0.0
 40
0.0
 40
0.0
 40
0.0
 40
0.00243492647716
 40
0.00243492647716
 40
0.00243492647716
 40
0.00243492647716
 10
7.253490610202751
 20
6.433078564451612
 30
0.0
 41
1.0
 10
7.253018571262372
 20
6.432416347956629
 30
0.0
 41
1.0
 10
7.252546120266402
 20
6.431752958159576
 30
0.0
 41
1.0
 10
7.252073316941289
 20
6.431088384953238
 30
0.0
 41
1.0
  0
SPLINE
  5
3A2
330
1F
100
AcDbEntity
  8
0
100
AcDbSpline
210
0.0
220
0.0
230
1.0
 70
    12
 71
     3
 72
    11
 73
     7
 74
     0
 42
0.0000000001
 43
0.0000000001
 40
0.0228981952907748
 40
0.0228981952907748
 40
0.0228981952907748
 40
0.0228981952907748
 40
0.1623302906822241
 40
0.8101406207861429
 40
1.520200151129413
 40
1.763170852544355
 40
1.763170852544355
 40
1.763170852544355
 40
1.763170852544355
 10
6.018207102712935
 20
5.402224315845293
 30
0.0
 41
1.0
 10
5.995686355093912
 20
5.360878527365737
 30
0.0
 41
1.0
 10
5.875690820073587
 20
5.125338561869341
 30
0.0
 41
1.0
 10
6.192391519726488
 20
4.517556322733713
 30
0.0
 41
1.0
 10
5.466672746245729
 20
4.304279506037211
 30
0.0
 41
1.0
 10
5.16128556306366
 20
4.350061741556686
 30
0.0
 41
1.0
 10
5.083428496594748
 20
4.361733713237993
 30
0.0
 41
1.0
  0
SPLINE
  5
3A3
330
1F
100
AcDbEntity
  8
0
100
AcDbSpline
210
0.0
220
0.0
230
1.0
 70
    12
 71
     3
 72
     8
 73
     4
 74
     0
 42
0.0000000001
 43
0.0000000001
 40
0.0
 40
0.0
 40
0.0
 40
0.0
 40
0.0009168282701552
 40
0.0009168282701552
 40
0.0009168282701552
 40
0.0009168282701552
 10
6.054791423909449
 20
5.408579202624765
 30
0.0
 41
1.0
 10
6.054641970915108
 20
5.408307737063383
 30
0.0
 41
1.0
 10
6.054492582353322
 20
5.408036354169162
 30
0.0
 41
1.0
 10
6.054343259819857
 20
5.40776505305266
 30
0.0
 41
1.0
  0
SPLINE
  5
3A4
330
1F
100
AcDbEntity
  8
0
100
AcDbSpline
210
0.0
220
0.0
230
1.0
 70
    12
 71
     3
 72
    13
 73
     9
 74
     0
 42
0.0000000001
 43
0.0000000001
 40
0.0234493573157972
 40
0.0234493573157972
 40
0.0234493573157972
 40
0.0234493573157972
 40
0.0954997703838203
 40
0.2418201313017218
 40
0.4503334313903581
 40
0.5796525785525001
 40
1.061408200192877
 40
1.665889173589893
 40
1.665889173589893
 40
1.665889173589893
 40
1.665889173589893
 10
6.117736215973952
 20
5.132989563675724
 30
0.0
 41
1.0
 10
6.108273177122491
 20
5.110971413500433
 30
0.0
 41
1.0
 10
6.079696464110335
 20
5.044079605998489
 30
0.0
 41
1.0
 10
6.02634042401211
 20
4.909477034592316
 30
0.0
 41
1.0
 10
6.038996656846177
 20
4.746664009834676
 30
0.0
 41
1.0
 10
6.000464112303789
 20
4.468491448590185
 30
0.0
 41
1.0
 10
5.563864915825697
 20
4.246569703400056
 30
0.0
 41
1.0
 10
5.208301818988743
 20
4.281294343369733
 30
0.0
 41
1.0
 10
5.010434128043697
 20
4.300618295688801
 30
0.0
 41
1.0
  0
SPLINE
  5
3A5
330
1F
100
AcDbEntity
  8
0
100
AcDbSpline
210
0.0
220
0.0
230
1.0
 70
    12
 71
     3
 72
     8
 73
     4
 74
     0
 42
0.0000000001
 43
0.0000000001
 40
0.0
 40
0.0
 40
0.0
 40
0.0
 40
0.0037618326401264
 40
0.0037618326401264
 40
0.0037618326401264
 40
0.0037618326401264
 10
6.153635175605369
 20
5.142999263021991
 30
0.0
 41
1.0
 10
6.153140517153008
 20
5.141850562682814
 30
0.0
 41
1.0
 10
6.152644889801138
 20
5.140701692550398
 30
0.0
 41
1.0
 10
6.152148389371932
 20
5.139552663719637
 30
0.0
 41
1.0
  0
SPLINE
  5
3A6
330
1F
100
AcDbEntity
  8
0
100
AcDbSpline
210
0.0
220
0.0
230
1.0
 70
    12
 71
     3
 72
    14
 73
    10
 74
     0
 42
0.0000000001
 43
0.0000000001
 40
0.0221519120280212
 40
0.0221519120280212
 40
0.0221519120280212
 40
0.0221519120280212
 40
0.2420297178455872
 40
0.7976898949638005
 40
1.413258011340614
 40
1.495094508031326
 40
1.630023012509112
 40
2.132295042356825
 40
2.747100120566143
 40
2.747100120566143
 40
2.747100120566143
 40
2.747100120566143
 10
6.532356542888047
 20
5.459940321691695
 30
0.0
 41
1.0
 10
6.607471220890427
 20
5.440031832751009
 30
0.0
 41
1.0
 10
6.865032059129637
 20
5.36084059739383
 30
0.0
 41
1.0
 10
6.816984836700618
 20
4.598645035595863
 30
0.0
 41
1.0
 10
6.243450147210806
 20
4.770965121244494
 30
0.0
 41
1.0
 10
6.042833000463735
 20
4.570321335400864
 30
0.0
 41
1.0
 10
5.947547256825019
 20
4.343845067171975
 30
0.0
 41
1.0
 10
5.486779504164992
 20
4.196053019441004
 30
0.0
 41
1.0
 10
5.123443010846943
 20
4.242653148499133
 30
0.0
 41
1.0
 10
4.923473716355502
 20
4.268300434423717
 30
0.0
 41
1.0
  0
SPLINE
  5
3A8
330
1F
100
AcDbEntity
  8
0
100
AcDbSpline
210
0.0
220
0.0
230
1.0
 70
    12
 71
     3
 72
     8
 73
     4
 74
     0
 42
0.0000000001
 43
0.0000000001
 40
0.0
 40
0.0
 40
0.0
 40
0.0
 40
0.0045597530724524
 40
0.0045597530724524
 40
0.0045597530724524
 40
0.0045597530724524
 10
6.516937076080994
 20
5.493984303686518
 30
0.0
 41
1.0
 10
6.51849914994686
 20
5.493576762106567
 30
0.0
 41
1.0
 10
6.520062853293673
 20
5.493169154413506
 30
0.0
 41
1.0
 10
6.521627999451759
 20
5.492761209377274
 30
0.0
 41
1.0
  0
SPLINE
  5
3A9
330
1F
100
AcDbEntity
  8
0
100
AcDbSpline
210
0.0
220
0.0
230
1.0
 70
    12
 71
     3
 72
    30
 73
    26
 74
     0
 42
0.0000000001
 43
0.0000000001
 40
0.0265715046286859
 40
0.0265715046286859
 40
0.0265715046286859
 40
0.0265715046286859
 40
0.1890146773145992
 40
0.1890146773145992
 40
0.3604696741961032
 40
0.3604696741961032
 40
0.5319246710776071
 40
0.5319246710776071
 40
0.7385976101733376
 40
0.7385976101733376
 40
0.898463757790763
 40
0.898463757790763
 40
1.058329905408188
 40
1.058329905408188
 40
1.345695358142838
 40
1.345695358142838
 40
1.498652738271897
 40
1.498652738271897
 40
1.651610118400956
 40
1.651610118400956
 40
1.804567498530014
 40
1.804567498530014
 40
2.134890391154321
 40
2.134890391154321
 40
2.747100120566143
 40
2.747100120566143
 40
2.747100120566143
 40
2.747100120566143
 10
6.544374627891095
 20
5.48679917127452
 30
0.0
 41
1.0
 10
6.600474925412182
 20
5.471924744557608
 30
0.0
 41
1.0
 10
6.657262710356256
 20
5.454960399774072
 30
0.0
 41
1.0
 10
6.758053105039554
 20
5.390587244840763
 30
0.0
 41
1.0
 10
6.797454534144811
 20
5.337308144912575
 30
0.0
 41
1.0
 10
6.841574863573154
 20
5.212944815422542
 30
0.0
 41
1.0
 10
6.848970986470201
 20
5.142160612070355
 30
0.0
 41
1.0
 10
6.837382260279964
 20
4.988251197987053
 30
0.0
 41
1.0
 10
6.812802460531381
 20
4.905420692344528
 30
0.0
 41
1.0
 10
6.735908637951012
 20
4.791382810671505
 30
0.0
 41
1.0
 10
6.689230570372053
 20
4.75542656554757
 30
0.0
 41
1.0
 10
6.585978203358609
 20
4.712536782260149
 30
0.0
 41
1.0
 10
6.529565936502522
 20
4.702879456778742
 30
0.0
 41
1.0
 10
6.370437157265389
 20
4.683686555214546
 30
0.0
 41
1.0
 10
6.266181728014697
 20
4.679663525451952
 30
0.0
 41
1.0
 10
6.14387320676305
 20
4.626601086464095
 30
0.0
 41
1.0
 10
6.107444590989313
 20
4.598304172196997
 30
0.0
 41
1.0
 10
6.053284407157242
 20
4.523550028765325
 30
0.0
 41
1.0
 10
6.033087652799249
 20
4.473447004130083
 30
0.0
 41
1.0
 10
5.967449530400528
 20
4.387213129483788
 30
0.0
 41
1.0
 10
5.926032400247739
 20
4.352187581527684
 30
0.0
 41
1.0
 10
5.779582848147141
 20
4.262552406011878
 30
0.0
 41
1.0
 10
5.656496861482442
 20
4.231625451560877
 30
0.0
 41
1.0
 10
5.320924476213738
 20
4.187853916635455
 30
0.0
 41
1.0
 10
5.118907311545753
 20
4.213978809787569
 30
0.0
 41
1.0
 10
4.919782170894917
 20
4.239517827815478
 30
0.0
 41
1.0
  0
SPLINE
  5
3AA
330
1F
100
AcDbEntity
  8
0
100
AcDbSpline
210
0.0
220
0.0
230
1.0
 70
    12
 71
     3
 72
    18
 73
    14
 74
     0
 42
0.0000000001
 43
0.0000000001
 40
0.0271371544991999
 40
0.0271371544991999
 40
0.0271371544991999
 40
0.0271371544991999
 40
0.2234883850195736
 40
0.2234883850195736
 40
0.4469767700391472
 40
0.4469767700391472
 40
0.6166523961182252
 40
0.6166523961182252
 40
0.7863280221973031
 40
0.7863280221973031
 40
1.079607065309172
 40
1.079607065309172
 40
1.665889173589893
 40
1.665889173589893
 40
1.665889173589893
 40
1.665889173589893
 10
6.142814765673673
 20
5.118117394549057
 30
0.0
 41
1.0
 10
6.116526390302877
 20
5.058062526630125
 30
0.0
 41
1.0
 10
6.089481572444033
 20
4.997763126832218
 30
0.0
 41
1.0
 10
6.05917193536254
 20
4.871681114624706
 30
0.0
 41
1.0
 10
6.064883373352342
 20
4.799719241145102
 30
0.0
 41
1.0
 10
6.05772701454747
 20
4.662164764705112
 30
0.0
 41
1.0
 10
6.047476903029049
 20
4.599634046304628
 30
0.0
 41
1.0
 10
5.991817846754537
 20
4.492525977789136
 30
0.0
 41
1.0
 10
5.949709252208404
 20
4.447904545866376
 30
0.0
 41
1.0
 10
5.814424708798487
 20
4.347364125225015
 30
0.0
 41
1.0
 10
5.706243211839611
 20
4.306196783918243
 30
0.0
 41
1.0
 10
5.395224664910308
 20
4.233561123121162
 30
0.0
 41
1.0
 10
5.199524152255243
 20
4.252995150862413
 30
0.0
 41
1.0
 10
5.007613584159151
 20
4.271737324734771
 30
0.0
 41
1.0
  0
SPLINE
  5
3AB
330
1F
100
AcDbEntity
  8
0
100
AcDbSpline
210
0.0
220
0.0
230
1.0
 70
    12
 71
     3
 72
    20
 73
    16
 74
     0
 42
0.0000000001
 43
0.0000000001
 40
0.0240180956101172
 40
0.0240180956101172
 40
0.0240180956101172
 40
0.0240180956101172
 40
0.1926977459807746
 40
0.1926977459807746
 40
0.3853954919615493
 40
0.3853954919615493
 40
0.724337750316582
 40
0.724337750316582
 40
0.9136599120232568
 40
0.9136599120232568
 40
1.102982073729932
 40
1.102982073729932
 40
1.492161292362433
 40
1.492161292362433
 40
1.763170852544355
 40
1.763170852544355
 40
1.763170852544355
 40
1.763170852544355
 10
6.043207135946349
 20
5.387398708828043
 30
0.0
 41
1.0
 10
6.01653310038849
 20
5.338138573703695
 30
0.0
 41
1.0
 10
5.993455101494824
 20
5.290887953788178
 30
0.0
 41
1.0
 10
5.9730079411611
 20
5.182096973722962
 30
0.0
 41
1.0
 10
5.976255838934493
 20
5.117761201944306
 30
0.0
 41
1.0
 10
5.999784605992969
 20
4.933986187266508
 30
0.0
 41
1.0
 10
6.031772166254286
 20
4.811021531288501
 30
0.0
 41
1.0
 10
6.013300566788349
 20
4.636663346651526
 30
0.0
 41
1.0
 10
5.989094740293937
 20
4.577512374541874
 30
0.0
 41
1.0
 10
5.907630916586252
 20
4.480849806959184
 30
0.0
 41
1.0
 10
5.852745101636685
 20
4.441651727904775
 30
0.0
 41
1.0
 10
5.661802435579239
 20
4.345421852929468
 30
0.0
 41
1.0
 10
5.500630819783296
 20
4.312772763457686
 30
0.0
 41
1.0
 10
5.255379587038402
 20
4.306766213754039
 30
0.0
 41
1.0
 10
5.165968057737973
 20
4.320017114353187
 30
0.0
 41
1.0
 10
5.079126273037519
 20
4.333036033479591
 30
0.0
 41
1.0
  0
SPLINE
  5
3AC
330
1F
100
AcDbEntity
  8
0
100
AcDbSpline
210
0.0
220
0.0
230
1.0
 70
    12
 71
     3
 72
    38
 73
    34
 74
     0
 42
0.0000000001
 43
0.0000000001
 40
0.02530186436844
 40
0.02530186436844
 40
0.02530186436844
 40
0.02530186436844
 40
0.1686691067988945
 40
0.1686691067988945
 40
0.3373382135977891
 40
0.3373382135977891
 40
0.5408830912554146
 40
0.5408830912554146
 40
0.7444279689130401
 40
0.7444279689130401
 40
1.213159673654677
 40
1.213159673654677
 40
1.34876495292783
 40
1.34876495292783
 40
1.450080017683886
 40
1.450080017683886
 40
1.551395082439941
 40
1.551395082439941
 40
1.652710147195996
 40
1.652710147195996
 40
1.754025211952051
 40
1.754025211952051
 40
2.02052293242425
 40
2.02052293242425
 40
2.278258029382137
 40
2.278258029382137
 40
2.535993126340024
 40
2.535993126340024
 40
2.793728223297911
 40
2.793728223297911
 40
3.180835614595088
 40
3.180835614595088
 40
3.33344328283945
 40
3.33344328283945
 40
3.33344328283945
 40
3.33344328283945
 10
7.238708960273901
 20
6.41204343512041
 30
0.0
 41
1.0
 10
7.210791050277193
 20
6.37155248100754
 30
0.0
 41
1.0
 10
7.18359622801136
 20
6.32662982441553
 30
0.0
 41
1.0
 10
7.152515651901424
 20
6.214720568930446
 30
0.0
 41
1.0
 10
7.15016259406596
 20
6.149086981003516
 30
0.0
 41
1.0
 10
7.173150270537733
 20
6.012283563316923
 30
0.0
 41
1.0
 10
7.205497338598975
 20
5.943722947208976
 30
0.0
 41
1.0
 10
7.302065319217355
 20
5.844044334408206
 30
0.0
 41
1.0
 10
7.364753018314299
 20
5.810522501080971
 30
0.0
 41
1.0
 10
7.595517132207625
 20
5.739768377463105
 30
0.0
 41
1.0
 10
7.796064221075877
 20
5.752492529091564
 30
0.0
 41
1.0
 10
8.023331687955595
 20
5.79490064041299
 30
0.0
 41
1.0
 10
8.072271091834539
 20
5.806177957841403
 30
0.0
 41
1.0
 10
8.151415887894167
 20
5.827382469482519
 30
0.0
 41
1.0
 10
8.1783647568552
 20
5.835131815878117
 30
0.0
 41
1.0
 10
8.23799702630368
 20
5.829668574221232
 30
0.0
 41
1.0
 10
8.264846393741884
 20
5.818217555805756
 30
0.0
 41
1.0
 10
8.291033331401385
 20
5.786223897366913
 30
0.0
 41
1.0
 10
8.297513920123775
 20
5.760454741462656
 30
0.0
 41
1.0
 10
8.29862977273301
 20
5.694173254825531
 30
0.0
 41
1.0
 10
8.293422359499148
 20
5.655164686170174
 30
0.0
 41
1.0
 10
8.274464009969886
 20
5.516119469066355
 30
0.0
 41
1.0
 10
8.261817518754121
 20
5.426031324236174
 30
0.0
 41
1.0
 10
8.256081252297818
 20
5.253167793179426
 30
0.0
 41
1.0
 10
8.26279069920436
 20
5.169445410394293
 30
0.0
 41
1.0
 10
8.309395869968322
 20
4.997460992541726
 30
0.0
 41
1.0
 10
8.349017819246278
 20
4.913900573892214
 30
0.0
 41
1.0
 10
8.452874416566118
 20
4.769998104578771
 30
0.0
 41
1.0
 10
8.51635061792946
 20
4.70699873098394
 30
0.0
 41
1.0
 10
8.688878278370476
 20
4.564365254724423
 30
0.0
 41
1.0
 10
8.804074800049067
 20
4.492247266809237
 30
0.0
 41
1.0
 10
8.957737715494785
 20
4.396894098589387
 30
0.0
 41
1.0
 10
9.000894037900014
 20
4.370502291137822
 30
0.0
 41
1.0
 10
9.043995453071325
 20
4.344143830416132
 30
0.0
 41
1.0
  0
SPLINE
  5
3AD
330
1F
100
AcDbEntity
  8
0
100
AcDbSpline
210
0.0
220
0.0
230
1.0
 70
    12
 71
     3
 72
    34
 73
    30
 74
     0
 42
0.0000000001
 43
0.0000000001
 40
0.0269496697188339
 40
0.0269496697188339
 40
0.0269496697188339
 40
0.0269496697188339
 40
0.1123474435881476
 40
0.1123474435881476
 40
0.2246948871762952
 40
0.2246948871762952
 40
0.3370423307644428
 40
0.3370423307644428
 40
0.6297868828543861
 40
0.6297868828543861
 40
0.9225314349443294
 40
0.9225314349443294
 40
1.027121548253832
 40
1.027121548253832
 40
1.131711661563335
 40
1.131711661563335
 40
1.236301774872838
 40
1.236301774872838
 40
1.491033729558601
 40
1.491033729558601
 40
1.745765684244364
 40
1.745765684244364
 40
1.946744780840402
 40
1.946744780840402
 40
2.14772387743644
 40
2.14772387743644
 40
2.56099535261171
 40
2.56099535261171
 40
2.766274190764984
 40
2.766274190764984
 40
2.766274190764984
 40
2.766274190764984
 10
7.419300920520163
 20
6.158998575379462
 30
0.0
 41
1.0
 10
7.408901749682578
 20
6.129470270272158
 30
0.0
 41
1.0
 10
7.40017955474204
 20
6.09828869273464
 30
0.0
 41
1.0
 10
7.404579991425789
 20
6.026011159852673
 30
0.0
 41
1.0
 10
7.424504618209362
 20
5.989917811680233
 30
0.0
 41
1.0
 10
7.481910424134871
 20
5.932214822200532
 30
0.0
 41
1.0
 10
7.519427930472009
 20
5.909464863551129
 30
0.0
 41
1.0
 10
7.671098906796693
 20
5.84361563915764
 30
0.0
 41
1.0
 10
7.811562986586052
 20
5.827199482540185
 30
0.0
 41
1.0
 10
8.024286709387683
 20
5.84912029412452
 30
0.0
 41
1.0
 10
8.104766231974324
 20
5.879961968605863
 30
0.0
 41
1.0
 10
8.235891789088296
 20
5.87782998345502
 30
0.0
 41
1.0
 10
8.270096211669534
 20
5.872190426615096
 30
0.0
 41
1.0
 10
8.313297941610488
 20
5.848422630254867
 30
0.0
 41
1.0
 10
8.325734579461656
 20
5.829376418776071
 30
0.0
 41
1.0
 10
8.343493507907704
 20
5.770851505457696
 30
0.0
 41
1.0
 10
8.346668036175659
 20
5.733440942934252
 30
0.0
 41
1.0
 10
8.347288224669656
 20
5.602569860192697
 30
0.0
 41
1.0
 10
8.335643683883694
 20
5.518009219544585
 30
0.0
 41
1.0
 10
8.318412805717081
 20
5.353512298825089
 30
0.0
 41
1.0
 10
8.312269728458125
 20
5.268600122423995
 30
0.0
 41
1.0
 10
8.33166167444996
 20
5.109196249714159
 30
0.0
 41
1.0
 10
8.352007115253512
 20
5.038406452477394
 30
0.0
 41
1.0
 10
8.423660330883312
 20
4.915881313800981
 30
0.0
 41
1.0
 10
8.471859457658876
 20
4.86306371624976
 30
0.0
 41
1.0
 10
8.625806677076135
 20
4.717278581841871
 30
0.0
 41
1.0
 10
8.738965848072741
 20
4.63872999189176
 30
0.0
 41
1.0
 10
8.905789483087547
 20
4.517909784396766
 30
0.0
 41
1.0
 10
8.961219108699435
 20
4.477702244920485
 30
0.0
 41
1.0
 10
9.01665456990779
 20
4.437490469055045
 30
0.0
 41
1.0
  0
SPLINE
  5
3AE
330
1F
100
AcDbEntity
  8
0
100
AcDbSpline
210
0.0
220
0.0
230
1.0
 70
    12
 71
     3
 72
    30
 73
    26
 74
     0
 42
0.0000000001
 43
0.0000000001
 40
0.0261576672413702
 40
0.0261576672413702
 40
0.0261576672413702
 40
0.0261576672413702
 40
0.1639025084276706
 40
0.1639025084276706
 40
0.3278050168553412
 40
0.3278050168553412
 40
0.5006000433540465
 40
0.5006000433540465
 40
0.5940099679717045
 40
0.5940099679717045
 40
0.6874198925893624
 40
0.6874198925893624
 40
0.8358409807986403
 40
0.8358409807986403
 40
0.9842620690079182
 40
0.9842620690079182
 40
1.281104245426474
 40
1.281104245426474
 40
1.50836711618392
 40
1.50836711618392
 40
1.758497263995922
 40
1.758497263995922
 40
2.008627411807924
 40
2.008627411807924
 40
2.55136616730632
 40
2.55136616730632
 40
2.55136616730632
 40
2.55136616730632
 10
7.8340016071039
 20
6.604772530342002
 30
0.0
 41
1.0
 10
7.881735729678446
 20
6.597998460067934
 30
0.0
 41
1.0
 10
7.931452936845141
 20
6.587799338207675
 30
0.0
 41
1.0
 10
8.025166167077202
 20
6.534191934976673
 30
0.0
 41
1.0
 10
8.066238453699835
 20
6.490567467801992
 30
0.0
 41
1.0
 10
8.13729478902647
 20
6.390124649484116
 30
0.0
 41
1.0
 10
8.166706470830471
 20
6.332408648873682
 30
0.0
 41
1.0
 10
8.20589140560457
 20
6.247796125743131
 30
0.0
 41
1.0
 10
8.216906026644237
 20
6.220678769413614
 30
0.0
 41
1.0
 10
8.247671081065176
 20
6.175954897965979
 30
0.0
 41
1.0
 10
8.268434310896513
 20
6.154765400626324
 30
0.0
 41
1.0
 10
8.325626229057889
 20
6.096077860323771
 30
0.0
 41
1.0
 10
8.360690132585646
 20
6.053528100105913
 30
0.0
 41
1.0
 10
8.412324747194836
 20
5.960909632320359
 30
0.0
 41
1.0
 10
8.43151636274548
 20
5.910969505529781
 30
0.0
 41
1.0
 10
8.470569128095303
 20
5.757382924732832
 30
0.0
 41
1.0
 10
8.468126393300558
 20
5.652706589041127
 30
0.0
 41
1.0
 10
8.449302868822093
 20
5.477099845142585
 30
0.0
 41
1.0
 10
8.437695025740346
 20
5.402342783567724
 30
0.0
 41
1.0
 10
8.43037899349857
 20
5.246248005828071
 30
0.0
 41
1.0
 10
8.442299111525847
 20
5.17400463719275
 30
0.0
 41
1.0
 10
8.504488230467855
 20
5.044844633524797
 30
0.0
 41
1.0
 10
8.552714085364146
 20
4.986768776774665
 30
0.0
 41
1.0
 10
8.74616253430459
 20
4.81662734965649
 30
0.0
 41
1.0
 10
8.938439555629206
 20
4.722257088139497
 30
0.0
 41
1.0
 10
9.13261324624999
 20
4.62759595370841
 30
0.0
 41
1.0
  0
SPLINE
  5
3B2
330
1F
100
AcDbEntity
  8
0
100
AcDbSpline
210
0.0
220
0.0
230
1.0
 70
    12
 71
     3
 72
    11
 73
     7
 74
     0
 42
0.0000000001
 43
0.0000000001
 40
0.0
 40
0.0
 40
0.0
 40
0.0
 40
0.1470797355657888
 40
0.8432134652729664
 40
1.405974769762494
 40
1.679225069861623
 40
1.679225069861623
 40
1.679225069861623
 40
1.679225069861623
 10
4.394368999672333
 20
7.437451444221152
 30
0.0
 41
1.0
 10
4.375389458566087
 20
7.391854411364642
 30
0.0
 41
1.0
 10
4.266579060152437
 20
7.130444966119179
 30
0.0
 41
1.0
 10
4.386833577178134
 20
6.639642268172549
 30
0.0
 41
1.0
 10
4.595924710559254
 20
6.162440111317217
 30
0.0
 41
1.0
 10
4.56048577400902
 20
5.886272973359187
 30
0.0
 41
1.0
 10
4.541992579556204
 20
5.795379331708013
 30
0.0
 41
1.0
  0
SPLINE
  5
3B3
330
1F
100
AcDbEntity
  8
0
100
AcDbSpline
210
0.0
220
0.0
230
1.0
 70
    12
 71
     3
 72
    18
 73
    14
 74
     0
 42
0.0000000001
 43
0.0000000001
 40
0.0
 40
0.0
 40
0.0
 40
0.0
 40
0.2197231079920214
 40
0.2197231079920214
 40
0.4394462159840427
 40
0.4394462159840427
 40
0.8788924319680854
 40
0.8788924319680854
 40
1.235671736756728
 40
1.235671736756728
 40
1.505099987608138
 40
1.505099987608138
 40
1.679215336899385
 40
1.679215336899385
 40
1.679215336899385
 40
1.679215336899385
 10
4.421159197813759
 20
7.426300155748724
 30
0.0
 41
1.0
 10
4.392805572182842
 20
7.358182534134119
 30
0.0
 41
1.0
 10
4.367307504937543
 20
7.292901288824308
 30
0.0
 41
1.0
 10
4.343628709981509
 20
7.156977722586971
 30
0.0
 41
1.0
 10
4.342446222432918
 20
7.086753879397716
 30
0.0
 41
1.0
 10
4.362250095659344
 20
6.872364205825848
 30
0.0
 41
1.0
 10
4.406776181392122
 20
6.724900487518932
 30
0.0
 41
1.0
 10
4.498672387856312
 20
6.466453902672453
 30
0.0
 41
1.0
 10
4.543608141304677
 20
6.352577130421495
 30
0.0
 41
1.0
 10
4.592243496503277
 20
6.147860865603011
 30
0.0
 41
1.0
 10
4.601636536009785
 20
6.057234380832334
 30
0.0
 41
1.0
 10
4.591594182702626
 20
5.907308947299841
 30
0.0
 41
1.0
 10
4.58240494749951
 20
5.848387559466019
 30
0.0
 41
1.0
 10
4.570439749760265
 20
5.789603763506509
 30
0.0
 41
1.0
  0
SPLINE
  5
3B4
330
1F
100
AcDbEntity
  8
0
100
AcDbSpline
210
0.0
220
0.0
230
1.0
 70
    12
 71
     3
 72
    13
 73
     9
 74
     0
 42
0.0000000001
 43
0.0000000001
 40
0.0
 40
0.0
 40
0.0
 40
0.0
 40
0.2145405606745005
 40
0.8638879966005008
 40
1.023729652847924
 40
1.325347153266165
 40
1.619765969808359
 40
1.693694590529348
 40
1.693694590529348
 40
1.693694590529348
 40
1.693694590529348
 10
4.613251365490596
 20
7.398264016985364
 30
0.0
 41
1.0
 10
4.668445250587393
 20
7.347155205773748
 30
0.0
 41
1.0
 10
4.890693829928116
 20
7.141355946242472
 30
0.0
 41
1.0
 10
4.692945624818288
 20
6.746402620909815
 30
0.0
 41
1.0
 10
4.53240382644907
 20
6.410686636457809
 30
0.0
 41
1.0
 10
4.623224686074132
 20
6.153882098243325
 30
0.0
 41
1.0
 10
4.619955119072985
 20
5.929509832936616
 30
0.0
 41
1.0
 10
4.596442361537163
 20
5.809419937107936
 30
0.0
 41
1.0
 10
4.591076077534145
 20
5.785414013959135
 30
0.0
 41
1.0
  0
SPLINE
  5
3B5
330
1F
100
AcDbEntity
  8
0
100
AcDbSpline
210
0.0
220
0.0
230
1.0
 70
    12
 71
     3
 72
    22
 73
    18
 74
     0
 42
0.0000000001
 43
0.0000000001
 40
0.0
 40
0.0
 40
0.0
 40
0.0
 40
0.1982927071742633
 40
0.1982927071742633
 40
0.5155546067952642
 40
0.5155546067952642
 40
0.8328165064162651
 40
0.8328165064162651
 40
1.011044666028141
 40
1.011044666028141
 40
1.189272825640017
 40
1.189272825640017
 40
1.367500985251893
 40
1.367500985251893
 40
1.545729144863769
 40
1.545729144863769
 40
1.693329151769308
 40
1.693329151769308
 40
1.693329151769308
 40
1.693329151769308
 10
4.632967379207486
 20
7.419555911080713
 30
0.0
 41
1.0
 10
4.683981252112917
 20
7.372317736146576
 30
0.0
 41
1.0
 10
4.737058047012461
 20
7.323891452496189
 30
0.0
 41
1.0
 10
4.828498343626753
 20
7.171478196946726
 30
0.0
 41
1.0
 10
4.8256669025178
 20
7.058350112750755
 30
0.0
 41
1.0
 10
4.76820837071203
 20
6.835048626320116
 30
0.0
 41
1.0
 10
4.714261651900489
 20
6.721651163996736
 30
0.0
 41
1.0
 10
4.636349308879038
 20
6.560499261119251
 30
0.0
 41
1.0
 10
4.608927552406796
 20
6.507576170394474
 30
0.0
 41
1.0
 10
4.587490876496308
 20
6.407143016043548
 30
0.0
 41
1.0
 10
4.59366850180154
 20
6.35337849522734
 30
0.0
 41
1.0
 10
4.616624505063063
 20
6.236993389753798
 30
0.0
 41
1.0
 10
4.632637453300281
 20
6.174948657900653
 30
0.0
 41
1.0
 10
4.647190613460972
 20
6.05095292848139
 30
0.0
 41
1.0
 10
4.647802814172862
 20
5.989351604625243
 30
0.0
 41
1.0
 10
4.638611306162434
 20
5.8781943954597
 30
0.0
 41
1.0
 10
4.630194299100799
 20
5.828620111369332
 30
0.0
 41
1.0
 10
4.619292837878748
 20
5.779685225379229
 30
0.0
 41
1.0
  0
SPLINE
  5
3B6
330
1F
100
AcDbEntity
  8
0
100
AcDbSpline
210
0.0
220
0.0
230
1.0
 70
    12
 71
     3
 72
     9
 73
     5
 74
     0
 42
0.0000000001
 43
0.0000000001
 40
0.0201015784350363
 40
0.0201015784350363
 40
0.0201015784350363
 40
0.0201015784350363
 40
0.4432868641159849
 40
1.411974906937128
 40
1.411974906937128
 40
1.411974906937128
 40
1.411974906937128
 10
5.547812447312298
 20
6.93388412859732
 30
0.0
 41
1.0
 10
5.384850308434603
 20
6.939166055704574
 30
0.0
 41
1.0
 10
4.858590857084057
 20
6.948079430601692
 30
0.0
 41
1.0
 10
5.038025020404061
 20
6.343445947006421
 30
0.0
 41
1.0
 10
5.053606804325734
 20
5.960028410285663
 30
0.0
 41
1.0
  0
SPLINE
  5
3B7
330
1F
100
AcDbEntity
  8
0
100
AcDbSpline
210
0.0
220
0.0
230
1.0
 70
    12
 71
     3
 72
    16
 73
    12
 74
     0
 42
0.0000000001
 43
0.0000000001
 40
0.0184531777798228
 40
0.0184531777798228
 40
0.0184531777798228
 40
0.0184531777798228
 40
0.245816713515273
 40
0.245816713515273
 40
0.4760640398748964
 40
0.4760640398748964
 40
0.70631136623452
 40
0.70631136623452
 40
0.9365586925941434
 40
0.9365586925941434
 40
1.410599160958275
 40
1.410599160958275
 40
1.410599160958275
 40
1.410599160958275
 10
5.548770992447895
 20
6.904817636348013
 30
0.0
 41
1.0
 10
5.461330119797216
 20
6.907648635828218
 30
0.0
 41
1.0
 10
5.375475997148052
 20
6.909709683113919
 30
0.0
 41
1.0
 10
5.226877790353225
 20
6.896255410658672
 30
0.0
 41
1.0
 10
5.166131067396853
 20
6.880242310575928
 30
0.0
 41
1.0
 10
5.086748573366451
 20
6.82168019174052
 30
0.0
 41
1.0
 10
5.062369277881936
 20
6.778662967544152
 30
0.0
 41
1.0
 10
5.033841552047781
 20
6.663639398544175
 30
0.0
 41
1.0
 10
5.030690048560409
 20
6.592489543340587
 30
0.0
 41
1.0
 10
5.040834534052906
 20
6.350048165967201
 30
0.0
 41
1.0
 10
5.07487034237027
 20
6.153523545361645
 30
0.0
 41
1.0
 10
5.08261269307029
 20
5.962976751567183
 30
0.0
 41
1.0
  0
SPLINE
  5
3BF
330
1F
100
AcDbEntity
  8
0
100
AcDbSpline
210
0.0
220
0.0
230
1.0
 70
    12
 71
     3
 72
    10
 73
     6
 74
     0
 42
0.0000000001
 43
0.0000000001
 40
0.0229478468050938
 40
0.0229478468050938
 40
0.0229478468050938
 40
0.0229478468050938
 40
0.1184487927325448
 40
0.6712363487167399
 40
0.9115326372266838
 40
0.9115326372266838
 40
0.9115326372266838
 40
0.9115326372266838
 10
5.945913523485007
 20
6.559333265392146
 30
0.0
 41
1.0
 10
5.977810604596048
 20
6.547133712230618
 30
0.0
 41
1.0
 10
6.182434850241518
 20
6.457769183653975
 30
0.0
 41
1.0
 10
5.891270642253034
 20
6.020689756526592
 30
0.0
 41
1.0
 10
5.663157615869716
 20
5.926585845603889
 30
0.0
 41
1.0
 10
5.587998345962745
 20
5.905511003607813
 30
0.0
 41
1.0
  0
SPLINE
  5
3C0
330
1F
100
AcDbEntity
  8
0
100
AcDbSpline
210
0.0
220
0.0
230
1.0
 70
    12
 71
     3
 72
     8
 73
     4
 74
     0
 42
0.0000000001
 43
0.0000000001
 40
0.0
 40
0.0
 40
0.0
 40
0.0
 40
0.0100669478707775
 40
0.0100669478707775
 40
0.0100669478707775
 40
0.0100669478707775
 10
5.932794420663523
 20
6.595228614686154
 30
0.0
 41
1.0
 10
5.936201168739399
 20
6.593967076727875
 30
0.0
 41
1.0
 10
5.939633864270689
 20
6.592698958018155
 30
0.0
 41
1.0
 10
5.943082910388071
 20
6.591417824294167
 30
0.0
 41
1.0
  0
SPLINE
  5
3C1
330
1F
100
AcDbEntity
  8
0
100
AcDbSpline
210
0.0
220
0.0
230
1.0
 70
    12
 71
     3
 72
    10
 73
     6
 74
     0
 42
0.0000000001
 43
0.0000000001
 40
0.0208633805532221
 40
0.0208633805532221
 40
0.0208633805532221
 40
0.0208633805532221
 40
0.261186822338454
 40
1.201424484208712
 40
1.407106149203341
 40
1.407106149203341
 40
1.407106149203341
 40
1.407106149203341
 10
6.077510471500685
 20
6.853577745065558
 30
0.0
 41
1.0
 10
6.162615278310239
 20
6.825342141645612
 30
0.0
 41
1.0
 10
6.566615298121611
 20
6.67987768074097
 30
0.0
 41
1.0
 10
6.025158689863364
 20
6.020892810543049
 30
0.0
 41
1.0
 10
5.675691782478825
 20
5.881455208239034
 30
0.0
 41
1.0
 10
5.613022300477853
 20
5.859377783347514
 30
0.0
 41
1.0
  0
SPLINE
  5
3C3
330
1F
100
AcDbEntity
  8
0
100
AcDbSpline
210
0.0
220
0.0
230
1.0
 70
    12
 71
     3
 72
    18
 73
    14
 74
     0
 42
0.0000000001
 43
0.0000000001
 40
0.0175304733325647
 40
0.0175304733325647
 40
0.0175304733325647
 40
0.0175304733325647
 40
0.197957079749552
 40
0.197957079749552
 40
0.3627281719696276
 40
0.3627281719696276
 40
0.5274992641897033
 40
0.5274992641897033
 40
0.8640889009525743
 40
0.8640889009525743
 40
1.200678537715445
 40
1.200678537715445
 40
1.402112772840572
 40
1.402112772840572
 40
1.402112772840572
 40
1.402112772840572
 10
6.083083809574679
 20
6.882311325872777
 30
0.0
 41
1.0
 10
6.147288227109691
 20
6.861119182548588
 30
0.0
 41
1.0
 10
6.211512441140084
 20
6.839065608457915
 30
0.0
 41
1.0
 10
6.310075314961133
 20
6.778224141944293
 30
0.0
 41
1.0
 10
6.345050918169491
 20
6.737228692879304
 30
0.0
 41
1.0
 10
6.373790588793019
 20
6.641372249625062
 30
0.0
 41
1.0
 10
6.370362245173515
 20
6.588522080370247
 30
0.0
 41
1.0
 10
6.324656333625924
 20
6.423137507967511
 30
0.0
 41
1.0
 10
6.245608376888249
 20
6.303033345138482
 30
0.0
 41
1.0
 10
6.048828000704649
 20
6.083340812191643
 30
0.0
 41
1.0
 10
5.930917883551534
 20
5.984375980829441
 30
0.0
 41
1.0
 10
5.752928864578756
 20
5.881271504854626
 30
0.0
 41
1.0
 10
5.689618136606166
 20
5.855718250290352
 30
0.0
 41
1.0
 10
5.627394605089544
 20
5.833653635390116
 30
0.0
 41
1.0
  0
SPLINE
  5
3C5
330
1F
100
AcDbEntity
  8
0
100
AcDbSpline
210
0.0
220
0.0
230
1.0
 70
    12
 71
     3
 72
    18
 73
    14
 74
     0
 42
0.0000000001
 43
0.0000000001
 40
0.0324090205129246
 40
0.0324090205129246
 40
0.0324090205129246
 40
0.0324090205129246
 40
0.1432784648888591
 40
0.1432784648888591
 40
0.2865569297777182
 40
0.2865569297777182
 40
0.4298353946665774
 40
0.4298353946665774
 40
0.6549835970313355
 40
0.6549835970313355
 40
0.8936232239991949
 40
0.8936232239991949
 40
0.9052713053763226
 40
0.9052713053763226
 40
0.9052713053763226
 40
0.9052713053763226
 10
5.966183521025475
 20
6.582625322535346
 30
0.0
 41
1.0
 10
6.004447300236912
 20
6.567530662159686
 30
0.0
 41
1.0
 10
6.04211090578139
 20
6.549125380859556
 30
0.0
 41
1.0
 10
6.097685638465066
 20
6.479643408843243
 30
0.0
 41
1.0
 10
6.103279628204044
 20
6.428422754229866
 30
0.0
 41
1.0
 10
6.084330550915862
 20
6.325908605805716
 30
0.0
 41
1.0
 10
6.060416625141618
 20
6.27238518819858
 30
0.0
 41
1.0
 10
5.978260219974691
 20
6.137468859548648
 30
0.0
 41
1.0
 10
5.907935569236019
 20
6.057843249332647
 30
0.0
 41
1.0
 10
5.762522695676932
 20
5.938696560884183
 30
0.0
 41
1.0
 10
5.68937221772933
 20
5.905628530044067
 30
0.0
 41
1.0
 10
5.61019982078728
 20
5.880035331269331
 30
0.0
 41
1.0
 10
5.606498587587435
 20
5.87886268044203
 30
0.0
 41
1.0
 10
5.602782153834494
 20
5.877706023283713
 30
0.0
 41
1.0
  0
SPLINE
  5
3C9
330
1F
100
AcDbEntity
  8
0
100
AcDbSpline
210
0.0
220
0.0
230
1.0
 70
    12
 71
     3
 72
     8
 73
     4
 74
     0
 42
0.0000000001
 43
0.0000000001
 40
0.0
 40
0.0
 40
0.0
 40
0.0
 40
0.002043430787335
 40
0.002043430787335
 40
0.002043430787335
 40
0.002043430787335
 10
2.826129248831978
 20
5.387501199596689
 30
0.0
 41
1.0
 10
2.825720278211007
 20
5.38691502729217
 30
0.0
 41
1.0
 10
2.825310626821296
 20
5.386327584902994
 30
0.0
 41
1.0
 10
2.824900384703521
 20
5.385738874138205
 30
0.0
 41
1.0
  0
SPLINE
  5
3CB
330
1F
100
AcDbEntity
  8
0
100
AcDbSpline
210
0.0
220
0.0
230
1.0
 70
     8
 71
     3
 72
    10
 73
     6
 74
     4
 42
0.0000001
 43
0.0000001
 44
0.0000000001
 40
0.0
 40
0.0
 40
0.0
 40
0.0
 40
0.3277704553557183
 40
1.123433971007547
 40
2.157071432905169
 40
2.157071432905169
 40
2.157071432905169
 40
2.157071432905169
 10
2.426999357312107
 20
6.340687391610659
 30
0.0
 10
2.389689782752161
 20
6.237023582469585
 30
0.0
 10
2.261811132252699
 20
5.881715644093211
 30
0.0
 10
2.61587451181558
 20
5.076058966388599
 30
0.0
 10
1.980420703860247
 20
4.740341280720466
 30
0.0
 10
1.621360675319715
 20
4.55064566431457
 30
0.0
 11
2.426999357312107
 21
6.340687391610659
 31
0.0
 11
2.341652694004082
 21
6.024223462439764
 31
0.0
 11
2.399788964695055
 21
5.230686693178519
 31
0.0
 11
1.621360675319715
 21
4.55064566431457
 31
0.0
  0
SPLINE
  5
3CC
330
1F
100
AcDbEntity
  8
0
100
AcDbSpline
210
0.0
220
0.0
230
1.0
 70
    12
 71
     3
 72
    18
 73
    14
 74
     0
 42
0.0000000001
 43
0.0000000001
 40
0.0
 40
0.0
 40
0.0
 40
0.0
 40
0.2689427637177727
 40
0.2689427637177727
 40
0.6782991289283169
 40
0.6782991289283169
 40
1.087655494138861
 40
1.087655494138861
 40
1.497011859349405
 40
1.497011859349405
 40
1.906368224559949
 40
1.906368224559949
 40
2.157071432905169
 40
2.157071432905169
 40
2.157071432905169
 40
2.157071432905169
 10
2.454303167530787
 20
6.330860494918698
 30
0.0
 41
1.0
 10
2.423689852842626
 20
6.245802092392285
 30
0.0
 41
1.0
 10
2.39375146951193
 20
6.162218986128604
 30
0.0
 41
1.0
 10
2.355031337209235
 20
5.948108523300606
 30
0.0
 41
1.0
 10
2.374285306472539
 20
5.809340832810347
 30
0.0
 41
1.0
 10
2.422732032270262
 20
5.527871093822609
 30
0.0
 41
1.0
 10
2.450733936777116
 20
5.387479414132914
 30
0.0
 41
1.0
 10
2.416823685439035
 20
5.129549168650478
 30
0.0
 41
1.0
 10
2.348811701378749
 20
5.018352271433867
 30
0.0
 41
1.0
 10
2.154886779706713
 20
4.826301761864091
 30
0.0
 41
1.0
 10
2.029062206448708
 20
4.743384467755803
 30
0.0
 41
1.0
 10
1.809380446218281
 20
4.617151799952448
 30
0.0
 41
1.0
 10
1.722004043701362
 20
4.570997567001664
 30
0.0
 41
1.0
 10
1.634915964503481
 20
4.524987915266834
 30
0.0
 41
1.0
  0
SPLINE
  5
3CD
330
1F
100
AcDbEntity
  8
0
100
AcDbSpline
210
0.0
220
0.0
230
1.0
 70
     8
 71
     3
 72
    13
 73
     9
 74
     7
 42
0.0000001
 43
0.0000001
 44
0.0000000001
 40
0.0
 40
0.0
 40
0.0
 40
0.0
 40
0.1217391770422785
 40
0.7710731323542613
 40
1.023427530826857
 40
1.237207770531333
 40
1.543354189920353
 40
2.307298261959181
 40
2.307298261959181
 40
2.307298261959181
 40
2.307298261959181
 10
2.664648463097334
 20
6.301612951072474
 30
0.0
 10
2.690673352175618
 20
6.267255230631074
 30
0.0
 10
2.855510122296012
 20
6.049639868305259
 30
0.0
 10
2.35571655891811
 20
5.754130460839249
 30
0.0
 10
2.471029846522528
 20
5.38021547511773
 30
0.0
 10
2.454246077198821
 20
5.115028647844441
 30
0.0
 10
2.167717741123456
 20
4.769445978671341
 30
0.0
 10
1.858658371076968
 20
4.591202779337443
 30
0.0
 10
1.638019018100353
 20
4.463953881601072
 30
0.0
 11
2.664648463097334
 21
6.301612951072474
 31
0.0
 11
2.72922785563852
 21
6.198414456481018
 31
0.0
 11
2.438546466641732
 21
5.617777809676838
 31
0.0
 11
2.457925235386028
 21
5.366168577432827
 31
0.0
 11
2.438546466641732
 21
5.153268473604626
 31
0.0
 11
2.264137654568813
 21
4.901659259989483
 31
0.0
 11
1.638019018100353
 21
4.463953881601072
 31
0.0
  0
SPLINE
  5
3CE
330
1F
100
AcDbEntity
  8
0
100
AcDbSpline
210
0.0
220
0.0
230
1.0
 70
    12
 71
     3
 72
    26
 73
    22
 74
     0
 42
0.0000000001
 43
0.0000000001
 40
0.0
 40
0.0
 40
0.0
 40
0.0
 40
0.1518986480036427
 40
0.1518986480036427
 40
0.3037972960072853
 40
0.3037972960072853
 40
0.455695944010928
 40
0.455695944010928
 40
0.6701238878833834
 40
0.6701238878833834
 40
0.8421768754893325
 40
0.8421768754893325
 40
1.014229863095282
 40
1.014229863095282
 40
1.248654496622305
 40
1.248654496622305
 40
1.547506068917532
 40
1.547506068917532
 40
2.133348007594972
 40
2.133348007594972
 40
2.307298261959181
 40
2.307298261959181
 40
2.307298261959181
 40
2.307298261959181
 10
2.687779974838754
 20
6.319134341302952
 30
0.0
 41
1.0
 10
2.720252228730064
 20
6.276264893600646
 30
0.0
 41
1.0
 10
2.755604586232234
 20
6.229227882802808
 30
0.0
 41
1.0
 10
2.773788365460069
 20
6.126400905978068
 30
0.0
 41
1.0
 10
2.75953239084995
 20
6.076300369701963
 30
0.0
 41
1.0
 10
2.710973878253494
 20
5.98205320153314
 30
0.0
 41
1.0
 10
2.6764174229774
 20
5.936633292543397
 30
0.0
 41
1.0
 10
2.589173946361019
 20
5.827171588197806
 30
0.0
 41
1.0
 10
2.534800429928528
 20
5.763046766930572
 30
0.0
 41
1.0
 10
2.472903820873319
 20
5.649364748575303
 30
0.0
 41
1.0
 10
2.460895251446965
 20
5.60202263552531
 30
0.0
 41
1.0
 10
2.464915906470221
 20
5.496823309469664
 30
0.0
 41
1.0
 10
2.478493350218419
 20
5.439609185565415
 30
0.0
 41
1.0
 10
2.495501463337924
 20
5.296314715080999
 30
0.0
 41
1.0
 10
2.490509376451026
 20
5.21036983508977
 30
0.0
 41
1.0
 10
2.425783971400884
 20
5.033477242959755
 30
0.0
 41
1.0
 10
2.355292345655513
 20
4.950764884405217
 30
0.0
 41
1.0
 10
2.136822788385936
 20
4.735393788338598
 30
0.0
 41
1.0
 10
1.971685553689668
 20
4.626857218262957
 30
0.0
 41
1.0
 10
1.753109332111057
 20
4.496830163076956
 30
0.0
 41
1.0
 10
1.702756106892539
 20
4.467791068929996
 30
0.0
 41
1.0
 10
1.65251647158703
 20
4.438816463407195
 30
0.0
 41
1.0
  0
SPLINE
  5
3D9
330
1F
100
AcDbEntity
  8
0
100
AcDbSpline
210
0.0
220
0.0
230
1.0
 70
    12
 71
     3
 72
    12
 73
     8
 74
     0
 42
0.0000000001
 43
0.0000000001
 40
1.161525251603461
 40
1.161525251603461
 40
1.161525251603461
 40
1.161525251603461
 40
1.610950001329769
 40
2.220205775443936
 40
2.940975602379398
 40
3.396670255816986
 40
3.631946539420453
 40
3.631946539420453
 40
3.631946539420453
 40
3.631946539420453
 10
1.200184269860825
 20
5.352138093214263
 30
0.0
 41
1.0
 10
1.306847181133273
 20
5.475243361882096
 30
0.0
 41
1.0
 10
1.562602374891697
 20
5.780374023647842
 30
0.0
 41
1.0
 10
1.311874670689765
 20
6.474565812466463
 30
0.0
 41
1.0
 10
0.4006809331397021
 20
6.456295913475458
 30
0.0
 41
1.0
 10
0.6946740298038017
 20
7.061378497552864
 30
0.0
 41
1.0
 10
0.9096004338114
 20
7.142048989207574
 30
0.0
 41
1.0
 10
0.9845654980908338
 20
7.164110240948476
 30
0.0
 41
1.0
  0
SPLINE
  5
3DA
330
1F
100
AcDbEntity
  8
0
100
AcDbSpline
210
0.0
220
0.0
230
1.0
 70
    12
 71
     3
 72
    26
 73
    22
 74
     0
 42
0.0000000001
 43
0.0000000001
 40
1.161067218254713
 40
1.161067218254713
 40
1.161067218254713
 40
1.161067218254713
 40
1.492013295542975
 40
1.492013295542975
 40
1.791759444732997
 40
1.791759444732997
 40
2.091505593923019
 40
2.091505593923019
 40
2.338347470355136
 40
2.338347470355136
 40
2.585189346787254
 40
2.585189346787254
 40
2.80413352325052
 40
2.80413352325052
 40
2.96456541705331
 40
2.96456541705331
 40
3.1249973108561
 40
3.1249973108561
 40
3.463503747933549
 40
3.463503747933549
 40
3.627893126767415
 40
3.627893126767415
 40
3.627893126767415
 40
3.627893126767415
 10
1.177896034501256
 20
5.370835346330364
 30
0.0
 41
1.0
 10
1.256220831821097
 20
5.461417028529659
 30
0.0
 41
1.0
 10
1.334220040316154
 20
5.553869281824503
 30
0.0
 41
1.0
 10
1.426790953258317
 20
5.74121027183573
 30
0.0
 41
1.0
 10
1.443926598959066
 20
5.837371259630491
 30
0.0
 41
1.0
 10
1.417290710876015
 20
6.033073322570523
 30
0.0
 41
1.0
 10
1.375195723630067
 20
6.12945302711732
 30
0.0
 41
1.0
 10
1.253004726015464
 20
6.270804298911722
 30
0.0
 41
1.0
 10
1.179805545013269
 20
6.319105905546436
 30
0.0
 41
1.0
 10
1.007963609461754
 20
6.390358721326027
 30
0.0
 41
1.0
 10
0.9122423260327953
 20
6.415318417757331
 30
0.0
 41
1.0
 10
0.7477310625852355
 20
6.467969636202093
 30
0.0
 41
1.0
 10
0.6767870835308678
 20
6.494588407394986
 30
0.0
 41
1.0
 10
0.585871619589375
 20
6.568486219815803
 30
0.0
 41
1.0
 10
0.5578290614855644
 20
6.61081594382915
 30
0.0
 41
1.0
 10
0.5423036584436313
 20
6.713007447657979
 30
0.0
 41
1.0
 10
0.5519991234337309
 20
6.769737033330642
 30
0.0
 41
1.0
 10
0.6156067376897344
 20
6.946554518799462
 30
0.0
 41
1.0
 10
0.7086916041374018
 20
7.065561987679022
 30
0.0
 41
1.0
 10
0.8653951539153976
 20
7.155898351604762
 30
0.0
 41
1.0
 10
0.9190072961407407
 20
7.174975931184079
 30
0.0
 41
1.0
 10
0.972387182898568
 20
7.190804908739501
 30
0.0
 41
1.0
  0
SPLINE
  5
3DB
330
1F
100
AcDbEntity
  8
0
100
AcDbSpline
210
0.0
220
0.0
230
1.0
 70
    12
 71
     3
 72
    13
 73
     9
 74
     0
 42
0.0000000001
 43
0.0000000001
 40
0.0193702160176322
 40
0.0193702160176322
 40
0.0193702160176322
 40
0.0193702160176322
 40
0.3783540208561281
 40
0.5370909396714272
 40
0.7881701498061344
 40
1.12187562300993
 40
1.548727512275648
 40
1.983001451578381
 40
1.983001451578381
 40
1.983001451578381
 40
1.983001451578381
 10
0.9754759118491617
 20
6.929995884143396
 30
0.0
 41
1.0
 10
0.9031283188370943
 20
6.806457758421089
 30
0.0
 41
1.0
 10
0.807306743937469
 20
6.630045717948835
 30
0.0
 41
1.0
 10
1.021291342632525
 20
6.441395955854992
 30
0.0
 41
1.0
 10
1.256320692437302
 20
6.37166878555535
 30
0.0
 41
1.0
 10
1.504191791145429
 20
6.105864847481473
 30
0.0
 41
1.0
 10
1.517851130318621
 20
5.662025127287508
 30
0.0
 41
1.0
 10
1.331789495273389
 20
5.437289076603887
 30
0.0
 41
1.0
 10
1.225402510667938
 20
5.330982904217677
 30
0.0
 41
1.0
  0
SPLINE
  5
3DC
330
1F
100
AcDbEntity
  8
0
100
AcDbSpline
210
0.0
220
0.0
230
1.0
 70
    12
 71
     3
 72
    20
 73
    16
 74
     0
 42
0.0000000001
 43
0.0000000001
 40
0.0194983824574579
 40
0.0194983824574579
 40
0.0194983824574579
 40
0.0194983824574579
 40
0.2013827725710777
 40
0.2013827725710777
 40
0.3938389749019398
 40
0.3938389749019398
 40
0.5862951772328018
 40
0.5862951772328018
 40
0.7787513795636638
 40
0.7787513795636638
 40
1.198642811557159
 40
1.198642811557159
 40
1.618534243550655
 40
1.618534243550655
 40
1.980584369623424
 40
1.980584369623424
 40
1.980584369623424
 40
1.980584369623424
 10
1.000443200475916
 20
6.915189695446776
 30
0.0
 41
1.0
 10
0.9639689354627003
 20
6.852808131638661
 30
0.0
 41
1.0
 10
0.9298340305454531
 20
6.791816718943195
 30
0.0
 41
1.0
 10
0.8927651649633371
 20
6.678820082303925
 30
0.0
 41
1.0
 10
0.8909815913557686
 20
6.631521813506358
 30
0.0
 41
1.0
 10
0.9437590909548832
 20
6.54441046824729
 30
0.0
 41
1.0
 10
0.9997316635088805
 20
6.502855814167349
 30
0.0
 41
1.0
 10
1.110576963909907
 20
6.444985597379139
 30
0.0
 41
1.0
 10
1.170407740417285
 20
6.423733096590865
 30
0.0
 41
1.0
 10
1.355603442510406
 20
6.320056059817986
 30
0.0
 41
1.0
 10
1.460080139494073
 20
6.193961791079225
 30
0.0
 41
1.0
 10
1.544846153876541
 20
5.903672973101394
 30
0.0
 41
1.0
 10
1.530870555118562
 20
5.743350708807672
 30
0.0
 41
1.0
 10
1.419613800039233
 20
5.498096888983407
 30
0.0
 41
1.0
 10
1.337449852314615
 20
5.402010345457917
 30
0.0
 41
1.0
 10
1.247731151121012
 20
5.312251755894469
 30
0.0
 41
1.0
  0
SPLINE
  5
3E2
330
1F
100
AcDbEntity
  8
0
100
AcDbSpline
210
0.0
220
0.0
230
1.0
 70
    12
 71
     3
 72
    26
 73
    22
 74
     0
 42
0.0000000001
 43
0.0000000001
 40
0.0
 40
0.0
 40
0.0
 40
0.0
 40
0.2215117061051066
 40
0.2215117061051066
 40
0.4352177951811866
 40
0.4352177951811866
 40
0.6489238842572667
 40
0.6489238842572667
 40
0.8626299733333467
 40
0.8626299733333467
 40
1.059198251369739
 40
1.059198251369739
 40
1.220973819919853
 40
1.220973819919853
 40
1.382749388469967
 40
1.382749388469967
 40
1.54452495702008
 40
1.54452495702008
 40
1.706300525570194
 40
1.706300525570194
 40
1.86788228934244
 40
1.86788228934244
 40
1.86788228934244
 40
1.86788228934244
 10
1.660575336800316
 20
7.117789396110338
 30
0.0
 41
1.0
 10
1.74739873400713
 20
7.091694917748719
 30
0.0
 41
1.0
 10
1.835158374069326
 20
7.065495521205775
 30
0.0
 41
1.0
 10
1.978019524826857
 20
6.998948210362633
 30
0.0
 41
1.0
 10
2.036592838828755
 20
6.958673996001023
 30
0.0
 41
1.0
 10
2.086002704435914
 20
6.838821952218479
 30
0.0
 41
1.0
 10
2.072632912450588
 20
6.770341682131568
 30
0.0
 41
1.0
 10
2.010888932701113
 20
6.633560998434428
 30
0.0
 41
1.0
 10
1.961432702892644
 20
6.563189723761641
 30
0.0
 41
1.0
 10
1.852894459386369
 20
6.434067008976545
 30
0.0
 41
1.0
 10
1.794843155168256
 20
6.374999480234261
 30
0.0
 41
1.0
 10
1.693921369307807
 20
6.281775135241145
 30
0.0
 41
1.0
 10
1.655091489102223
 20
6.248308303012574
 30
0.0
 41
1.0
 10
1.630880707572405
 20
6.178066012753504
 30
0.0
 41
1.0
 10
1.638189722857538
 20
6.12922761506099
 30
0.0
 41
1.0
 10
1.665981807448875
 20
6.017934150338172
 30
0.0
 41
1.0
 10
1.68258490984682
 20
5.956191165381137
 30
0.0
 41
1.0
 10
1.696756427135462
 20
5.836523877252727
 30
0.0
 41
1.0
 10
1.697309579483919
 20
5.777298173394546
 30
0.0
 41
1.0
 10
1.685889948324959
 20
5.662418724657119
 30
0.0
 41
1.0
 10
1.673923679462789
 20
5.606737235140214
 30
0.0
 41
1.0
 10
1.656528216407174
 20
5.55361496006492
 30
0.0
 41
1.0
  0
SPLINE
  5
3E3
330
1F
100
AcDbEntity
  8
0
100
AcDbSpline
210
0.0
220
0.0
230
1.0
 70
    12
 71
     3
 72
    14
 73
    10
 74
     0
 42
0.0000000001
 43
0.0000000001
 40
0.0
 40
0.0
 40
0.0
 40
0.0
 40
0.5299467888278372
 40
0.8558265871156815
 40
1.521090351864545
 40
1.642021099490347
 40
1.81296217181949
 40
2.177400086244904
 40
2.293039461419406
 40
2.293039461419406
 40
2.293039461419406
 40
2.293039461419406
 10
1.561079668766828
 20
7.307764766388869
 30
0.0
 41
1.0
 10
1.767641784386691
 20
7.297750987699421
 30
0.0
 41
1.0
 10
2.101224993428029
 20
7.281579443271577
 30
0.0
 41
1.0
 10
2.173932619953256
 20
6.684182526700662
 30
0.0
 41
1.0
 10
1.890140662023009
 20
6.4203568508694
 30
0.0
 41
1.0
 10
1.639090362164693
 20
6.185605558728261
 30
0.0
 41
1.0
 10
1.721366941714694
 20
5.951882541289518
 30
0.0
 41
1.0
 10
1.724520306389503
 20
5.739534386892874
 30
0.0
 41
1.0
 10
1.698572443794128
 20
5.583108284465823
 30
0.0
 41
1.0
 10
1.68942996532447
 20
5.546025876335325
 30
0.0
 41
1.0
  0
SPLINE
  5
3E4
330
1F
100
AcDbEntity
  8
0
100
AcDbSpline
210
0.0
220
0.0
230
1.0
 70
    12
 71
     3
 72
    32
 73
    28
 74
     0
 42
0.0000000001
 43
0.0000000001
 40
0.0
 40
0.0
 40
0.0
 40
0.0
 40
0.2447536002179301
 40
0.2447536002179301
 40
0.4905944201494882
 40
0.4905944201494882
 40
0.7364352400810463
 40
0.7364352400810463
 40
0.9822760600126044
 40
0.9822760600126044
 40
1.228116879944162
 40
1.228116879944162
 40
1.43331288742142
 40
1.43331288742142
 40
1.551836285391099
 40
1.551836285391099
 40
1.643107840057845
 40
1.643107840057845
 40
1.734379394724592
 40
1.734379394724592
 40
1.825650949391339
 40
1.825650949391339
 40
2.024399596196389
 40
2.024399596196389
 40
2.292297099009009
 40
2.292297099009009
 40
2.292615806328401
 40
2.292615806328401
 40
2.292615806328401
 40
2.292615806328401
 10
1.56248477978966
 20
7.336749100330942
 30
0.0
 41
1.0
 10
1.657884586963543
 20
7.332124280560925
 30
0.0
 41
1.0
 10
1.754428173474885
 20
7.327592537087857
 30
0.0
 41
1.0
 10
1.929686843258499
 20
7.292870438082938
 30
0.0
 41
1.0
 10
2.009476566987898
 20
7.262361798099652
 30
0.0
 41
1.0
 10
2.123853077521648
 20
7.143050809591879
 30
0.0
 41
1.0
 10
2.152643431344046
 20
7.053585039439858
 30
0.0
 41
1.0
 10
2.165732893005316
 20
6.870761080586339
 30
0.0
 41
1.0
 10
2.150258940849617
 20
6.779756950618863
 30
0.0
 41
1.0
 10
2.08730002586663
 20
6.62187103792431
 30
0.0
 41
1.0
 10
2.040341967935601
 20
6.551641680397073
 30
0.0
 41
1.0
 10
1.939736990507698
 20
6.431632558846334
 30
0.0
 41
1.0
 10
1.888433274639346
 20
6.38031822000427
 30
0.0
 41
1.0
 10
1.804967543345883
 20
6.300764353032084
 30
0.0
 41
1.0
 10
1.77216698832875
 20
6.271344593557281
 30
0.0
 41
1.0
 10
1.721956737501414
 20
6.221884974433207
 30
0.0
 41
1.0
 10
1.70529570445732
 20
6.201288214992349
 30
0.0
 41
1.0
 10
1.692288561338804
 20
6.162844140392409
 30
0.0
 41
1.0
 10
1.693175556923208
 20
6.138202173290363
 30
0.0
 41
1.0
 10
1.704367960586707
 20
6.080740932080801
 30
0.0
 41
1.0
 10
1.714333509841472
 20
6.048393865401185
 30
0.0
 41
1.0
 10
1.738624091813303
 20
5.945158522316129
 30
0.0
 41
1.0
 10
1.746253437149907
 20
5.876492772774324
 30
0.0
 41
1.0
 10
1.748297349361173
 20
5.718120475405904
 30
0.0
 41
1.0
 10
1.73970463619005
 20
5.629100242458926
 30
0.0
 41
1.0
 10
1.717761187907368
 20
5.539715487749578
 30
0.0
 41
1.0
 10
1.717735089817296
 20
5.539609278266005
 30
0.0
 41
1.0
 10
1.717708967864175
 20
5.539503070553579
 30
0.0
 41
1.0
  0
LINE
  5
3E5
330
1F
100
AcDbEntity
  8
0
  6
HIDDEN2
100
AcDbLine
 10
0.3997731017682966
 20
4.054510864543975
 30
0.0
 11
1.414004516604223
 21
4.054510864543975
 31
0.0
  0
LINE
  5
3E7
330
1F
100
AcDbEntity
  8
0
  6
HIDDEN2
100
AcDbLine
 10
0.3997731017682966
 20
3.86541974310234
 30
0.0
 11
1.414004516604223
 21
3.865419743102339
 31
0.0
  0
ARC
  5
3E8
330
1F
100
AcDbEntity
  8
0
100
AcDbCircle
 10
0.4162676949190729
 20
4.008643016666617
 30
0.0
 40
0.048743523386293
100
AcDbArc
 50
109.7791546018599
 51
255.6822408089613
  0
ARC
  5
3E9
330
1F
100
AcDbEntity
  8
0
100
AcDbCircle
 10
0.3874480062965664
 20
3.914089442120143
 30
0.0
 40
0.0502060512375829
100
AcDbArc
 50
284.2108071175939
 51
70.49234542719964
  0
ARC
  5
3EB
330
1F
100
AcDbEntity
  8
0
100
AcDbCircle
 10
0.4255242727886253
 20
3.912328161084605
 30
0.0
 40
0.0535118910758815
100
AcDbArc
 50
113.4684834233728
 51
241.2346691214214
  0
ARC
  5
3EC
330
1F
100
AcDbEntity
  8
0
100
AcDbCircle
 10
10.29158151204635
 20
4.008643016666617
 30
0.0
 40
0.048743523386293
100
AcDbArc
 50
284.3177591910387
 51
70.22084539814009
  0
ARC
  5
3ED
330
1F
100
AcDbEntity
  8
0
100
AcDbCircle
 10
10.2823249341768
 20
3.912328161084605
 30
0.0
 40
0.0535118910758815
100
AcDbArc
 50
298.7653308785786
 51
66.53151657662715
  0
ARC
  5
3EE
330
1F
100
AcDbEntity
  8
0
100
AcDbCircle
 10
10.32040120066885
 20
3.914089442120143
 30
0.0
 40
0.0502060512375829
100
AcDbArc
 50
109.5076545728004
 51
255.7891928824061
  0
LINE
  5
3EF
330
1F
100
AcDbEntity
  8
0
  6
HIDDEN2
100
AcDbLine
 10
1.414004516604223
 20
4.083996710325174
 30
0.0
 11
1.414004516604223
 21
3.840840717854363
 31
0.0
  0
LINE
  5
3F0
330
1F
100
AcDbEntity
  8
0
  6
HIDDEN2
100
AcDbLine
 10
1.414004516604223
 20
3.840840717854363
 30
0.0
 11
1.893547092248156
 21
3.840840717854363
 31
0.0
  0
LINE
  5
3F1
330
1F
100
AcDbEntity
  8
0
  6
HIDDEN2
100
AcDbLine
 10
1.893547092248156
 20
3.840840717854363
 30
0.0
 11
1.893547092248156
 21
4.083996710325174
 31
0.0
  0
LINE
  5
3F2
330
1F
100
AcDbEntity
  8
0
  6
HIDDEN2
100
AcDbLine
 10
1.893547092248156
 20
4.083996710325174
 30
0.0
 11
1.414004516604223
 21
4.083996710325174
 31
0.0
  0
LINE
  5
3F3
330
1F
100
AcDbEntity
  8
0
  6
HIDDEN2
100
AcDbLine
 10
1.893547092248156
 20
4.054510864543975
 30
0.0
 11
4.873715663211897
 21
4.054510864543975
 31
0.0
  0
LINE
  5
3F4
330
1F
100
AcDbEntity
  8
0
  6
HIDDEN2
100
AcDbLine
 10
1.893547092248156
 20
3.865419743102339
 30
0.0
 11
4.873715663211897
 21
3.865419743102339
 31
0.0
  0
LINE
  5
3F5
330
1F
100
AcDbEntity
  8
0
  6
HIDDEN2
100
AcDbLine
 10
1.749684345891417
 20
4.083996710325174
 30
0.0
 11
1.749684345891417
 21
4.201890529426684
 31
0.0
  0
LINE
  5
3F6
330
1F
100
AcDbEntity
  8
0
  6
HIDDEN2
100
AcDbLine
 10
1.560593224449782
 20
4.083996710325174
 30
0.0
 11
1.560593224449782
 21
4.189234874889924
 31
0.0
  0
LINE
  5
3F7
330
1F
100
AcDbEntity
  8
0
  6
HIDDEN2
100
AcDbLine
 10
1.749684345891417
 20
4.201890529426684
 30
0.0
 11
1.585614036821301
 21
4.201890529426685
 31
0.0
  0
ARC
  5
3F8
330
1F
100
AcDbEntity
  8
0
  6
HIDDEN2
100
AcDbCircle
 10
1.653060079606208
 20
4.19768645523883
 30
0.0
 40
0.0967156816391836
100
AcDbArc
 50
2.491339811654127
 51
73.52757224726562
  0
LINE
  5
3F9
330
1F
100
AcDbEntity
  8
0
  6
HIDDEN2
100
AcDbLine
 10
5.209395492499091
 20
4.083996710325174
 30
0.0
 11
5.209395492499091
 21
4.201890529426684
 31
0.0
  0
LINE
  5
3FA
330
1F
100
AcDbEntity
  8
0
  6
HIDDEN2
100
AcDbLine
 10
5.209395492499091
 20
4.201890529426684
 30
0.0
 11
5.045325183428975
 21
4.201890529426685
 31
0.0
  0
ARC
  5
3FB
330
1F
100
AcDbEntity
  8
0
  6
HIDDEN2
100
AcDbCircle
 10
5.112771226213882
 20
4.19768645523883
 30
0.0
 40
0.0967156816391836
100
AcDbArc
 50
2.491339811654127
 51
73.52757224726562
  0
LINE
  5
3FC
330
1F
100
AcDbEntity
  8
0
  6
HIDDEN2
100
AcDbLine
 10
5.35325823885583
 20
4.083996710325174
 30
0.0
 11
4.873715663211897
 21
4.083996710325174
 31
0.0
  0
LINE
  5
3FD
330
1F
100
AcDbEntity
  8
0
  6
HIDDEN2
100
AcDbLine
 10
5.020304371057456
 20
4.083996710325174
 30
0.0
 11
5.020304371057456
 21
4.189234874889924
 31
0.0
  0
LINE
  5
3FE
330
1F
100
AcDbEntity
  8
0
  6
HIDDEN2
100
AcDbLine
 10
4.873715663211897
 20
4.083996710325174
 30
0.0
 11
4.873715663211897
 21
3.840840717854363
 31
0.0
  0
LINE
  5
3FF
330
1F
100
AcDbEntity
  8
0
  6
HIDDEN2
100
AcDbLine
 10
5.35325823885583
 20
3.840840717854363
 30
0.0
 11
5.35325823885583
 21
4.083996710325174
 31
0.0
  0
LINE
  5
400
330
1F
100
AcDbEntity
  8
0
  6
HIDDEN2
100
AcDbLine
 10
4.873715663211897
 20
3.840840717854363
 30
0.0
 11
5.35325823885583
 21
3.840840717854363
 31
0.0
  0
LINE
  5
401
330
1F
100
AcDbEntity
  8
0
  6
HIDDEN2
100
AcDbLine
 10
5.35325823885583
 20
4.054510864543975
 30
0.0
 11
9.19835461424286
 21
4.054510864543975
 31
0.0
  0
LINE
  5
402
330
1F
100
AcDbEntity
  8
0
  6
HIDDEN2
100
AcDbLine
 10
5.35325823885583
 20
3.865419743102339
 30
0.0
 11
9.19835461424286
 21
3.86541974310234
 31
0.0
  0
LINE
  5
403
330
1F
100
AcDbEntity
  8
0
  6
HIDDEN2
100
AcDbLine
 10
9.677897189886792
 20
3.840840717854363
 30
0.0
 11
9.677897189886792
 21
4.083996710325174
 31
0.0
  0
LINE
  5
404
330
1F
100
AcDbEntity
  8
0
  6
HIDDEN2
100
AcDbLine
 10
9.19835461424286
 20
3.840840717854363
 30
0.0
 11
9.677897189886792
 21
3.840840717854363
 31
0.0
  0
LINE
  5
405
330
1F
100
AcDbEntity
  8
0
  6
HIDDEN2
100
AcDbLine
 10
9.677897189886792
 20
4.083996710325174
 30
0.0
 11
9.19835461424286
 21
4.083996710325174
 31
0.0
  0
LINE
  5
406
330
1F
100
AcDbEntity
  8
0
  6
HIDDEN2
100
AcDbLine
 10
9.534034443530054
 20
4.083996710325174
 30
0.0
 11
9.534034443530054
 21
4.201890529426684
 31
0.0
  0
LINE
  5
407
330
1F
100
AcDbEntity
  8
0
  6
HIDDEN2
100
AcDbLine
 10
9.344943322088419
 20
4.083996710325174
 30
0.0
 11
9.344943322088419
 21
4.189234874889924
 31
0.0
  0
LINE
  5
408
330
1F
100
AcDbEntity
  8
0
  6
HIDDEN2
100
AcDbLine
 10
9.534034443530054
 20
4.201890529426684
 30
0.0
 11
9.369964134459938
 21
4.201890529426685
 31
0.0
  0
ARC
  5
409
330
1F
100
AcDbEntity
  8
0
  6
HIDDEN2
100
AcDbCircle
 10
9.437410177244844
 20
4.19768645523883
 30
0.0
 40
0.0967156816391836
100
AcDbArc
 50
2.491339811654127
 51
73.52757224726562
  0
LINE
  5
40A
330
1F
100
AcDbEntity
  8
0
  6
HIDDEN2
100
AcDbLine
 10
9.19835461424286
 20
4.083996710325174
 30
0.0
 11
9.19835461424286
 21
3.840840717854363
 31
0.0
  0
LINE
  5
40B
330
1F
100
AcDbEntity
  8
0
  6
HIDDEN2
100
AcDbLine
 10
9.677897189886792
 20
3.86541974310234
 30
0.0
 11
10.30807610519712
 21
3.86541974310234
 31
0.0
  0
LINE
  5
40C
330
1F
100
AcDbEntity
  8
0
  6
HIDDEN2
100
AcDbLine
 10
9.677897189886792
 20
4.054510864543975
 30
0.0
 11
10.30807610519712
 21
4.054510864543975
 31
0.0
  0
SPLINE
  5
44A
330
1F
100
AcDbEntity
  8
0
100
AcDbSpline
210
0.0
220
0.0
230
1.0
 70
    12
 71
     3
 72
    11
 73
     7
 74
     0
 42
0.0000000001
 43
0.0000000001
 40
0.0
 40
0.0
 40
0.0
 40
0.0
 40
0.3473420238986725
 40
0.4680266757831176
 40
0.7189774509599738
 40
0.8374981114451701
 40
0.8374981114451701
 40
0.8374981114451701
 40
0.8374981114451701
 10
0.8893058170761403
 20
5.836453884387775
 30
0.0
 41
1.0
 10
0.9586074339064405
 20
5.740365145154442
 30
0.0
 41
1.0
 10
1.05198803032095
 20
5.610890189320456
 30
0.0
 41
1.0
 10
1.085314566989352
 20
5.368729979075257
 30
0.0
 41
1.0
 10
1.025975234510063
 20
5.207656451412248
 30
0.0
 41
1.0
 10
0.9548763160608194
 20
5.106374469778271
 30
0.0
 41
1.0
 10
0.9387198283956637
 20
5.070636379258874
 30
0.0
 41
1.0
  0
SPLINE
  5
44C
330
1F
100
AcDbEntity
  8
0
100
AcDbSpline
210
0.0
220
0.0
230
1.0
 70
    12
 71
     3
 72
    14
 73
    10
 74
     0
 42
0.0000000001
 43
0.0000000001
 40
0.0
 40
0.0
 40
0.0
 40
0.0
 40
0.2512403515873018
 40
0.2512403515873018
 40
0.4782455542655776
 40
0.4782455542655776
 40
0.7052507569438533
 40
0.7052507569438533
 40
0.8377713022662914
 40
0.8377713022662914
 40
0.8377713022662914
 40
0.8377713022662914
 10
0.8619232828350714
 20
5.816704911605345
 30
0.0
 41
1.0
 10
0.9120507116517249
 20
5.747201750549296
 30
0.0
 41
1.0
 10
0.9608023890578512
 20
5.679238180293114
 30
0.0
 41
1.0
 10
1.024288566634664
 20
5.543240509686808
 30
0.0
 41
1.0
 10
1.042152011346644
 20
5.473426271898658
 30
0.0
 41
1.0
 10
1.035073084081255
 20
5.335412209486854
 30
0.0
 41
1.0
 10
1.010536854479528
 20
5.265697048350449
 30
0.0
 41
1.0
 10
0.9544571670554958
 20
5.164656462867442
 30
0.0
 41
1.0
 10
0.9275332664399547
 20
5.128060786978194
 30
0.0
 41
1.0
 10
0.90780128669674
 20
5.084203886149478
 30
0.0
 41
1.0
  0
SPLINE
  5
44D
330
1F
100
AcDbEntity
  8
0
100
AcDbSpline
210
0.0
220
0.0
230
1.0
 70
    12
 71
     3
 72
    10
 73
     6
 74
     0
 42
0.0000000001
 43
0.0000000001
 40
0.0
 40
0.0
 40
0.0
 40
0.0
 40
0.3087043031221273
 40
0.7890989008352598
 40
0.9850455285449824
 40
0.9850455285449824
 40
0.9850455285449824
 40
0.9850455285449824
 10
0.629253523389659
 20
5.833975216402101
 30
0.0
 41
1.0
 10
0.5460173504856918
 20
5.732977458622976
 30
0.0
 41
1.0
 10
0.3332520217099871
 20
5.474810601717181
 30
0.0
 41
1.0
 10
0.9355958653273561
 20
5.393663433980415
 30
0.0
 41
1.0
 10
0.8921995392622609
 20
5.1676428604624
 30
0.0
 41
1.0
 10
0.8756214763476775
 20
5.09832485611309
 30
0.0
 41
1.0
  0
SPLINE
  5
44E
330
1F
100
AcDbEntity
  8
0
100
AcDbSpline
210
0.0
220
0.0
230
1.0
 70
    12
 71
     3
 72
    20
 73
    16
 74
     0
 42
0.0000000001
 43
0.0000000001
 40
0.0
 40
0.0
 40
0.0
 40
0.0
 40
0.1814577588770613
 40
0.1814577588770613
 40
0.2903979313130967
 40
0.2903979313130967
 40
0.3993381037491321
 40
0.3993381037491321
 40
0.5082782761851675
 40
0.5082782761851675
 40
0.716524532205584
 40
0.716524532205584
 40
0.8659462513285742
 40
0.8659462513285742
 40
0.9793678939218888
 40
0.9793678939218888
 40
0.9793678939218888
 40
0.9793678939218888
 10
0.6031999512469495
 20
5.85544697660077
 30
0.0
 41
1.0
 10
0.5542733595541793
 20
5.796080046522837
 30
0.0
 41
1.0
 10
0.5041704713666465
 20
5.736139845690751
 30
0.0
 41
1.0
 10
0.455938677664364
 20
5.641913569598656
 30
0.0
 41
1.0
 10
0.4441060971191205
 20
5.6058005576303
 30
0.0
 41
1.0
 10
0.4549479717532893
 20
5.531559678232564
 30
0.0
 41
1.0
 10
0.4799483409752942
 20
5.500739280862656
 30
0.0
 41
1.0
 10
0.539927281934428
 20
5.454297302131129
 30
0.0
 41
1.0
 10
0.5764727438695377
 20
5.435512478809976
 30
0.0
 41
1.0
 10
0.6881438524745558
 20
5.382428867602174
 30
0.0
 41
1.0
 10
0.7685881130634455
 20
5.348913307354644
 30
0.0
 41
1.0
 10
0.8472963177377768
 20
5.282230699706771
 30
0.0
 41
1.0
 10
0.8593066979980639
 20
5.256864578340223
 30
0.0
 41
1.0
 10
0.8604225110705077
 20
5.187755189199788
 30
0.0
 41
1.0
 10
0.8532985262763058
 20
5.151498026248863
 30
0.0
 41
1.0
 10
0.8441257612040639
 20
5.112145635126097
 30
0.0
 41
1.0
  0
SPLINE
  5
44F
330
1F
100
AcDbEntity
  8
0
100
AcDbSpline
210
0.0
220
0.0
230
1.0
 70
     8
 71
     3
 72
    13
 73
     9
 74
     7
 42
0.0000001
 43
0.0000001
 44
0.0000000001
 40
0.0
 40
0.0
 40
0.0
 40
0.0
 40
0.1566310362506432
 40
0.4269165338080801
 40
0.5481202416194171
 40
1.066175402919741
 40
1.454784232773317
 40
1.60558135927933
 40
1.60558135927933
 40
1.60558135927933
 40
1.60558135927933
 10
2.826129248831978
 20
5.387501199596689
 30
0.0
 10
2.803984200978547
 20
5.3370510058105
 30
0.0
 10
2.743625237027929
 20
5.199542997329477
 30
0.0
 10
2.508514611092117
 20
5.19939172034998
 30
0.0
 10
2.382936964622294
 20
4.905260830049088
 30
0.0
 10
2.098864849559837
 20
4.694383229190379
 30
0.0
 10
1.801421955751582
 20
4.509160744899629
 30
0.0
 10
1.660541515876729
 20
4.397087141481371
 30
0.0
 10
1.621156771856831
 20
4.365755679243343
 30
0.0
 11
2.826129248831978
 21
5.387501199596689
 31
0.0
 11
2.743169327554256
 21
5.254644385776153
 31
0.0
 11
2.498846207217369
 21
5.139056916478143
 31
0.0
 11
2.434550615567055
 21
5.036312497254752
 31
0.0
 11
2.061636347466838
 21
4.676707020659659
 31
0.0
 11
1.740158495827188
 21
4.458375132138258
 31
0.0
 11
1.621156771856831
 21
4.365755679243343
 31
0.0
  0
SPLINE
  5
450
330
1F
100
AcDbEntity
  8
0
100
AcDbSpline
210
0.0
220
0.0
230
1.0
 70
    12
 71
     3
 72
    24
 73
    20
 74
     0
 42
0.0000000001
 43
0.0000000001
 40
0.0
 40
0.0
 40
0.0
 40
0.0
 40
0.1566907655002447
 40
0.1566907655002447
 40
0.3133815310004894
 40
0.3133815310004894
 40
0.422413432751321
 40
0.422413432751321
 40
0.5314453345021526
 40
0.5314453345021526
 40
0.6404772362529841
 40
0.6404772362529841
 40
0.7495091380038157
 40
0.7495091380038157
 40
0.9675729415054788
 40
0.9675729415054788
 40
1.403700548508805
 40
1.403700548508805
 40
1.60558135927933
 40
1.60558135927933
 40
1.60558135927933
 40
1.60558135927933
 10
2.857043438974551
 20
5.373931455485126
 30
0.0
 41
1.0
 10
2.834889946389334
 20
5.323462023160465
 30
0.0
 41
1.0
 10
2.811891912827104
 20
5.267608528953192
 30
0.0
 41
1.0
 10
2.717351957334684
 20
5.189541398685808
 30
0.0
 41
1.0
 10
2.658077366278149
 20
5.176560902714809
 30
0.0
 41
1.0
 10
2.573855866447976
 20
5.148104356847049
 30
0.0
 41
1.0
 10
2.544342161410743
 20
5.135137712187706
 30
0.0
 41
1.0
 10
2.505332007897643
 20
5.099230652434292
 30
0.0
 41
1.0
 10
2.490231385623396
 20
5.06969094801301
 30
0.0
 41
1.0
 10
2.454864552907963
 20
5.002006356542541
 30
0.0
 41
1.0
 10
2.433811348427699
 20
4.968000284212035
 30
0.0
 41
1.0
 10
2.387953223290359
 20
4.906490148831012
 30
0.0
 41
1.0
 10
2.362901542132463
 20
4.877838292438936
 30
0.0
 41
1.0
 10
2.28321914894168
 20
4.79698548079505
 30
0.0
 41
1.0
 10
2.224086614837741
 20
4.749869169422586
 30
0.0
 41
1.0
 10
2.042019411015217
 20
4.618777280398963
 30
0.0
 41
1.0
 10
1.917455742796103
 20
4.5441355090715
 30
0.0
 41
1.0
 10
1.747016277947777
 20
4.422379853936521
 30
0.0
 41
1.0
 10
1.694901707263218
 20
4.381280167722531
 30
0.0
 41
1.0
 10
1.642175078852234
 20
4.339334932121593
 30
0.0
 41
1.0
  0
SPLINE
  5
451
330
1F
100
AcDbEntity
  8
0
100
AcDbSpline
210
0.0
220
0.0
230
1.0
 70
     8
 71
     3
 72
    13
 73
     9
 74
     7
 42
0.0000001
 43
0.0000001
 44
0.0000000001
 40
0.0
 40
0.0
 40
0.0
 40
0.0
 40
0.1505400621978338
 40
0.7166394883238958
 40
0.9287018432653911
 40
1.253126507905281
 40
1.880730678356958
 40
2.084790761004779
 40
2.084790761004779
 40
2.084790761004779
 40
2.084790761004779
 10
3.079499678283971
 20
5.351084116828875
 30
0.0
 10
3.116712386549697
 20
5.31169917718431
 30
0.0
 10
3.293861882978426
 20
5.124208866748166
 30
0.0
 10
2.829829289263732
 20
4.764617606894316
 30
0.0
 10
2.486078468348488
 20
4.985116886447614
 30
0.0
 10
2.171133356479586
 20
4.635741719607045
 30
0.0
 10
1.87262118279189
 20
4.437136712595096
 30
0.0
 10
1.617314791049586
 20
4.324013005667162
 30
0.0
 10
1.55467191178035
 20
4.296256572828897
 30
0.0
 11
3.079499678283971
 21
5.351084116828875
 31
0.0
 11
3.167520083189643
 21
5.228958285626916
 31
0.0
 11
2.730310223439119
 21
4.869352809031824
 31
0.0
 11
2.524564415447649
 21
4.920725027956745
 31
0.0
 11
2.25452305134317
 21
4.740922289659196
 31
0.0
 11
1.740158495827188
 21
4.381316813064103
 31
0.0
 11
1.55467191178035
 21
4.296256572828897
 31
0.0
  0
SPLINE
  5
452
330
1F
100
AcDbEntity
  8
0
100
AcDbSpline
210
0.0
220
0.0
230
1.0
 70
    12
 71
     3
 72
    30
 73
    26
 74
     0
 42
0.0000000001
 43
0.0000000001
 40
0.0
 40
0.0
 40
0.0
 40
0.0
 40
0.1540479716210415
 40
0.1540479716210415
 40
0.3080959432420829
 40
0.3080959432420829
 40
0.4621439148631244
 40
0.4621439148631244
 40
0.6289331320544506
 40
0.6289331320544506
 40
0.7504198258594047
 40
0.7504198258594047
 40
0.8719065196643588
 40
0.8719065196643588
 40
1.016030211533641
 40
1.016030211533641
 40
1.160153903402922
 40
1.160153903402922
 40
1.334479040615093
 40
1.334479040615093
 40
1.508804177827265
 40
1.508804177827265
 40
1.857454452251607
 40
1.857454452251607
 40
2.08479076100478
 40
2.08479076100478
 40
2.08479076100478
 40
2.08479076100478
 10
3.104039663185957
 20
5.374270626881809
 30
0.0
 41
1.0
 10
3.142119508133324
 20
5.333967932860804
 30
0.0
 41
1.0
 10
3.184783658416856
 20
5.291317053935853
 30
0.0
 41
1.0
 10
3.216981789342921
 20
5.179156285970322
 30
0.0
 41
1.0
 10
3.20159446937039
 20
5.120706904141984
 30
0.0
 41
1.0
 10
3.139203537180882
 20
5.016912753482996
 30
0.0
 41
1.0
 10
3.091791748376357
 20
4.96961283115772
 30
0.0
 41
1.0
 10
2.976338613796067
 20
4.888652740572565
 30
0.0
 41
1.0
 10
2.906824953269149
 20
4.856501491054565
 30
0.0
 41
1.0
 10
2.785547963681267
 20
4.83156313950782
 30
0.0
 41
1.0
 10
2.732697006690659
 20
4.831954617810919
 30
0.0
 41
1.0
 10
2.640466781053222
 20
4.853680988566321
 30
0.0
 41
1.0
 10
2.600687358393792
 20
4.87110888415937
 30
0.0
 41
1.0
 10
2.527084199361416
 20
4.890914639088252
 30
0.0
 41
1.0
 10
2.498538099462132
 20
4.88854099106583
 30
0.0
 41
1.0
 10
2.428124834714211
 20
4.854910410852455
 30
0.0
 41
1.0
 10
2.390415094913172
 20
4.824226504549436
 30
0.0
 41
1.0
 10
2.306354758662752
 20
4.745582336871163
 30
0.0
 41
1.0
 10
2.25907363555986
 20
4.697404704657835
 30
0.0
 41
1.0
 10
2.165204473104495
 20
4.614007528542518
 30
0.0
 41
1.0
 10
2.118313238730893
 20
4.576043402300956
 30
0.0
 41
1.0
 10
1.976075737364234
 20
4.471153271232826
 30
0.0
 41
1.0
 10
1.879176286524309
 20
4.413258335125115
 30
0.0
 41
1.0
 10
1.70842992184274
 20
4.32747314874362
 30
0.0
 41
1.0
 10
1.638137026177529
 20
4.296312099779603
 30
0.0
 41
1.0
 10
1.568348752263534
 20
4.265389614089461
 30
0.0
 41
1.0
  0
SPLINE
  5
453
330
1F
100
AcDbEntity
  8
0
100
AcDbSpline
210
0.0
220
0.0
230
1.0
 70
    12
 71
     3
 72
    11
 73
     7
 74
     0
 42
0.0000000001
 43
0.0000000001
 40
0.0
 40
0.0
 40
0.0
 40
0.0
 40
0.370289654051679
 40
0.6701531226665313
 40
1.070035254775299
 40
1.085501731245046
 40
1.085501731245046
 40
1.085501731245046
 40
1.085501731245046
 10
4.18572317489841
 20
5.810428738322762
 30
0.0
 41
1.0
 10
4.281893932037937
 20
5.716400078485568
 30
0.0
 41
1.0
 10
4.455944523246904
 20
5.546226271789769
 30
0.0
 41
1.0
 10
4.347038578774618
 20
5.171411301267661
 30
0.0
 41
1.0
 10
4.409641358814742
 20
4.937054557154152
 30
0.0
 41
1.0
 10
4.459272460396246
 20
4.805673812491545
 30
0.0
 41
1.0
 10
4.461103111151896
 20
4.800184464886446
 30
0.0
 41
1.0
  0
SPLINE
  5
454
330
1F
100
AcDbEntity
  8
0
100
AcDbSpline
210
0.0
220
0.0
230
1.0
 70
    12
 71
     3
 72
    18
 73
    14
 74
     0
 42
0.0000000001
 43
0.0000000001
 40
0.0
 40
0.0
 40
0.0
 40
0.0
 40
0.2270858965765039
 40
0.2270858965765039
 40
0.420133993316849
 40
0.420133993316849
 40
0.613182090057194
 40
0.613182090057194
 40
0.8331214559230885
 40
0.8331214559230885
 40
1.053060821788983
 40
1.053060821788983
 40
1.096168504211886
 40
1.096168504211886
 40
1.096168504211886
 40
1.096168504211886
 10
4.162120695301383
 20
5.786288563006572
 30
0.0
 41
1.0
 10
4.221098909708698
 20
5.728624023127106
 30
0.0
 41
1.0
 10
4.278479134277973
 20
5.672081595125928
 30
0.0
 41
1.0
 10
4.350857596969239
 20
5.564665937722607
 30
0.0
 41
1.0
 10
4.369552380164249
 20
5.516576623894685
 30
0.0
 41
1.0
 10
4.374090121334989
 20
5.404098238547354
 30
0.0
 41
1.0
 10
4.362133859029068
 20
5.339491038614211
 30
0.0
 41
1.0
 10
4.344107793602496
 20
5.194998135360207
 30
0.0
 41
1.0
 10
4.345083117915784
 20
5.115310971858636
 30
0.0
 41
1.0
 10
4.370245541588573
 20
4.964435284068044
 30
0.0
 41
1.0
 10
4.39241758940869
 20
4.891426319129424
 30
0.0
 41
1.0
 10
4.423927049629109
 20
4.806925986261392
 30
0.0
 41
1.0
 10
4.42924469414988
 20
4.793129820719694
 30
0.0
 41
1.0
 10
4.43473176376955
 20
4.779400165554897
 30
0.0
 41
1.0
  0
SPLINE
  5
455
330
1F
100
AcDbEntity
  8
0
100
AcDbSpline
210
0.0
220
0.0
230
1.0
 70
    12
 71
     3
 72
    12
 73
     8
 74
     0
 42
0.0000000001
 43
0.0000000001
 40
0.0
 40
0.0
 40
0.0
 40
0.0
 40
0.1316011652406295
 40
0.6226923432569005
 40
0.8951188745523946
 40
1.062637500763086
 40
1.251321537718343
 40
1.251321537718343
 40
1.251321537718343
 40
1.251321537718343
 10
3.93878886910843
 20
5.805176181508197
 30
0.0
 41
1.0
 10
3.911218788201389
 20
5.769556884084288
 30
0.0
 41
1.0
 10
3.780766460880447
 20
5.601018378080155
 30
0.0
 41
1.0
 10
3.975524524873514
 20
5.228237620795304
 30
0.0
 41
1.0
 10
4.318040553002977
 20
5.16398832774371
 30
0.0
 41
1.0
 10
4.357613489333552
 20
4.940655694993019
 30
0.0
 41
1.0
 10
4.390139335132375
 20
4.820787120124315
 30
0.0
 41
1.0
 10
4.410961341347921
 20
4.758981336308288
 30
0.0
 41
1.0
  0
SPLINE
  5
457
330
1F
100
AcDbEntity
  8
0
100
AcDbSpline
210
0.0
220
0.0
230
1.0
 70
    12
 71
     3
 72
    22
 73
    18
 74
     0
 42
0.0000000001
 43
0.0000000001
 40
0.0
 40
0.0
 40
0.0
 40
0.0
 40
0.162500387929282
 40
0.162500387929282
 40
0.3250007758585641
 40
0.3250007758585641
 40
0.5554736139238737
 40
0.5554736139238737
 40
0.7042953294499367
 40
0.7042953294499367
 40
0.8531170449759996
 40
0.8531170449759996
 40
0.9662408221648423
 40
0.9662408221648423
 40
1.079364599353685
 40
1.079364599353685
 40
1.262962821605239
 40
1.262962821605239
 40
1.262962821605239
 40
1.262962821605239
 10
3.912090780995813
 20
5.825841059890501
 30
0.0
 41
1.0
 10
3.878047398215394
 20
5.781858549260217
 30
0.0
 41
1.0
 10
3.840555207681079
 20
5.732385292541543
 30
0.0
 41
1.0
 10
3.811574577824391
 20
5.615201248001749
 30
0.0
 41
1.0
 10
3.81719379161187
 20
5.552801083913224
 30
0.0
 41
1.0
 10
3.863593609156287
 20
5.408002181414659
 30
0.0
 41
1.0
 10
3.918040384603107
 20
5.327323327981413
 30
0.0
 41
1.0
 10
4.033091168357237
 20
5.226679239052712
 30
0.0
 41
1.0
 10
4.086804667403634
 20
5.197777981315745
 30
0.0
 41
1.0
 10
4.184879042184639
 20
5.153748696713367
 30
0.0
 41
1.0
 10
4.228807510843026
 20
5.135117577584469
 30
0.0
 41
1.0
 10
4.278804425799263
 20
5.092193553549548
 30
0.0
 41
1.0
 10
4.291788191857646
 20
5.069681432752317
 30
0.0
 41
1.0
 10
4.313112541813098
 20
5.004439402994714
 30
0.0
 41
1.0
 10
4.320414816154933
 20
4.964411935131999
 30
0.0
 41
1.0
 10
4.344256151860486
 20
4.860424729699115
 30
0.0
 41
1.0
 10
4.36193026599865
 20
4.797649574063532
 30
0.0
 41
1.0
 10
4.384074806337666
 20
4.73757311893925
 30
0.0
 41
1.0
  0
SPLINE
  5
458
330
1F
100
AcDbEntity
  8
0
100
AcDbSpline
210
0.0
220
0.0
230
1.0
 70
    12
 71
     3
 72
     8
 73
     4
 74
     0
 42
0.0000000001
 43
0.0000000001
 40
0.0
 40
0.0
 40
0.0
 40
0.0
 40
0.3758793000513199
 40
0.3758793000513199
 40
0.3758793000513199
 40
0.3758793000513199
 10
9.684941444007572
 20
6.508614078112275
 30
0.0
 41
1.0
 10
9.607642554343512
 20
6.409417572304653
 30
0.0
 41
1.0
 10
9.530343664679453
 20
6.310221066497032
 30
0.0
 41
1.0
 10
9.463668538865587
 20
6.204143025379226
 30
0.0
 41
1.0
  0
SPLINE
  5
459
330
1F
100
AcDbEntity
  8
0
100
AcDbSpline
210
0.0
220
0.0
230
1.0
 70
    12
 71
     3
 72
    10
 73
     6
 74
     0
 42
0.0000000001
 43
0.0000000001
 40
0.0
 40
0.0
 40
0.0
 40
0.0
 40
0.3601859317837353
 40
0.3601859317837353
 40
0.3742273144593652
 40
0.3742273144593652
 40
0.3742273144593652
 40
0.3742273144593652
 10
9.71157198517163
 20
6.487862225550785
 30
0.0
 41
1.0
 10
9.637500407950707
 20
6.392807281399482
 30
0.0
 41
1.0
 10
9.564107019097024
 20
6.298543767262798
 30
0.0
 41
1.0
 10
9.498029794511703
 20
6.195319274007112
 30
0.0
 41
1.0
 10
9.495565265612706
 20
6.191434973350704
 30
0.0
 41
1.0
 10
9.493116004345167
 20
6.187539570566828
 30
0.0
 41
1.0
  0
SPLINE
  5
45A
330
1F
100
AcDbEntity
  8
0
100
AcDbSpline
210
0.0
220
0.0
230
1.0
 70
    12
 71
     3
 72
     9
 73
     5
 74
     0
 42
0.0000000001
 43
0.0000000001
 40
0.0
 40
0.0
 40
0.0
 40
0.0
 40
0.1683362609243435
 40
0.2729035646634146
 40
0.2729035646634146
 40
0.2729035646634146
 40
0.2729035646634146
 10
9.954152000702882
 20
6.487818752518375
 30
0.0
 41
1.0
 10
9.996362238021165
 20
6.445255781889137
 30
0.0
 41
1.0
 10
10.06479267699014
 20
6.376253498343088
 30
0.0
 41
1.0
 10
10.077436039802
 20
6.29788780354342
 30
0.0
 41
1.0
 10
10.07536694799808
 20
6.267250176433253
 30
0.0
 41
1.0
  0
SPLINE
  5
45B
330
1F
100
AcDbEntity
  8
0
100
AcDbSpline
210
0.0
220
0.0
230
1.0
 70
    12
 71
     3
 72
    10
 73
     6
 74
     0
 42
0.0000000001
 43
0.0000000001
 40
0.0
 40
0.0
 40
0.0
 40
0.0
 40
0.1723615144488239
 40
0.1723615144488239
 40
0.2682170664469926
 40
0.2682170664469926
 40
0.2682170664469926
 40
0.2682170664469926
 10
9.978123967168143
 20
6.511592055427582
 30
0.0
 41
1.0
 10
10.02134353489214
 20
6.468011319840296
 30
0.0
 41
1.0
 10
10.06781768863051
 20
6.422737432081264
 30
0.0
 41
1.0
 10
10.10548756188911
 20
6.33542065093784
 30
0.0
 41
1.0
 10
10.11069986808533
 20
6.302724818624711
 30
0.0
 41
1.0
 10
10.10920216405275
 20
6.269992260267526
 30
0.0
 41
1.0
  0
LINE
  5
49C
330
1F
100
AcDbEntity
  8
BORD
 62
     7
100
AcDbLine
 10
10.34928386305439
 20
-0.0000000000000027
 30
0.0
 11
2.500000000000002
 21
-0.0000000000000027
 31
0.0
210
0.0
220
0.0
230
-1.0
  0
LINE
  5
49D
330
1F
100
AcDbEntity
  8
0
100
AcDbLine
 10
2.5
 20
-0.0000000000000027
 30
0.0
 11
10.44
 21
-0.0000000000000027
 31
0.0
  0
LINE
  5
49F
330
1F
100
AcDbEntity
  8
0
100
AcDbLine
 10
10.44
 20
-0.0000000000000027
 30
0.0
 11
0.0
 21
-0.0000000000000009
 31
0.0
  0
SOLID
  5
530
330
1F
100
AcDbEntity
  8
0
100
AcDbTrace
 10
-5.524017230400568
 20
2.295101667839004
 30
-0.0000000000000001
 11
-5.427617698769301
 21
2.228194628261589
 31
-0.0000000000000001
 12
-5.540506025310473
 22
2.260220358143595
 32
-0.0000000000000001
 13
-5.540506025310473
 23
2.260220358143595
 33
-0.0000000000000001
210
5.331766890860224E-17
220
-3.010611211544946E-17
230
-1.0
  0
LINE
  5
531
330
1F
100
AcDbEntity
  8
0
100
AcDbLine
 10
5.427617698769301
 20
2.228194628261589
 30
0.0
 11
6.462460867339495
 21
2.696286614234705
 31
0.0
210
6.123031769111886E-17
220
0.0
230
-1.0
  0
CIRCLE
  5
532
330
1F
100
AcDbEntity
  8
0
100
AcDbCircle
 10
-8.679173093791974
 20
2.696286614234705
 30
0.0
 40
0.0980395409819625
210
6.123031769111886E-17
220
0.0
230
-1.0
  0
TEXT
  5
533
330
1F
100
AcDbEntity
  8
0
100
AcDbText
 10
-8.632477703705865
 20
2.651477776526125
 30
0.0
 40
0.0888620774192805
  1
1
 50
180.0
 71
     4
210
6.123031769111886E-17
220
0.0
230
-1.0
100
AcDbText
  0
LINE
  5
538
330
1F
100
AcDbEntity
  8
0
100
AcDbLine
 10
6.462460867339495
 20
2.696286614234705
 30
0.0
 11
8.58113355281001
 21
2.696286614234705
 31
0.0
  0
TEXT
  5
539
330
1F
100
AcDbEntity
  8
0
100
AcDbText
 10
-8.888768523672821
 20
2.651477776526125
 30
0.0
 40
0.0888620774192805
  1
TOP HEAD
 50
180.0
 71
     4
210
6.123031769111886E-17
220
0.0
230
-1.0
100
AcDbText
  0
LINE
  5
53A
330
1F
100
AcDbEntity
  8
0
100
AcDbLine
 10
6.130525550087181
 20
2.300159976747852
 30
0.0
 11
6.530441322642131
 21
2.481054409723491
 31
0.0
210
6.123031769111886E-17
220
0.0
230
-1.0
  0
LINE
  5
53B
330
1F
100
AcDbEntity
  8
0
100
AcDbLine
 10
6.53044132264213
 20
2.481054409723491
 30
0.0
 11
8.58113355281001
 21
2.481054409723492
 31
0.0
  0
SOLID
  5
53E
330
1F
100
AcDbEntity
  8
0
100
AcDbTrace
 10
-6.226925081718448
 20
2.367067016325268
 30
-0.0000000000000001
 11
-6.130525550087181
 21
2.300159976747852
 31
-0.0000000000000001
 12
-6.243413876628353
 22
2.332185706629859
 32
-0.0000000000000001
 13
-6.243413876628353
 23
2.332185706629859
 33
-0.0000000000000001
210
5.331766890860224E-17
220
-3.010611211544946E-17
230
-1.0
  0
CIRCLE
  5
53F
330
1F
100
AcDbEntity
  8
0
100
AcDbCircle
 10
-8.679173093791974
 20
2.481054409723492
 30
0.0
 40
0.0980395409819625
210
6.123031769111886E-17
220
0.0
230
-1.0
  0
TEXT
  5
540
330
1F
100
AcDbEntity
  8
0
100
AcDbText
 10
-8.632477703705865
 20
2.436245572014912
 30
0.0
 40
0.0888620774192805
  1
2
 50
180.0
 71
     4
210
6.123031769111886E-17
220
0.0
230
-1.0
100
AcDbText
  0
TEXT
  5
541
330
1F
100
AcDbEntity
  8
0
100
AcDbText
 10
-8.888768523672821
 20
2.436245572014912
 30
0.0
 40
0.0888620774192805
  1
6" IRRIGATION BOX
 50
180.0
 71
     4
210
6.123031769111886E-17
220
0.0
230
-1.0
100
AcDbText
  0
CIRCLE
  5
542
330
1F
100
AcDbEntity
  8
0
100
AcDbCircle
 10
-8.679173093791974
 20
2.265822205212279
 30
0.0
 40
0.0980395409819625
210
6.123031769111886E-17
220
0.0
230
-1.0
  0
TEXT
  5
543
330
1F
100
AcDbEntity
  8
0
100
AcDbText
 10
-8.632477703705865
 20
2.2210133675037
 30
0.0
 40
0.0888620774192805
  1
3
 50
180.0
 71
     4
210
6.123031769111886E-17
220
0.0
230
-1.0
100
AcDbText
  0
LINE
  5
544
330
1F
100
AcDbEntity
  8
0
100
AcDbLine
 10
8.07974746544541
 20
2.265822205212279
 30
0.0
 11
8.58113355281001
 21
2.265822205212279
 31
0.0
  0
TEXT
  5
547
330
1F
100
AcDbEntity
  8
0
100
AcDbText
 10
-8.888768523672821
 20
2.2210133675037
 30
0.0
 40
0.0888620774192805
  1
CAPS #10-015
 50
180.0
 71
     4
210
6.123031769111886E-17
220
0.0
230
-1.0
100
AcDbText
  0
LINE
  5
599
330
1F
100
AcDbEntity
  8
0
100
AcDbLine
 10
0.7405755647981866
 20
0.5193362937864805
 30
0.0
 11
3.960927573294786
 21
0.5193362937864805
 31
0.0
  0
CIRCLE
  5
59B
330
1F
100
AcDbEntity
  8
0
100
AcDbCircle
 10
0.4103512978846346
 20
0.5193362937864805
 30
0.0
 40
0.330224266913552
  0
MTEXT
  5
59C
330
1F
100
AcDbEntity
  8
0
100
AcDbMText
 10
0.3214065445948435
 20
0.6844484272432556
 30
0.0
 40
0.3
 41
0.6589
 71
     1
 72
     5
  1
{\fArial|b0|i0|c0|p34;5}
 73
     1
 44
1.0
  0
MTEXT
  5
5A8
330
1F
100
AcDbEntity
  8
0
100
AcDbMText
 10
1.089520719811745
 20
0.7264219298353893
 30
0.0
 40
0.125
 41
2.9554
 71
     1
 72
     5
  1
{\fCentury Gothic|b0|i0|c0|p0;DETAILED INSTALLATION OF TOP}
 73
     1
 44
1.0
  0
LINE
  5
5AC
330
1F
100
AcDbEntity
  8
0
100
AcDbLine
 10
6.340317814347498
 20
0.5193362937864805
 30
0.0
 11
9.854385470918714
 21
0.5193362937864805
 31
0.0
  0
MTEXT
  5
5AD
330
1F
100
AcDbEntity
  8
0
100
AcDbMText
 10
1.264827575678673
 20
0.4197795501878545
 30
0.0
 40
0.125
 41
2.5092
 71
     1
 72
     5
  1
{\fCentury Gothic|b0|i0|c0|p0;12 OUTLET DRIP HEAD}
 73
     1
 44
1.0
  0
MTEXT
  5
5AE
330
1F
100
AcDbEntity
  8
0
100
AcDbMText
 10
6.81200417155943
 20
0.7080564368045117
 30
0.0
 40
0.125
 41
3.1629
 71
     1
 72
     5
  1
{\fCentury Gothic|b0|i0|c0|p0;AND RECOMMENDED NUMBER OF }
 73
     1
 44
1.0
  0
MTEXT
  5
5AF
330
1F
100
AcDbEntity
  8
0
100
AcDbMText
 10
7.331150664642628
 20
0.4293888310515115
 30
0.0
 40
0.125
 41
2.7111
 71
     1
 72
     5
  1
{\fCentury Gothic|b0|i0|c0|p0;OUTLETS PER PLANT}
 73
     1
 44
1.0
  0
MTEXT
  5
5C3
330
1F
100
AcDbEntity
  8
0
100
AcDbMText
 10
0.0259608955507034
 20
0.0924714975940262
 30
3.004955431567929
 40
0.0684360496240188
 41
0.2397
 71
     1
 72
     5
  1
{\fCentury Gothic|b0|i0|c0|p34;A-5}
 73
     1
 44
1.0
  0
SPLINE
  5
5D3
330
1F
100
AcDbEntity
  8
0
100
AcDbSpline
210
0.0
220
0.0
230
1.0
 70
    12
 71
     3
 72
    14
 73
    10
 74
     0
 42
0.0000000001
 43
0.0000000001
 40
0.0147315848552763
 40
0.0147315848552763
 40
0.0147315848552763
 40
0.0147315848552763
 40
0.0858621586683754
 40
0.3141423216362839
 40
0.5021391991569882
 40
0.7369511034278671
 40
0.8802402627954518
 40
1.160888779214733
 40
1.802867190805303
 40
1.802867190805303
 40
1.802867190805303
 40
1.802867190805303
 10
5.333302075874679
 20
2.322051672089303
 30
0.0
 41
1.0
 10
5.35401069681457
 20
2.334290644096474
 30
0.0
 41
1.0
 10
5.442164979609196
 20
2.382580525957148
 30
0.0
 41
1.0
 10
5.625019439832645
 20
2.332280131756788
 30
0.0
 41
1.0
 10
5.773762120030131
 20
2.178262714169506
 30
0.0
 41
1.0
 10
5.866416615009607
 20
1.991369043853691
 30
0.0
 41
1.0
 10
6.095804892001466
 20
1.955714766713844
 30
0.0
 41
1.0
 10
6.448779851426666
 20
1.960160582039664
 30
0.0
 41
1.0
 10
6.739754155553435
 20
2.075019495224133
 30
0.0
 41
1.0
 10
6.942218679301845
 20
2.154940143976752
 30
0.0
 41
1.0
  0
SPLINE
  5
5D6
330
1F
100
AcDbEntity
  8
0
100
AcDbSpline
210
0.0
220
0.0
230
1.0
 70
    12
 71
     3
 72
    26
 73
    22
 74
     0
 42
0.0000000001
 43
0.0000000001
 40
0.0
 40
0.0
 40
0.0
 40
0.0
 40
0.0983359742291828
 40
0.0983359742291828
 40
0.1966719484583657
 40
0.1966719484583657
 40
0.3845791611647481
 40
0.3845791611647481
 40
0.5724863738711304
 40
0.5724863738711304
 40
0.7065324220002298
 40
0.7065324220002298
 40
0.8230577644127443
 40
0.8230577644127443
 40
0.9395831068252587
 40
0.9395831068252587
 40
1.056108449237773
 40
1.056108449237773
 40
1.289159134062802
 40
1.289159134062802
 40
1.802867190805303
 40
1.802867190805303
 40
1.802867190805303
 40
1.802867190805303
 10
5.294728124675139
 20
2.357254680483481
 30
0.0
 41
1.0
 10
5.323290181200655
 20
2.374394260801797
 30
0.0
 41
1.0
 10
5.357422133920974
 20
2.39505309229858
 30
0.0
 41
1.0
 10
5.437468036192152
 20
2.41426879697462
 30
0.0
 41
1.0
 10
5.478372441510682
 20
2.413063821516244
 30
0.0
 41
1.0
 10
5.592008484269492
 20
2.390653133324494
 30
0.0
 41
1.0
 10
5.659422085788089
 20
2.353260838098746
 30
0.0
 41
1.0
 10
5.76472951001321
 20
2.261193346638498
 30
0.0
 41
1.0
 10
5.804816136660628
 20
2.201881729660555
 30
0.0
 41
1.0
 10
5.865350216578053
 20
2.110496650021991
 30
0.0
 41
1.0
 10
5.889556290259883
 20
2.077386044502054
 30
0.0
 41
1.0
 10
5.937646763546305
 20
2.039200977737567
 30
0.0
 41
1.0
 10
5.963463283948085
 20
2.029689897267531
 30
0.0
 41
1.0
 10
6.032599106010775
 20
2.016550271046945
 30
0.0
 41
1.0
 10
6.072545437577555
 20
2.013256791076623
 30
0.0
 41
1.0
 10
6.148237966104019
 20
2.009182913722105
 30
0.0
 41
1.0
 10
6.185568602518484
 20
2.008922738340123
 30
0.0
 41
1.0
 10
6.296510337485462
 20
2.01333702961165
 30
0.0
 41
1.0
 10
6.369112888157662
 20
2.02346637471726
 30
0.0
 41
1.0
 10
6.602147368176313
 20
2.07470155783518
 30
0.0
 41
1.0
 10
6.76184912045644
 20
2.137495749200939
 30
0.0
 41
1.0
 10
6.92386026471969
 20
2.201447870367425
 30
0.0
 41
1.0
  0
SPLINE
  5
5D7
330
1F
100
AcDbEntity
  8
0
100
AcDbSpline
210
0.0
220
0.0
230
1.0
 70
    12
 71
     3
 72
    16
 73
    12
 74
     0
 42
0.0000000001
 43
0.0000000001
 40
0.0243054644315013
 40
0.0243054644315013
 40
0.0243054644315013
 40
0.0243054644315013
 40
0.0670152488630979
 40
0.1720550038820069
 40
0.297009813721362
 40
0.4059974206563262
 40
0.5918199346290973
 40
0.774654491453759
 40
1.094897253933149
 40
1.287620981409245
 40
1.689016759274824
 40
1.689016759274824
 40
1.689016759274824
 40
1.689016759274824
 10
5.468001569472101
 20
2.168230004827572
 30
0.0
 41
1.0
 10
5.480009198650375
 20
2.175879367996334
 30
0.0
 41
1.0
 10
5.522837520213519
 20
2.200211300691993
 30
0.0
 41
1.0
 10
5.624585073193244
 20
2.207620081694498
 30
0.0
 41
1.0
 10
5.705750575358309
 20
2.115311810568388
 30
0.0
 41
1.0
 10
5.77449189103977
 20
1.995797495160319
 30
0.0
 41
1.0
 10
5.913573393082853
 20
1.897619269714193
 30
0.0
 41
1.0
 10
6.146787844545048
 20
1.879082048972926
 30
0.0
 41
1.0
 10
6.3767891968499
 20
1.904087532323475
 30
0.0
 41
1.0
 10
6.67949386755882
 20
1.949913654792412
 30
0.0
 41
1.0
 10
6.861196406203635
 20
2.032214228172292
 30
0.0
 41
1.0
 10
6.98395728374382
 20
2.087817692414056
 30
0.0
 41
1.0
  0
SPLINE
  5
5D8
330
1F
100
AcDbEntity
  8
0
100
AcDbSpline
210
0.0
220
0.0
230
1.0
 70
    12
 71
     3
 72
    26
 73
    22
 74
     0
 42
0.0000000001
 43
0.0000000001
 40
0.0237694843695217
 40
0.0237694843695217
 40
0.0237694843695217
 40
0.0237694843695217
 40
0.0899239600223298
 40
0.0899239600223298
 40
0.1798479200446596
 40
0.1798479200446596
 40
0.2697718800669894
 40
0.2697718800669894
 40
0.3596958400893192
 40
0.3596958400893192
 40
0.492738545680613
 40
0.492738545680613
 40
0.625781251271907
 40
0.625781251271907
 40
0.7588239568632009
 40
0.7588239568632009
 40
1.14825640501174
 40
1.14825640501174
 40
1.444656566525392
 40
1.444656566525392
 40
1.689016759274824
 40
1.689016759274824
 40
1.689016759274824
 40
1.689016759274824
 10
5.441027612620686
 20
2.210184165423742
 30
0.0
 41
1.0
 10
5.462335887953894
 20
2.223538888192286
 30
0.0
 41
1.0
 10
5.487730157191395
 20
2.237028257351299
 30
0.0
 41
1.0
 10
5.555426164590416
 20
2.253329374241017
 30
0.0
 41
1.0
 10
5.599015362050196
 20
2.252344697472255
 30
0.0
 41
1.0
 10
5.676083933018442
 20
2.219472589196319
 30
0.0
 41
1.0
 10
5.703963250293478
 20
2.191646965364508
 30
0.0
 41
1.0
 10
5.7486588955886
 20
2.136613370024536
 30
0.0
 41
1.0
 10
5.765377182676621
 20
2.109227516863548
 30
0.0
 41
1.0
 10
5.804692094860907
 20
2.051222714198124
 30
0.0
 41
1.0
 10
5.828691629924975
 20
2.024560674130549
 30
0.0
 41
1.0
 10
5.891560675696298
 20
1.978568918869506
 30
0.0
 41
1.0
 10
5.926668988991718
 20
1.96176459261199
 30
0.0
 41
1.0
 10
6.001531744504576
 20
1.942088071605055
 30
0.0
 41
1.0
 10
6.042422523081706
 20
1.938315235162407
 30
0.0
 41
1.0
 10
6.209862958055207
 20
1.934070484477007
 30
0.0
 41
1.0
 10
6.338312908336361
 20
1.949523488584822
 30
0.0
 41
1.0
 10
6.560657477905924
 20
1.982862385505349
 30
0.0
 41
1.0
 10
6.650832356472597
 20
2.005001216891707
 30
0.0
 41
1.0
 10
6.814869741732037
 20
2.066164685483478
 30
0.0
 41
1.0
 10
6.888593809429802
 20
2.099513435398535
 30
0.0
 41
1.0
 10
6.963327708867714
 20
2.133363500568388
 30
0.0
 41
1.0
  0
SPLINE
  5
5D9
330
1F
100
AcDbEntity
  8
0
100
AcDbSpline
210
0.0
220
0.0
230
1.0
 70
    12
 71
     3
 72
    14
 73
    10
 74
     0
 42
0.0000000001
 43
0.0000000001
 40
0.0098415972418675
 40
0.0098415972418675
 40
0.0098415972418675
 40
0.0098415972418675
 40
0.0738597844203529
 40
0.1978637102408189
 40
0.3921689429749873
 40
0.61636373719485
 40
0.9278897965268844
 40
1.209292521644087
 40
1.489105672407865
 40
1.489105672407865
 40
1.489105672407865
 40
1.489105672407865
 10
5.509319333955887
 20
1.894088996497534
 30
0.0
 41
1.0
 10
5.529548873380048
 20
1.900803585292582
 30
0.0
 41
1.0
 10
5.589217030138617
 20
1.91980337609401
 30
0.0
 41
1.0
 10
5.721921718355788
 20
1.926121132138638
 30
0.0
 41
1.0
 10
5.879577089684767
 20
1.824561226710728
 30
0.0
 41
1.0
 10
6.125787948922009
 20
1.789453135898636
 30
0.0
 41
1.0
 10
6.395466989130776
 20
1.827019258546982
 30
0.0
 41
1.0
 10
6.688609376070477
 20
1.849025049826775
 30
0.0
 41
1.0
 10
6.860153463572383
 20
1.927488900935418
 30
0.0
 41
1.0
 10
6.945682568648849
 20
1.966609706927059
 30
0.0
 41
1.0
  0
SPLINE
  5
5DA
330
1F
100
AcDbEntity
  8
0
100
AcDbSpline
210
0.0
220
0.0
230
1.0
 70
    12
 71
     3
 72
    22
 73
    18
 74
     0
 42
0.0000000001
 43
0.0000000001
 40
0.0240457980806726
 40
0.0240457980806726
 40
0.0240457980806726
 40
0.0240457980806726
 40
0.1545537315694548
 40
0.1545537315694548
 40
0.2776600632090013
 40
0.2776600632090013
 40
0.4007663948485478
 40
0.4007663948485478
 40
0.5238727264880942
 40
0.5238727264880942
 40
0.7700853897671872
 40
0.7700853897671872
 40
1.01629805304628
 40
1.01629805304628
 40
1.262510716325373
 40
1.262510716325373
 40
1.489105672407865
 40
1.489105672407865
 40
1.489105672407865
 40
1.489105672407865
 10
5.507686567507244
 20
1.945986839954745
 30
0.0
 41
1.0
 10
5.551555684820095
 20
1.959521638420339
 30
0.0
 41
1.0
 10
5.602083408999482
 20
1.971353057498949
 30
0.0
 41
1.0
 10
5.701623911634781
 20
1.968300787438843
 30
0.0
 41
1.0
 10
5.749461565961679
 20
1.95382946226888
 30
0.0
 41
1.0
 10
5.830364509054003
 20
1.918660977876691
 30
0.0
 41
1.0
 10
5.865886429983791
 20
1.899407691740543
 30
0.0
 41
1.0
 10
5.935360105160044
 20
1.873543441250873
 30
0.0
 41
1.0
 10
5.972126169957602
 20
1.864852265791298
 30
0.0
 41
1.0
 10
6.085885212528349
 20
1.848680918426733
 30
0.0
 41
1.0
 10
6.164763669287264
 20
1.851198069764759
 30
0.0
 41
1.0
 10
6.324668620378709
 20
1.86530746098334
 30
0.0
 41
1.0
 10
6.408477396744098
 20
1.875152456730735
 30
0.0
 41
1.0
 10
6.570499474236487
 20
1.892430491352797
 30
0.0
 41
1.0
 10
6.64655816110012
 20
1.903725453826559
 30
0.0
 41
1.0
 10
6.788034658356085
 20
1.949610666792983
 30
0.0
 41
1.0
 10
6.855622838804139
 20
1.980398704599326
 30
0.0
 41
1.0
 10
6.924885000913661
 20
2.01207905018491
 30
0.0
 41
1.0
  0
SPLINE
  5
5DB
330
1F
100
AcDbEntity
  8
0
100
AcDbSpline
210
0.0
220
0.0
230
1.0
 70
    12
 71
     3
 72
    16
 73
    12
 74
     0
 42
0.0000000001
 43
0.0000000001
 40
0.0231691502776418
 40
0.0231691502776418
 40
0.0231691502776418
 40
0.0231691502776418
 40
0.0738002564998128
 40
0.3188644241376581
 40
0.5164012134720263
 40
0.6988728420146325
 40
0.9217601112150813
 40
1.079775346407345
 40
1.321491387548543
 40
1.633338404827806
 40
2.099674190722534
 40
2.099674190722534
 40
2.099674190722534
 40
2.099674190722534
 10
5.112212000267293
 20
2.421921515530032
 30
0.0
 41
1.0
 10
5.124624329575176
 20
2.433488204115383
 30
0.0
 41
1.0
 10
5.199060733144388
 20
2.498154387296913
 30
0.0
 41
1.0
 10
5.383609478718073
 20
2.516484037285735
 30
0.0
 41
1.0
 10
5.576121209876753
 20
2.442777380539632
 30
0.0
 41
1.0
 10
5.759228900272811
 20
2.344043116683022
 30
0.0
 41
1.0
 10
5.84986171685343
 20
2.177588899560832
 30
0.0
 41
1.0
 10
5.99541308088763
 20
2.011556528673083
 30
0.0
 41
1.0
 10
6.255505737936891
 20
2.040083905166016
 30
0.0
 41
1.0
 10
6.584223940151488
 20
2.086163120300846
 30
0.0
 41
1.0
 10
6.823440385774672
 20
2.19558866191143
 30
0.0
 41
1.0
 10
6.966793835264468
 20
2.261163287482432
 30
0.0
 41
1.0
  0
SPLINE
  5
5DC
330
1F
100
AcDbEntity
  8
0
100
AcDbSpline
210
0.0
220
0.0
230
1.0
 70
    12
 71
     3
 72
    32
 73
    28
 74
     0
 42
0.0000000001
 43
0.0000000001
 40
0.0
 40
0.0
 40
0.0
 40
0.0
 40
0.1053285130088734
 40
0.1053285130088734
 40
0.2106570260177467
 40
0.2106570260177467
 40
0.4253970021380696
 40
0.4253970021380696
 40
0.5943343147165032
 40
0.5943343147165032
 40
0.7632716272949368
 40
0.7632716272949368
 40
0.9322089398733704
 40
0.9322089398733704
 40
1.064368183152092
 40
1.064368183152092
 40
1.210634037045404
 40
1.210634037045404
 40
1.356899890938717
 40
1.356899890938717
 40
1.503165744832029
 40
1.503165744832029
 40
1.795697452618655
 40
1.795697452618655
 40
2.08822916040528
 40
2.08822916040528
 40
2.099674190722534
 40
2.099674190722534
 40
2.099674190722534
 40
2.099674190722534
 10
5.060649392550339
 20
2.441870696196915
 30
0.0
 41
1.0
 10
5.086153703900708
 20
2.466403360254981
 30
0.0
 41
1.0
 10
5.118001047633215
 20
2.495626682026769
 30
0.0
 41
1.0
 10
5.193131611135068
 20
2.533624722764789
 30
0.0
 41
1.0
 10
5.233834213354389
 20
2.544276951337237
 30
0.0
 41
1.0
 10
5.358185776515257
 20
2.558677286688835
 30
0.0
 41
1.0
 10
5.44041908525536
 20
2.543650637147871
 30
0.0
 41
1.0
 10
5.569401679820404
 20
2.498343461157008
 30
0.0
 41
1.0
 10
5.622353786505837
 20
2.474242584901865
 30
0.0
 41
1.0
 10
5.728727945323691
 20
2.413413261433297
 30
0.0
 41
1.0
 10
5.77941853381458
 20
2.371548795497092
 30
0.0
 41
1.0
 10
5.854421582146927
 20
2.276966177359262
 30
0.0
 41
1.0
 10
5.883438763178951
 20
2.227176178252264
 30
0.0
 41
1.0
 10
5.941890833295848
 20
2.149319228391507
 30
0.0
 41
1.0
 10
5.969514914852413
 20
2.119792506661654
 30
0.0
 41
1.0
 10
6.027629064810569
 20
2.084403461376767
 30
0.0
 41
1.0
 10
6.064053899136413
 20
2.078122480750997
 30
0.0
 41
1.0
 10
6.154334761990298
 20
2.078576184624097
 30
0.0
 41
1.0
 10
6.206045185278631
 20
2.085659725074078
 30
0.0
 41
1.0
 10
6.305033891548646
 20
2.098250963958156
 30
0.0
 41
1.0
 10
6.352623232195551
 20
2.104969588298262
 30
0.0
 41
1.0
 10
6.491448665817523
 20
2.12963611123684
 30
0.0
 41
1.0
 10
6.578947558406671
 20
2.153940993762137
 30
0.0
 41
1.0
 10
6.756660369910329
 20
2.220364580642856
 30
0.0
 41
1.0
 10
6.845594608079312
 20
2.260716789354845
 30
0.0
 41
1.0
 10
6.938959939075999
 20
2.303413980690416
 30
0.0
 41
1.0
 10
6.942476681497579
 20
2.305022655301266
 30
0.0
 41
1.0
 10
6.945994928702961
 20
2.306632018340525
 30
0.0
 41
1.0
  0
SPLINE
  5
5DD
330
1F
100
AcDbEntity
  8
0
100
AcDbSpline
210
0.0
220
0.0
230
1.0
 70
    28
 71
     3
 72
     8
 73
     4
 74
     0
 42
0.0000000001
 43
0.0000000001
 40
0.0
 40
0.0
 40
0.0
 40
0.0
 40
0.0165579836296268
 40
0.0165579836296268
 40
0.0165579836296268
 40
0.0165579836296268
 10
5.060649392550339
 20
2.441870696196915
 30
0.0
 41
1.0
 10
5.056700105475891
 20
2.438015036485221
 30
0.0
 41
1.0
 10
5.052750818401444
 20
2.434159376773527
 30
0.0
 41
1.0
 10
5.048801531326997
 20
2.430303717061833
 30
0.0
 41
1.0
  0
SPLINE
  5
5DE
330
1F
100
AcDbEntity
  8
0
100
AcDbSpline
210
0.0
220
0.0
230
1.0
 70
    28
 71
     3
 72
     8
 73
     4
 74
     0
 42
0.0000000001
 43
0.0000000001
 40
0.0
 40
0.0
 40
0.0
 40
0.0
 40
0.0076599815480487
 40
0.0076599815480487
 40
0.0076599815480487
 40
0.0076599815480487
 10
5.294728124675139
 20
2.357254680483481
 30
0.0
 41
1.0
 10
5.292567408258117
 20
2.355894245160859
 30
0.0
 41
1.0
 10
5.290406691841095
 20
2.354533809838236
 30
0.0
 41
1.0
 10
5.288245975424074
 20
2.353173374515613
 30
0.0
 41
1.0
  0
SPLINE
  5
5E0
330
1F
100
AcDbEntity
  8
0
100
AcDbSpline
210
0.0
220
0.0
230
1.0
 70
    12
 71
     3
 72
    13
 73
     9
 74
     0
 42
0.0000000001
 43
0.0000000001
 40
0.0625209793100458
 40
0.0625209793100458
 40
0.0625209793100458
 40
0.0625209793100458
 40
0.1536964287823797
 40
0.4263566191330839
 40
0.575548761267984
 40
1.009941465884756
 40
1.516149837345486
 40
2.076610292528144
 40
2.076610292528144
 40
2.076610292528144
 40
2.076610292528144
 10
4.53941081958558
 20
1.669771693363408
 30
0.0
 41
1.0
 10
4.509748246497838
 20
1.661497712861523
 30
0.0
 41
1.0
 10
4.391597622603204
 20
1.637017895311142
 30
0.0
 41
1.0
 10
4.228012684373557
 20
1.720595121627914
 30
0.0
 41
1.0
 10
3.954232461124914
 20
1.804946314511442
 30
0.0
 41
1.0
 10
3.591196024349266
 20
1.71418105060017
 30
0.0
 41
1.0
 10
3.060857719962394
 20
1.79804253333872
 30
0.0
 41
1.0
 10
2.838413912159701
 20
2.09250726714957
 30
0.0
 41
1.0
 10
2.721535125923886
 20
2.247228052668547
 30
0.0
 41
1.0
  0
SPLINE
  5
5E1
330
1F
100
AcDbEntity
  8
0
100
AcDbSpline
210
0.0
220
0.0
230
1.0
 70
    12
 71
     3
 72
    22
 73
    18
 74
     0
 42
0.0000000001
 43
0.0000000001
 40
0.0701911330956654
 40
0.0701911330956654
 40
0.0701911330956654
 40
0.0701911330956654
 40
0.146670136428799
 40
0.146670136428799
 40
0.3789989792504873
 40
0.3789989792504873
 40
0.6113278220721755
 40
0.6113278220721755
 40
0.8436566648938637
 40
0.8436566648938637
 40
1.116152725357074
 40
1.116152725357074
 40
1.388648785820284
 40
1.388648785820284
 40
1.793155523809748
 40
1.793155523809748
 40
2.076610292528144
 40
2.076610292528144
 40
2.076610292528144
 40
2.076610292528144
 10
4.519064985310926
 20
1.716184830428268
 30
0.0
 41
1.0
 10
4.496235693471236
 20
1.710120088329726
 30
0.0
 41
1.0
 10
4.474672524613655
 20
1.705834172758051
 30
0.0
 41
1.0
 10
4.393870391007632
 20
1.701266808833807
 30
0.0
 41
1.0
 10
4.327132233960867
 20
1.727593890475934
 30
0.0
 41
1.0
 10
4.17811697809249
 20
1.787915019484488
 30
0.0
 41
1.0
 10
4.096852393930781
 20
1.816280062480671
 30
0.0
 41
1.0
 10
3.932954829567822
 20
1.831972541298637
 30
0.0
 41
1.0
 10
3.852785552117149
 20
1.823763994858276
 30
0.0
 41
1.0
 10
3.682311609954493
 20
1.803942669155316
 30
0.0
 41
1.0
 10
3.592959238325134
 20
1.79355686765669
 30
0.0
 41
1.0
 10
3.414230667472107
 20
1.800689383912213
 30
0.0
 41
1.0
 10
3.326239328857681
 20
1.815652110912111
 30
0.0
 41
1.0
 10
3.127165414540808
 20
1.885102521329358
 30
0.0
 41
1.0
 10
3.030008412388908
 20
1.958696092581577
 30
0.0
 41
1.0
 10
2.8787803518033
 20
2.122174799620176
 30
0.0
 41
1.0
 10
2.820542982498781
 20
2.199115640294445
 30
0.0
 41
1.0
 10
2.761431141486264
 20
2.277366200293218
 30
0.0
 41
1.0
  0
SPLINE
  5
5E2
330
1F
100
AcDbEntity
  8
0
100
AcDbSpline
210
0.0
220
0.0
230
1.0
 70
    12
 71
     3
 72
    14
 73
    10
 74
     0
 42
0.0000000001
 43
0.0000000001
 40
0.0511068276590224
 40
0.0511068276590224
 40
0.0511068276590224
 40
0.0511068276590224
 40
0.1162625122609451
 40
0.3124039849450373
 40
0.4870456616321873
 40
0.9429401285890483
 40
1.290434723118062
 40
1.686647811258886
 40
2.093796018844256
 40
2.093796018844256
 40
2.093796018844256
 40
2.093796018844256
 10
4.484615686436113
 20
1.886843940634526
 30
0.0
 41
1.0
 10
4.462954152900674
 20
1.888501627199494
 30
0.0
 41
1.0
 10
4.376044236716803
 20
1.893992277095001
 30
0.0
 41
1.0
 10
4.230444618222997
 20
1.885538476007461
 30
0.0
 41
1.0
 10
3.957103137142096
 20
1.849322279530049
 30
0.0
 41
1.0
 10
3.636199331611386
 20
1.807630576460238
 30
0.0
 41
1.0
 10
3.219630709862743
 20
1.865978886363101
 30
0.0
 41
1.0
 10
2.95585629264156
 20
2.169821641568068
 30
0.0
 41
1.0
 10
2.793871567591966
 20
2.379809792192642
 30
0.0
 41
1.0
 10
2.711776760671334
 20
2.486233016208779
 30
0.0
 41
1.0
  0
SPLINE
  5
5E3
330
1F
100
AcDbEntity
  8
0
100
AcDbSpline
210
0.0
220
0.0
230
1.0
 70
    12
 71
     3
 72
    20
 73
    16
 74
     0
 42
0.0000000001
 43
0.0000000001
 40
0.0540493768925741
 40
0.0540493768925741
 40
0.0540493768925741
 40
0.0540493768925741
 40
0.2327129197827327
 40
0.2327129197827327
 40
0.4654258395654653
 40
0.4654258395654653
 40
0.8593248419407901
 40
0.8593248419407901
 40
1.232016151216004
 40
1.232016151216004
 40
1.532540203180278
 40
1.532540203180278
 40
1.833064255144551
 40
1.833064255144551
 40
2.093796018844256
 40
2.093796018844256
 40
2.093796018844256
 40
2.093796018844256
 10
4.485307010430411
 20
1.936596044343782
 30
0.0
 41
1.0
 10
4.42445697477014
 20
1.940592232270317
 30
0.0
 41
1.0
 10
4.361680050243955
 20
1.942234773758021
 30
0.0
 41
1.0
 10
4.220428853515054
 20
1.934206291334854
 30
0.0
 41
1.0
 10
4.142103917900007
 20
1.924210632791939
 30
0.0
 41
1.0
 10
3.934798296463954
 20
1.896969297046539
 30
0.0
 41
1.0
 10
3.807497082462029
 20
1.879657817249583
 30
0.0
 41
1.0
 10
3.557490813496542
 20
1.873604420807899
 30
0.0
 41
1.0
 10
3.431122876817469
 20
1.882212970075117
 30
0.0
 41
1.0
 10
3.241528069146592
 20
1.954138365599994
 30
0.0
 41
1.0
 10
3.17073532988153
 20
2.010786784999548
 30
0.0
 41
1.0
 10
3.035841000977594
 20
2.152918254243269
 30
0.0
 41
1.0
 10
2.972210838535587
 20
2.23432731920645
 30
0.0
 41
1.0
 10
2.856380943365667
 20
2.380639444294235
 30
0.0
 41
1.0
 10
2.803938747680904
 20
2.448620586094517
 30
0.0
 41
1.0
 10
2.751366432734596
 20
2.516772463910455
 30
0.0
 41
1.0
  0
SPLINE
  5
5E5
330
1F
100
AcDbEntity
  8
0
100
AcDbSpline
210
0.0
220
0.0
230
1.0
 70
    12
 71
     3
 72
    14
 73
    10
 74
     0
 42
0.0000000001
 43
0.0000000001
 40
0.0451934695776546
 40
0.0451934695776546
 40
0.0451934695776546
 40
0.0451934695776546
 40
0.0877947629339342
 40
0.2679063677116246
 40
0.5237969463419785
 40
0.9005144609760727
 40
1.195410515900857
 40
1.446609061440869
 40
2.031094878911194
 40
2.031094878911194
 40
2.031094878911194
 40
2.031094878911194
 10
4.532934262665841
 20
2.125523537964137
 30
0.0
 41
1.0
 10
4.519028590992931
 20
2.128997691164171
 30
0.0
 41
1.0
 10
4.447311464621999
 20
2.1403130705235
 30
0.0
 41
1.0
 10
4.314571739919236
 20
2.015197643768337
 30
0.0
 41
1.0
 10
4.066277495130507
 20
1.913719591969699
 30
0.0
 41
1.0
 10
3.755058486765429
 20
1.900812596447117
 30
0.0
 41
1.0
 10
3.435528920950004
 20
1.897096906062814
 30
0.0
 41
1.0
 10
3.1262157635147
 20
2.139664219615004
 30
0.0
 41
1.0
 10
2.973474092229785
 20
2.372478163783922
 30
0.0
 41
1.0
 10
2.866645073339022
 20
2.535310513531236
 30
0.0
 41
1.0
  0
SPLINE
  5
5E6
330
1F
100
AcDbEntity
  8
0
100
AcDbSpline
210
0.0
220
0.0
230
1.0
 70
    12
 71
     3
 72
    28
 73
    24
 74
     0
 42
0.0000000001
 43
0.0000000001
 40
0.0350853101437099
 40
0.0350853101437099
 40
0.0350853101437099
 40
0.0350853101437099
 40
0.0792399196830152
 40
0.0792399196830152
 40
0.1584798393660303
 40
0.1584798393660303
 40
0.2377197590490455
 40
0.2377197590490455
 40
0.3962675351166311
 40
0.3962675351166311
 40
0.5548153111842167
 40
0.5548153111842167
 40
0.8349127505143857
 40
0.8349127505143857
 40
1.138924061759107
 40
1.138924061759107
 40
1.366193212829033
 40
1.366193212829033
 40
1.593462363898958
 40
1.593462363898958
 40
1.820731514968884
 40
1.820731514968884
 40
2.031094878911194
 40
2.031094878911194
 40
2.031094878911194
 40
2.031094878911194
 10
4.556739915997056
 20
2.171076448935542
 30
0.0
 41
1.0
 10
4.540099087558373
 20
2.175911157722216
 30
0.0
 41
1.0
 10
4.522047341747665
 20
2.179795729999728
 30
0.0
 41
1.0
 10
4.466682676555622
 20
2.182225642179303
 30
0.0
 41
1.0
 10
4.43197742350331
 20
2.170381503554379
 30
0.0
 41
1.0
 10
4.376076222132783
 20
2.13989064886927
 30
0.0
 41
1.0
 10
4.351993527357982
 20
2.121209994549331
 30
0.0
 41
1.0
 10
4.28446364298302
 20
2.070463363405548
 30
0.0
 41
1.0
 10
4.243774382763212
 20
2.045950015965825
 30
0.0
 41
1.0
 10
4.154394767602573
 20
2.006766069183647
 30
0.0
 41
1.0
 10
4.107963761034189
 20
1.992652415304539
 30
0.0
 41
1.0
 10
3.974686030029041
 20
1.963747369707055
 30
0.0
 41
1.0
 10
3.884328372558153
 20
1.957045706652258
 30
0.0
 41
1.0
 10
3.688748040799636
 20
1.950046113396642
 30
0.0
 41
1.0
 10
3.583429729693298
 20
1.944913719393743
 30
0.0
 41
1.0
 10
3.43113014860998
 20
1.979591156443466
 30
0.0
 41
1.0
 10
3.373595299274939
 20
2.012218177537246
 30
0.0
 41
1.0
 10
3.260829915437012
 20
2.10312488554112
 30
0.0
 41
1.0
 10
3.208240159300064
 20
2.157265463014809
 30
0.0
 41
1.0
 10
3.11190578564549
 20
2.269082311486559
 30
0.0
 41
1.0
 10
3.067465444295973
 20
2.328288643382517
 30
0.0
 41
1.0
 10
2.985079209768924
 20
2.445952574409047
 30
0.0
 41
1.0
 10
2.946899995886588
 20
2.504132713586671
 30
0.0
 41
1.0
 10
2.908450967511902
 20
2.562738003617023
 30
0.0
 41
1.0
  0
SPLINE
  5
5E7
330
1F
100
AcDbEntity
  8
0
100
AcDbSpline
210
0.0
220
0.0
230
1.0
 70
    12
 71
     3
 72
    16
 73
    12
 74
     0
 42
0.0000000001
 43
0.0000000001
 40
0.0491925089748264
 40
0.0491925089748264
 40
0.0491925089748264
 40
0.0491925089748264
 40
0.1014341936157689
 40
0.2658382152109187
 40
0.4934327567222613
 40
0.8098632473437405
 40
1.220918295002781
 40
1.268768581678904
 40
1.522496220006224
 40
2.162128314694746
 40
2.366513136010228
 40
2.366513136010228
 40
2.366513136010228
 40
2.366513136010228
 10
4.714330625098249
 20
2.339862654126327
 30
0.0
 41
1.0
 10
4.699808535078837
 20
2.350106342231792
 30
0.0
 41
1.0
 10
4.638032200205867
 20
2.383511370070992
 30
0.0
 41
1.0
 10
4.484120136148254
 20
2.292879055612475
 30
0.0
 41
1.0
 10
4.335513522041746
 20
2.126331667043357
 30
0.0
 41
1.0
 10
4.038828926351614
 20
1.962954645859169
 30
0.0
 41
1.0
 10
3.775758307693724
 20
1.983963322020052
 30
0.0
 41
1.0
 10
3.537077707762172
 20
1.974782816191614
 30
0.0
 41
1.0
 10
3.252919293887182
 20
2.167186956111282
 30
0.0
 41
1.0
 10
3.093266524006729
 20
2.497272591939486
 30
0.0
 41
1.0
 10
2.914683616020938
 20
2.71541319383788
 30
0.0
 41
1.0
 10
2.871438468860283
 20
2.768237523653141
 30
0.0
 41
1.0
  0
SPLINE
  5
5E8
330
1F
100
AcDbEntity
  8
0
100
AcDbSpline
210
0.0
220
0.0
230
1.0
 70
    12
 71
     3
 72
    34
 73
    30
 74
     0
 42
0.0000000001
 43
0.0000000001
 40
0.0314844170954997
 40
0.0314844170954997
 40
0.0314844170954997
 40
0.0314844170954997
 40
0.0798895658385292
 40
0.0798895658385292
 40
0.1420455762464685
 40
0.1420455762464685
 40
0.2042015866544079
 40
0.2042015866544079
 40
0.3556103685960195
 40
0.3556103685960195
 40
0.507019150537631
 40
0.507019150537631
 40
0.7904645245160107
 40
0.7904645245160107
 40
1.071259191586362
 40
1.071259191586362
 40
1.22210587987814
 40
1.22210587987814
 40
1.32794744689281
 40
1.32794744689281
 40
1.43378901390748
 40
1.43378901390748
 40
1.661290935424929
 40
1.661290935424929
 40
1.888792856942378
 40
1.888792856942378
 40
2.190068972768905
 40
2.190068972768905
 40
2.366513136010228
 40
2.366513136010228
 40
2.366513136010228
 40
2.366513136010228
 10
4.760372011185458
 20
2.367947349873704
 30
0.0
 41
1.0
 10
4.74551860723873
 20
2.379944845717948
 30
0.0
 41
1.0
 10
4.728867507000651
 20
2.391640114215412
 30
0.0
 41
1.0
 10
4.683414290464269
 20
2.41231852815879
 30
0.0
 41
1.0
 10
4.651169655480994
 20
2.416203857910368
 30
0.0
 41
1.0
 10
4.596135448239222
 20
2.407391940047518
 30
0.0
 41
1.0
 10
4.571265486563226
 20
2.397017127106079
 30
0.0
 41
1.0
 10
4.492284972560762
 20
2.354506898531524
 30
0.0
 41
1.0
 10
4.448789681699155
 20
2.315718449347585
 30
0.0
 41
1.0
 10
4.372354036518293
 20
2.245862630337811
 30
0.0
 41
1.0
 10
4.339378891911619
 20
2.213011825256178
 30
0.0
 41
1.0
 10
4.234857343774882
 20
2.12960608270344
 30
0.0
 41
1.0
 10
4.152743452115859
 20
2.084467217754127
 30
0.0
 41
1.0
 10
3.985693824120244
 20
2.034958975827792
 30
0.0
 41
1.0
 10
3.897625234513048
 20
2.030691225072261
 30
0.0
 41
1.0
 10
3.754658851289602
 20
2.029742459602719
 30
0.0
 41
1.0
 10
3.703208874767286
 20
2.030404754647448
 30
0.0
 41
1.0
 10
3.615408829524269
 20
2.02807542522432
 30
0.0
 41
1.0
 10
3.591264795007759
 20
2.029175271587779
 30
0.0
 41
1.0
 10
3.536396866262007
 20
2.046274095834892
 30
0.0
 41
1.0
 10
3.508521337040686
 20
2.060730803902319
 30
0.0
 41
1.0
 10
3.422387856852453
 20
2.118946088449854
 30
0.0
 41
1.0
 10
3.368021079556563
 20
2.173478574014829
 30
0.0
 41
1.0
 10
3.273570544376117
 20
2.285573991299383
 30
0.0
 41
1.0
 10
3.231634485008705
 20
2.346125603702895
 30
0.0
 41
1.0
 10
3.136227169077284
 20
2.491384817452047
 30
0.0
 41
1.0
 10
3.082925096883288
 20
2.577996314011807
 30
0.0
 41
1.0
 10
2.98524909143047
 20
2.708172396372757
 30
0.0
 41
1.0
 10
2.947460542398736
 20
2.754307565439052
 30
0.0
 41
1.0
 10
2.910127271973376
 20
2.799910485524054
 30
0.0
 41
1.0
  0
ARC
  5
5F0
330
1F
100
AcDbEntity
  8
0
100
AcDbCircle
 10
3.761830879064699
 20
4.782168570046882
 30
0.0
 40
0.0758092796241335
100
AcDbArc
 50
341.1395086675648
 51
167.0075160340217
  0
ARC
  5
5F1
330
1F
100
AcDbEntity
  8
0
100
AcDbCircle
 10
3.624734668752026
 20
4.750124359064305
 30
0.0
 40
0.0800459958120609
100
AcDbArc
 50
37.82459241652744
 51
247.1215881442038
  0
ARC
  5
5F2
330
1F
100
AcDbEntity
  8
0
100
AcDbCircle
 10
3.573447537027093
 20
4.578735721101777
 30
0.0
 40
0.0997006712623224
100
AcDbArc
 50
78.32988576137923
 51
294.3662260059739
  0
ARC
  5
5F3
330
1F
100
AcDbEntity
  8
0
100
AcDbCircle
 10
3.687962349947359
 20
4.461780021666027
 30
0.0
 40
0.0778968881259243
100
AcDbArc
 50
160.3960716833022
 51
19.6039283166987
  0
ARC
  5
5F4
330
1F
100
AcDbEntity
  8
0
100
AcDbCircle
 10
3.845130025425716
 20
4.508855654717564
 30
0.0
 40
0.0863631676098809
100
AcDbArc
 50
194.0320197727585
 51
75.89637345113806
  0
ARC
  5
5F5
330
1F
100
AcDbEntity
  8
0
100
AcDbCircle
 10
3.859267745054799
 20
4.676994885192324
 30
0.0
 40
0.0846615580753053
100
AcDbArc
 50
274.6795639353235
 51
107.6701576344381
  0
ARC
  5
5FC
330
1F
100
AcDbEntity
  8
0
100
AcDbCircle
 10
0.5222406461192324
 20
4.534284874698064
 30
0.0
 40
0.0824745273643322
100
AcDbArc
 50
194.0320197727585
 51
75.89637345113806
  0
ARC
  5
5FD
330
1F
100
AcDbEntity
  8
0
100
AcDbCircle
 10
0.2627910978458489
 20
4.601018478926896
 30
0.0
 40
0.0952114885064259
100
AcDbArc
 50
78.32988576137923
 51
294.3662260059739
  0
ARC
  5
5FE
330
1F
100
AcDbEntity
  8
0
100
AcDbCircle
 10
0.3721496975034794
 20
4.489328897587076
 30
0.0
 40
0.0743894557036007
100
AcDbArc
 50
160.3960716833022
 51
19.6039283166987
  0
ARC
  5
5FF
330
1F
100
AcDbEntity
  8
0
100
AcDbCircle
 10
0.5357417922291697
 20
4.694853366435759
 30
0.0
 40
0.0808495355303516
100
AcDbArc
 50
274.6795639353235
 51
107.6701576344381
  0
ARC
  5
600
330
1F
100
AcDbEntity
  8
0
100
AcDbCircle
 10
0.4426921775288878
 20
4.795291437312545
 30
0.0
 40
0.0723958451254812
100
AcDbArc
 50
341.1395086675648
 51
167.0075160340217
  0
ARC
  5
601
330
1F
100
AcDbEntity
  8
0
100
AcDbCircle
 10
0.31176894414247
 20
4.764690068364509
 30
0.0
 40
0.0764417963665766
100
AcDbArc
 50
37.82459241652744
 51
247.1215881442038
  0
LINE
  5
608
330
1F
100
AcDbEntity
  8
0
100
AcDbLine
 10
3.813703444945474
 20
4.5459166228117
 30
0.0
 11
3.769298758020371
 21
4.617406293126845
 31
0.0
  0
LINE
  5
609
330
1F
100
AcDbEntity
  8
0
100
AcDbLine
 10
3.769298758020371
 20
4.617406293126845
 30
0.0
 11
3.749592767402517
 21
4.605166226274146
 31
0.0
  0
LINE
  5
60A
330
1F
100
AcDbEntity
  8
0
100
AcDbLine
 10
3.774355228567614
 20
4.722196636904539
 30
0.0
 11
3.704294013150607
 21
4.768822544691689
 31
0.0
  0
LINE
  5
60B
330
1F
100
AcDbEntity
  8
0
100
AcDbLine
 10
3.761502886441093
 20
4.702884397141831
 30
0.0
 11
3.691441671024084
 21
4.749510304928982
 31
0.0
  0
LINE
  5
60C
330
1F
100
AcDbEntity
  8
0
100
AcDbLine
 10
3.710753910786793
 20
4.736657962802456
 30
0.0
 11
3.688144664807787
 21
4.702684763606372
 31
0.0
  0
LINE
  5
60E
330
1F
100
AcDbEntity
  8
0
100
AcDbLine
 10
3.704294013150607
 20
4.768822544691689
 30
0.0
 11
3.691441671024084
 21
4.749510304928982
 31
0.0
  0
LINE
  5
60F
330
1F
100
AcDbEntity
  8
0
100
AcDbLine
 10
3.774355228567614
 20
4.722196636904539
 30
0.0
 11
3.761502886441093
 21
4.702884397141831
 31
0.0
  0
LINE
  5
610
330
1F
100
AcDbEntity
  8
0
100
AcDbLine
 10
3.719581400699379
 20
4.681763540072266
 30
0.0
 11
3.688144664807789
 21
4.702684763606372
 31
0.0
  0
LINE
  5
611
330
1F
100
AcDbEntity
  8
0
100
AcDbLine
 10
3.742190646678383
 20
4.715736739268351
 30
0.0
 11
3.719581400699379
 21
4.681763540072266
 31
0.0
  0
LINE
  5
612
330
1F
100
AcDbEntity
  8
0
100
AcDbLine
 10
3.79399745432762
 20
4.533676555959002
 30
0.0
 11
3.749592767402517
 21
4.605166226274146
 31
0.0
  0
LINE
  5
613
330
1F
100
AcDbEntity
  8
0
100
AcDbLine
 10
3.813703444945474
 20
4.5459166228117
 30
0.0
 11
3.79399745432762
 21
4.533676555959002
 31
0.0
  0
LINE
  5
614
330
1F
100
AcDbEntity
  8
0
100
AcDbLine
 10
3.74709151998143
 20
4.531850386948062
 30
0.0
 11
3.727166966761728
 21
4.563928076027499
 31
0.0
  0
LINE
  5
615
330
1F
100
AcDbEntity
  8
0
100
AcDbLine
 10
3.781757387474919
 20
4.553382546576856
 30
0.0
 11
3.74709151998143
 21
4.531850386948062
 31
0.0
  0
LINE
  5
616
330
1F
100
AcDbEntity
  8
0
100
AcDbLine
 10
3.761832834255218
 20
4.585460235656289
 30
0.0
 11
3.727166966761726
 21
4.563928076027499
 31
0.0
  0
LEADER
  5
621
330
1F
100
AcDbEntity
  8
0
100
AcDbLeader
  3
Standard
 76
     2
 10
5.375484313667194
 20
1.712009745855458
 30
0.0
 10
7.345963599516246
 20
1.569479161987292
 30
0.0
1001
ACAD
1000
DSTYLE
1002
{
1070
    41
1040
0.125
1070
   147
1040
0.09
1070
    77
1070
     0
1002
}
  0
LINE
  5
622
330
1F
100
AcDbEntity
  8
0
100
AcDbLine
 10
8.079747465445411
 20
2.265822205212279
 30
0.0
 11
7.345518591595695
 21
1.56951135072391
 31
0.0
  0
SPLINE
  5
636
330
1F
100
AcDbEntity
  8
0
100
AcDbSpline
210
0.0
220
0.0
230
1.0
 70
    12
 71
     3
 72
     8
 73
     4
 74
     0
 42
0.0000000001
 43
0.0000000001
 40
0.0
 40
0.0
 40
0.0
 40
0.0
 40
0.0973600121395371
 40
0.0973600121395371
 40
0.0973600121395371
 40
0.0973600121395371
 10
4.619292837878748
 20
5.779685225379229
 30
0.0
 41
1.0
 10
4.609310725572428
 20
5.746862968844854
 30
0.0
 41
1.0
 10
4.599328613266107
 20
5.714040712310481
 30
0.0
 41
1.0
 10
4.592401699031162
 20
5.681716075429444
 30
0.0
 41
1.0
  0
SPLINE
  5
637
330
1F
100
AcDbEntity
  8
0
100
AcDbSpline
210
0.0
220
0.0
230
1.0
 70
    12
 71
     3
 72
     8
 73
     4
 74
     0
 42
0.0000000001
 43
0.0000000001
 40
0.0
 40
0.0
 40
0.0
 40
0.0
 40
0.0930296884466852
 40
0.0930296884466852
 40
0.0930296884466852
 40
0.0930296884466852
 10
4.591090356662306
 20
5.785399284836998
 30
0.0
 41
1.0
 10
4.581301684555648
 20
5.755549106462897
 30
0.0
 41
1.0
 10
4.571252538062312
 20
5.724281212111936
 30
0.0
 41
1.0
 10
4.563964931658948
 20
5.692165772098189
 30
0.0
 41
1.0
  0
SPLINE
  5
638
330
1F
100
AcDbEntity
  8
0
100
AcDbSpline
210
0.0
220
0.0
230
1.0
 70
    12
 71
     3
 72
     8
 73
     4
 74
     0
 42
0.0000000001
 43
0.0000000001
 40
0.0
 40
0.0
 40
0.0
 40
0.0
 40
0.0938436500663472
 40
0.0938436500663472
 40
0.0938436500663472
 40
0.0938436500663472
 10
4.570439749760266
 20
5.789603763506509
 30
0.0
 41
1.0
 10
4.560588614529327
 20
5.759907419400063
 30
0.0
 41
1.0
 10
4.550737479298389
 20
5.730211075293617
 30
0.0
 41
1.0
 10
4.542769040776517
 20
5.699954654267746
 30
0.0
 41
1.0
  0
SPLINE
  5
639
330
1F
100
AcDbEntity
  8
0
100
AcDbSpline
210
0.0
220
0.0
230
1.0
 70
    12
 71
     3
 72
     8
 73
     4
 74
     0
 42
0.0000000001
 43
0.0000000001
 40
0.0
 40
0.0
 40
0.0
 40
0.0
 40
0.0902514997456659
 40
0.0902514997456659
 40
0.0902514997456659
 40
0.0902514997456659
 10
4.542120874209512
 20
5.795773192139734
 30
0.0
 41
1.0
 10
4.53257734949069
 20
5.768679175638068
 30
0.0
 41
1.0
 10
4.522844476719227
 20
5.740111323514999
 30
0.0
 41
1.0
 10
4.514738736602187
 20
5.71025498736603
 30
0.0
 41
1.0
  0
SPLINE
  5
63B
330
1F
100
AcDbEntity
  8
0
100
AcDbSpline
210
0.0
220
0.0
230
1.0
 70
     8
 71
     3
 72
    10
 73
     6
 74
     4
 42
0.0000001
 43
0.0000001
 44
0.0000000001
 40
0.0
 40
0.0
 40
0.0
 40
0.0
 40
0.1145720281103904
 40
0.247960428052193
 40
0.4048903814624216
 40
0.4048903814624216
 40
0.4048903814624216
 40
0.4048903814624216
 10
4.461103111151896
 20
4.800184464886446
 30
0.0
 10
4.470841705690576
 20
4.761923017189635
 30
0.0
 10
4.491918281799634
 20
4.679116374894218
 30
0.0
 10
4.614079084584959
 20
4.602646197667511
 30
0.0
 10
4.703797013500127
 20
4.569314983838766
 30
0.0
 10
4.752293535480767
 20
4.55129798362897
 30
0.0
 11
4.461103111151896
 21
4.800184464886446
 31
0.0
 11
4.501791467659828
 21
4.693080742868901
 31
0.0
 11
4.607424877663153
 21
4.611631077859744
 31
0.0
 11
4.752293535480767
 21
4.55129798362897
 31
0.0
  0
SPLINE
  5
63C
330
1F
100
AcDbEntity
  8
0
100
AcDbSpline
210
0.0
220
0.0
230
1.0
 70
    12
 71
     3
 72
    14
 73
    10
 74
     0
 42
0.0000000001
 43
0.0000000001
 40
0.0
 40
0.0
 40
0.0
 40
0.0
 40
0.1129782064416963
 40
0.1129782064416963
 40
0.2570313154111489
 40
0.2570313154111489
 40
0.4010844243806014
 40
0.4010844243806014
 40
0.4048903814624216
 40
0.4048903814624216
 40
0.4048903814624216
 40
0.4048903814624216
 10
4.43473176376955
 20
4.779400165554896
 30
0.0
 41
1.0
 10
4.441633191947107
 20
4.755055384611363
 30
0.0
 41
1.0
 10
4.451433564269832
 20
4.713852003150506
 30
0.0
 41
1.0
 10
4.507524169126085
 20
4.631187907570398
 30
0.0
 41
1.0
 10
4.556758997078668
 20
4.603064534895907
 30
0.0
 41
1.0
 10
4.648214843333532
 20
4.558059199864879
 30
0.0
 41
1.0
 10
4.693749388920267
 20
4.541047988077122
 30
0.0
 41
1.0
 10
4.739492915349548
 20
4.52405014319914
 30
0.0
 41
1.0
 10
4.740669732053842
 20
4.523612942659882
 30
0.0
 41
1.0
 10
4.74184589809012
 20
4.523175983825373
 30
0.0
 41
1.0
  0
SPLINE
  5
63D
330
1F
100
AcDbEntity
  8
0
100
AcDbSpline
210
0.0
220
0.0
230
1.0
 70
     8
 71
     3
 72
    10
 73
     6
 74
     4
 42
0.0000001
 43
0.0000001
 44
0.0000000001
 40
0.0
 40
0.0
 40
0.0
 40
0.0
 40
0.1253741449840799
 40
0.3102133987536547
 40
0.4661916730883564
 40
0.4661916730883564
 40
0.4661916730883564
 40
0.4661916730883564
 10
4.410961341347921
 20
4.758981336308288
 30
0.0
 10
4.419469648625778
 20
4.717204174925804
 30
0.0
 10
4.440521763626364
 20
4.613834893927829
 30
0.0
 10
4.572323676574165
 20
4.507816586876968
 30
0.0
 10
4.680847825894788
 20
4.475638748946002
 30
0.0
 10
4.730514900322643
 20
4.460912265656802
 30
0.0
 11
4.410961341347921
 21
4.758981336308288
 31
0.0
 11
4.447373185720238
 21
4.639011115753789
 31
0.0
 11
4.584062302699234
 21
4.514585897113854
 31
0.0
 11
4.730514900322643
 21
4.460912265656802
 31
0.0
  0
SPLINE
  5
63E
330
1F
100
AcDbEntity
  8
0
100
AcDbSpline
210
0.0
220
0.0
230
1.0
 70
    12
 71
     3
 72
    12
 73
     8
 74
     0
 42
0.0000000001
 43
0.0000000001
 40
0.0
 40
0.0
 40
0.0
 40
0.0
 40
0.1589169988123904
 40
0.1589169988123904
 40
0.3178339976247808
 40
0.3178339976247808
 40
0.4673295860109093
 40
0.4673295860109093
 40
0.4673295860109093
 40
0.4673295860109093
 10
4.384074806337666
 20
4.73757311893925
 30
0.0
 41
1.0
 10
4.392459646249002
 20
4.701601658518674
 30
0.0
 41
1.0
 10
4.405164866029486
 20
4.642128857003922
 30
0.0
 41
1.0
 10
4.475151342283302
 20
4.54618200052604
 30
0.0
 41
1.0
 10
4.525213702802843
 20
4.510174700674112
 30
0.0
 41
1.0
 10
4.625044685533002
 20
4.46078721401346
 30
0.0
 41
1.0
 10
4.674401724276531
 20
4.446273250343238
 30
0.0
 41
1.0
 10
4.721978898837426
 20
4.432152281674811
 30
0.0
 41
1.0
  0
SPLINE
  5
63F
330
1F
100
AcDbEntity
  8
0
100
AcDbSpline
210
0.0
220
0.0
230
1.0
 70
     8
 71
     3
 72
    15
 73
    11
 74
     9
 42
0.0000001
 43
0.0000001
 44
0.0000000001
 40
0.0
 40
0.0
 40
0.0
 40
0.0
 40
0.1360966075358595
 40
0.2861829914277151
 40
0.4873597724964474
 40
0.7433345612663653
 40
0.8405803950342823
 40
0.9507246712037141
 40
1.168958929382829
 40
1.260149721823728
 40
1.260149721823728
 40
1.260149721823728
 40
1.260149721823728
 10
3.729001513238899
 20
4.753283628230598
 30
0.0
 10
3.755841895963747
 20
4.792483927150229
 30
0.0
 10
3.812281664436579
 20
4.874914040676202
 30
0.0
 10
3.989427991888834
 20
4.889868009898071
 30
0.0
 10
4.182037632862566
 20
4.843215349233287
 30
0.0
 10
4.354081243964786
 20
4.73381639992146
 30
0.0
 10
4.404693038953463
 20
4.584983604941493
 30
0.0
 10
4.50231788652976
 20
4.476589284095001
 30
0.0
 10
4.633731778733988
 20
4.42163674531055
 30
0.0
 10
4.725486330192419
 20
4.374919901267613
 30
0.0
 10
4.752527354313731
 20
4.361151959660827
 30
0.0
 11
3.729001513238899
 21
4.753283628230598
 31
0.0
 11
3.820283699242154
 21
4.854228410667517
 31
0.0
 11
3.967888947612774
 21
4.881405851370808
 31
0.0
 11
4.164048564209445
 21
4.836757200127753
 31
0.0
 11
4.366034671569235
 21
4.67951628649697
 31
0.0
 11
4.408762519189303
 21
4.592160215025242
 31
0.0
 11
4.480622969839285
 21
4.508686643128087
 31
0.0
 11
4.670956035987111
 21
4.401918130102214
 31
0.0
 11
4.752527354313731
 21
4.361151959660827
 31
0.0
  0
SPLINE
  5
640
330
1F
100
AcDbEntity
  8
0
100
AcDbSpline
210
0.0
220
0.0
230
1.0
 70
    12
 71
     3
 72
    24
 73
    20
 74
     0
 42
0.0000000001
 43
0.0000000001
 40
0.0
 40
0.0
 40
0.0
 40
0.0
 40
0.151108434924379
 40
0.151108434924379
 40
0.302216869848758
 40
0.302216869848758
 40
0.453325304773137
 40
0.453325304773137
 40
0.6791180845454686
 40
0.6791180845454686
 40
0.7956951411657495
 40
0.7956951411657495
 40
0.9122721977860303
 40
0.9122721977860303
 40
1.028849254406311
 40
1.028849254406311
 40
1.210422716373305
 40
1.210422716373305
 40
1.260149721823728
 40
1.260149721823728
 40
1.260149721823728
 40
1.260149721823728
 10
3.753755101319161
 20
4.736334885588364
 30
0.0
 41
1.0
 10
3.783556051539426
 20
4.779859084505317
 30
0.0
 41
1.0
 10
3.810016123795525
 20
4.816850312426158
 30
0.0
 41
1.0
 10
3.882013038613233
 20
4.851178737380804
 30
0.0
 41
1.0
 10
3.933549804571628
 20
4.85409519027536
 30
0.0
 41
1.0
 10
4.030687686752086
 20
4.846940790954669
 30
0.0
 41
1.0
 10
4.07643640373441
 20
4.836878948971807
 30
0.0
 41
1.0
 10
4.189824195580637
 20
4.796792198182464
 30
0.0
 41
1.0
 10
4.259323792995693
 20
4.75969784000622
 30
0.0
 41
1.0
 10
4.330090418036685
 20
4.684391054636436
 30
0.0
 41
1.0
 10
4.34539604138016
 20
4.656059484083861
 30
0.0
 41
1.0
 10
4.377702806432059
 20
4.584346694781191
 30
0.0
 41
1.0
 10
4.400958282419763
 20
4.544765086395419
 30
0.0
 41
1.0
 10
4.460354607199512
 20
4.48336086432316
 30
0.0
 41
1.0
 10
4.494728728928477
 20
4.459017987185161
 30
0.0
 41
1.0
 10
4.584869811530814
 20
4.406986238420486
 30
0.0
 41
1.0
 10
4.641112320766737
 20
4.383641008865797
 30
0.0
 41
1.0
 10
4.70948386487503
 20
4.349402633085074
 30
0.0
 41
1.0
 10
4.724169937194037
 20
4.341925465754382
 30
0.0
 41
1.0
 10
4.738915605236532
 20
4.334417706593659
 30
0.0
 41
1.0
  0
SPLINE
  5
641
330
1F
100
AcDbEntity
  8
0
100
AcDbSpline
210
0.0
220
0.0
230
1.0
 70
     8
 71
     3
 72
    16
 73
    12
 74
    10
 42
0.0000001
 43
0.0000001
 44
0.0000000001
 40
0.0
 40
0.0
 40
0.0
 40
0.0
 40
0.0866829601225342
 40
0.2080235926243783
 40
0.3936205243981671
 40
0.5304139882677745
 40
0.6391935054717031
 40
0.7075397189127862
 40
0.9186878202539737
 40
1.070221708768679
 40
1.158786422165894
 40
1.158786422165894
 40
1.158786422165894
 40
1.158786422165894
 10
3.783116770745824
 20
4.594475721446599
 30
0.0
 10
3.808834581260475
 20
4.607692106476291
 30
0.0
 10
3.870552724366433
 20
4.639409065512957
 30
0.0
 10
3.998812355060579
 20
4.674753314393905
 30
0.0
 10
4.14867042440858
 20
4.664629560107594
 30
0.0
 10
4.289429978421804
 20
4.631437373746011
 30
0.0
 10
4.378940744848369
 20
4.56889561899616
 30
0.0
 10
4.44004605443326
 20
4.451877187122958
 30
0.0
 10
4.574677292125007
 20
4.38503845685853
 30
0.0
 10
4.704289587935998
 20
4.30183866081042
 30
0.0
 10
4.785621450937267
 20
4.30125705985535
 30
0.0
 10
4.815622180135229
 20
4.301042525820218
 30
0.0
 11
3.783116770745824
 21
4.594475721446599
 31
0.0
 11
3.861323395778228
 21
4.631861004335001
 31
0.0
 11
3.978444428002948
 21
4.663581863506273
 31
0.0
 11
4.16394903826076
 21
4.657728603137759
 31
0.0
 11
4.295426845258095
 21
4.619965684492385
 31
0.0
 11
4.381934620796549
 21
4.554015793404467
 31
0.0
 11
4.420162403392968
 21
4.497360330036006
 31
0.0
 11
4.590210111570141
 21
4.372191253808371
 31
0.0
 11
4.727302823430694
 21
4.307630369961366
 31
0.0
 11
4.815622180135229
 21
4.301042525820218
 31
0.0
  0
SPLINE
  5
643
330
1F
100
AcDbEntity
  8
0
100
AcDbSpline
210
0.0
220
0.0
230
1.0
 70
    12
 71
     3
 72
    24
 73
    20
 74
     0
 42
0.0000000001
 43
0.0000000001
 40
0.002801760520885
 40
0.002801760520885
 40
0.002801760520885
 40
0.002801760520885
 40
0.1808163105277442
 40
0.1808163105277442
 40
0.3616326210554884
 40
0.3616326210554884
 40
0.5163822801709402
 40
0.5163822801709402
 40
0.622766548079128
 40
0.622766548079128
 40
0.7126163724563254
 40
0.7126163724563254
 40
0.8024661968335227
 40
0.8024661968335227
 40
0.9429706093510679
 40
0.9429706093510679
 40
1.083475021868613
 40
1.083475021868613
 40
1.158786422165894
 40
1.158786422165894
 40
1.158786422165894
 40
1.158786422165894
 10
3.799321250308166
 20
4.569071348679874
 30
0.0
 41
1.0
 10
3.852070033011026
 20
4.596081270679476
 30
0.0
 41
1.0
 10
3.902768099701775
 20
4.618849207406524
 30
0.0
 41
1.0
 10
4.012869122561145
 20
4.640626171538782
 30
0.0
 41
1.0
 10
4.070251548039071
 20
4.639943804888009
 30
0.0
 41
1.0
 10
4.177982253839531
 20
4.626309436483166
 30
0.0
 41
1.0
 10
4.227253183348313
 20
4.616790546854048
 30
0.0
 41
1.0
 10
4.300685799458511
 20
4.585416175072026
 30
0.0
 41
1.0
 10
4.32870216292465
 20
4.567821768273736
 30
0.0
 41
1.0
 10
4.36678200007344
 20
4.52737884411528
 30
0.0
 41
1.0
 10
4.378916758493951
 20
4.501619605256737
 30
0.0
 41
1.0
 10
4.419932019676592
 20
4.448445489907135
 30
0.0
 41
1.0
 10
4.444804027072465
 20
4.427232196750598
 30
0.0
 41
1.0
 10
4.512002920705536
 20
4.380129324131207
 30
0.0
 41
1.0
 10
4.554901444339513
 20
4.358111480091599
 30
0.0
 41
1.0
 10
4.638415660039164
 20
4.309271243359701
 30
0.0
 41
1.0
 10
4.684200872344115
 20
4.283646102485983
 30
0.0
 41
1.0
 10
4.762960526029691
 20
4.27129789961478
 30
0.0
 41
1.0
 10
4.789896402495442
 20
4.271225722811035
 30
0.0
 41
1.0
 10
4.815407656799451
 20
4.271043292834384
 30
0.0
 41
1.0
  0
SPLINE
  5
646
330
1F
100
AcDbEntity
  8
0
100
AcDbSpline
210
0.0
220
0.0
230
1.0
 70
    12
 71
     3
 72
    26
 73
    22
 74
     0
 42
0.0000000001
 43
0.0000000001
 40
0.0
 40
0.0
 40
0.0
 40
0.0
 40
0.2224289479996015
 40
0.2224289479996015
 40
0.4741365153416861
 40
0.4741365153416861
 40
0.7258440826837707
 40
0.7258440826837707
 40
0.9394621793121816
 40
0.9394621793121816
 40
1.120452328092066
 40
1.120452328092066
 40
1.234901242376122
 40
1.234901242376122
 40
1.349350156660178
 40
1.349350156660178
 40
1.528532361330515
 40
1.528532361330515
 40
1.707714566000852
 40
1.707714566000852
 40
1.870585126976527
 40
1.870585126976527
 40
1.870585126976527
 40
1.870585126976527
 10
1.651940493447827
 20
7.089058933526558
 30
0.0
 41
1.0
 10
1.739159263472637
 20
7.062845627201789
 30
0.0
 41
1.0
 10
1.826055807311044
 20
7.036751698166188
 30
0.0
 41
1.0
 10
1.975298958447274
 20
6.966993089220068
 30
0.0
 41
1.0
 10
2.030390883866905
 20
6.920988389503605
 30
0.0
 41
1.0
 10
2.052857197031985
 20
6.798597110014004
 30
0.0
 41
1.0
 10
2.024725790277739
 20
6.721793563305053
 30
0.0
 41
1.0
 10
1.935058648914842
 20
6.576772748043054
 30
0.0
 41
1.0
 10
1.879057132571814
 20
6.508513982370953
 30
0.0
 41
1.0
 10
1.769623096917746
 20
6.392169363504713
 30
0.0
 41
1.0
 10
1.714734706564637
 20
6.343991962760308
 30
0.0
 41
1.0
 10
1.642785912112242
 20
6.27312546285129
 30
0.0
 41
1.0
 10
1.619120928868558
 20
6.244664938745037
 30
0.0
 41
1.0
 10
1.603057727968873
 20
6.176782996438495
 30
0.0
 41
1.0
 10
1.607121776944098
 20
6.140256051392009
 30
0.0
 41
1.0
 10
1.627411032999446
 20
6.039966991116004
 30
0.0
 41
1.0
 10
1.648249081100216
 20
5.973481098567536
 30
0.0
 41
1.0
 10
1.666994122434621
 20
5.846085766129082
 30
0.0
 41
1.0
 10
1.667799391926136
 20
5.782520508148335
 30
0.0
 41
1.0
 10
1.655961219055123
 20
5.665734332378806
 30
0.0
 41
1.0
 10
1.644213972766398
 20
5.611806169743568
 30
0.0
 41
1.0
 10
1.627172706918932
 20
5.56038607183755
 30
0.0
 41
1.0
  0
SPLINE
  5
648
330
1F
100
AcDbEntity
  8
0
100
AcDbSpline
210
0.0
220
0.0
230
1.0
 70
    12
 71
     3
 72
     9
 73
     5
 74
     0
 42
0.0000000001
 43
0.0000000001
 40
0.0
 40
0.0
 40
0.0
 40
0.0
 40
0.0900058407750706
 40
0.0992409319076749
 40
0.0992409319076749
 40
0.0992409319076749
 40
0.0992409319076749
 10
1.247731151121012
 20
5.31225175589447
 30
0.0
 41
1.0
 10
1.226928721491686
 20
5.290301327000553
 30
0.0
 41
1.0
 10
1.203991848900081
 20
5.266098664146158
 30
0.0
 41
1.0
 10
1.186155546562252
 20
5.238496945146643
 30
0.0
 41
1.0
 10
1.184536792334945
 20
5.235901316719319
 30
0.0
 41
1.0
  0
SPLINE
  5
649
330
1F
100
AcDbEntity
  8
0
100
AcDbSpline
210
0.0
220
0.0
230
1.0
 70
    12
 71
     3
 72
     8
 73
     4
 74
     0
 42
0.0000000001
 43
0.0000000001
 40
0.0
 40
0.0
 40
0.0
 40
0.0
 40
0.099698916861081
 40
0.099698916861081
 40
0.099698916861081
 40
0.099698916861081
 10
1.225402510667938
 20
5.330982904217677
 30
0.0
 41
1.0
 10
1.202836778743152
 20
5.308309725997109
 30
0.0
 41
1.0
 10
1.178192759474494
 20
5.281602723302989
 30
0.0
 41
1.0
 10
1.158860049859416
 20
5.251201281395018
 30
0.0
 41
1.0
  0
SPLINE
  5
64A
330
1F
100
AcDbEntity
  8
0
100
AcDbSpline
210
0.0
220
0.0
230
1.0
 70
    12
 71
     3
 72
     8
 73
     4
 74
     0
 42
0.0000000001
 43
0.0000000001
 40
0.0
 40
0.0
 40
0.0
 40
0.0
 40
0.1095285688934833
 40
0.1095285688934833
 40
0.1095285688934833
 40
0.1095285688934833
 10
1.200184269860825
 20
5.352138093214263
 30
0.0
 41
1.0
 10
1.173996109034598
 20
5.325972794168425
 30
0.0
 41
1.0
 10
1.147807948208372
 20
5.299807495122586
 30
0.0
 41
1.0
 10
1.127829107702931
 20
5.269691645556374
 30
0.0
 41
1.0
  0
SPLINE
  5
64B
330
1F
100
AcDbEntity
  8
0
100
AcDbSpline
210
0.0
220
0.0
230
1.0
 70
    12
 71
     3
 72
     8
 73
     4
 74
     0
 42
0.0000000001
 43
0.0000000001
 40
0.0
 40
0.0
 40
0.0
 40
0.0
 40
0.110718618673243
 40
0.110718618673243
 40
0.110718618673243
 40
0.110718618673243
 10
1.177896034501256
 20
5.370835346330364
 30
0.0
 41
1.0
 10
1.152380787395737
 20
5.346615561695965
 30
0.0
 41
1.0
 10
1.12417454776559
 20
5.318690472285104
 30
0.0
 41
1.0
 10
1.102045876896394
 20
5.2850550632782
 30
0.0
 41
1.0
  0
LINE
  5
650
330
1F
100
AcDbEntity
  8
0
100
AcDbLine
 10
0.4642853394756374
 20
4.559177590682287
 30
0.0
 11
0.42373111297983
 21
4.554626658834552
 31
0.0
  0
LINE
  5
651
330
1F
100
AcDbEntity
  8
0
100
AcDbLine
 10
0.4195199569526316
 20
4.592153077829658
 30
0.0
 11
0.4237311129798307
 21
4.554626658834554
 31
0.0
  0
LINE
  5
652
330
1F
100
AcDbEntity
  8
0
100
AcDbLine
 10
0.4899255986528148
 20
4.538711332721772
 30
0.0
 11
0.4668723400839709
 21
4.536124332113443
 31
0.0
  0
LINE
  5
653
330
1F
100
AcDbEntity
  8
0
100
AcDbLine
 10
0.4574871828401106
 20
4.619757268246238
 30
0.0
 11
0.4668723400839709
 21
4.536124332113443
 31
0.0
  0
LINE
  5
654
330
1F
100
AcDbEntity
  8
0
100
AcDbLine
 10
0.4153882411681803
 20
4.701336161535327
 30
0.0
 11
0.3469904671968903
 21
4.750369759184863
 31
0.0
  0
LINE
  5
655
330
1F
100
AcDbEntity
  8
0
100
AcDbLine
 10
0.4018722239452457
 20
4.682482446219271
 30
0.0
 11
0.3334744499739557
 21
4.731516043868808
 31
0.0
  0
LINE
  5
656
330
1F
100
AcDbEntity
  8
0
100
AcDbLine
 10
0.3830185086291895
 20
4.695998463442204
 30
0.0
 11
0.3592417561087933
 21
4.662831879250585
 31
0.0
  0
LINE
  5
657
330
1F
100
AcDbEntity
  8
0
100
AcDbLine
 10
0.4153882411681803
 20
4.701336161535327
 30
0.0
 11
0.4018722239452457
 21
4.682482446219271
 31
0.0
  0
LINE
  5
658
330
1F
100
AcDbEntity
  8
0
100
AcDbLine
 10
0.3469904671968903
 20
4.750369759184863
 30
0.0
 11
0.3334744499739557
 21
4.731516043868808
 31
0.0
  0
LINE
  5
659
330
1F
100
AcDbEntity
  8
0
100
AcDbLine
 10
0.3592417561087933
 20
4.662831879250585
 30
0.0
 11
0.3285514127696154
 21
4.684833442454251
 31
0.0
  0
LINE
  5
65A
330
1F
100
AcDbEntity
  8
0
100
AcDbLine
 10
0.3523281652900117
 20
4.718000026645871
 30
0.0
 11
0.3285514127696136
 21
4.684833442454252
 31
0.0
  0
LINE
  5
65B
330
1F
100
AcDbEntity
  8
0
100
AcDbLine
 10
0.4600741834484385
 20
4.596704009677394
 30
0.0
 11
0.4195199569526316
 21
4.592153077829658
 31
0.0
  0
LINE
  5
65C
330
1F
100
AcDbEntity
  8
0
100
AcDbLine
 10
0.4805404414089556
 20
4.622344268854569
 30
0.0
 11
0.4574871828401106
 21
4.619757268246238
 31
0.0
  0
LINE
  5
65D
330
1F
100
AcDbEntity
  8
0
100
AcDbLine
 10
0.4805404414089556
 20
4.622344268854569
 30
0.0
 11
0.4899255986528148
 21
4.538711332721772
 31
0.0
  0
SPLINE
  5
65E
330
1F
100
AcDbEntity
  8
0
100
AcDbSpline
210
0.0
220
0.0
230
1.0
 70
     8
 71
     3
 72
    11
 73
     7
 74
     5
 42
0.0000001
 43
0.0000001
 44
0.0000000001
 40
0.0
 40
0.0
 40
0.0
 40
0.0
 40
0.2337879289694277
 40
0.3988137567006685
 40
0.7307248485275847
 40
0.9056167546916949
 40
0.9056167546916949
 40
0.9056167546916949
 40
0.9056167546916949
 10
0.9387198283956637
 20
5.070636379258874
 30
0.0
 10
0.8934170654508182
 20
5.007160802109285
 30
0.0
 10
0.8161360648508412
 20
4.89887919196216
 30
0.0
 10
0.7945199510052326
 20
4.625760295708465
 30
0.0
 10
1.057905564752142
 20
4.534718261983822
 30
0.0
 10
1.212264795073797
 20
4.48061060614323
 30
0.0
 10
1.265532396354754
 20
4.461938674237651
 30
0.0
 11
0.9387198283956637
 21
5.070636379258874
 31
0.0
 11
0.8253142635821007
 21
4.866195743373709
 31
0.0
 11
0.8225629008118247
 21
4.701192853031486
 31
0.0
 11
1.100450600295368
 21
4.519689686796074
 31
0.0
 11
1.265532396354754
 21
4.461938674237651
 31
0.0
  0
SPLINE
  5
65F
330
1F
100
AcDbEntity
  8
0
100
AcDbSpline
210
0.0
220
0.0
230
1.0
 70
    12
 71
     3
 72
    16
 73
    12
 74
     0
 42
0.0000000001
 43
0.0000000001
 40
0.0
 40
0.0
 40
0.0
 40
0.0
 40
0.2090259107852704
 40
0.2090259107852704
 40
0.3790422608913157
 40
0.3790422608913157
 40
0.5490586109973609
 40
0.5490586109973609
 40
0.7190749611034061
 40
0.7190749611034061
 40
0.9056167546916949
 40
0.9056167546916949
 40
0.9056167546916949
 40
0.9056167546916949
 10
0.9078012866967399
 20
5.084203886149478
 30
0.0
 41
1.0
 10
0.8737966565666943
 20
5.031311654283849
 30
0.0
 41
1.0
 10
0.8313284805931433
 20
4.972336173236272
 30
0.0
 41
1.0
 10
0.7837937018428485
 20
4.842375284147658
 30
0.0
 41
1.0
 10
0.7724107492125257
 20
4.773846762307776
 30
0.0
 41
1.0
 10
0.8033528935326053
 20
4.650003987916672
 30
0.0
 41
1.0
 10
0.8497483968474778
 20
4.603640281810411
 30
0.0
 41
1.0
 10
0.9578841995583832
 20
4.538115038124037
 30
0.0
 41
1.0
 10
1.021065017551406
 20
4.515633328481674
 30
0.0
 41
1.0
 10
1.142133060889123
 20
4.47334820453976
 30
0.0
 41
1.0
 10
1.198792639582721
 20
4.453543317182531
 30
0.0
 41
1.0
 10
1.255608498595495
 20
4.43362761185448
 30
0.0
 41
1.0
  0
SPLINE
  5
660
330
1F
100
AcDbEntity
  8
0
100
AcDbSpline
210
0.0
220
0.0
230
1.0
 70
     8
 71
     3
 72
    14
 73
    10
 74
     8
 42
0.0000001
 43
0.0000001
 44
0.0000000001
 40
0.0
 40
0.0
 40
0.0
 40
0.0
 40
0.0510186803854728
 40
0.1276235859850374
 40
0.3084083794233354
 40
0.4995635392294074
 40
0.779015146294022
 40
1.030309088002488
 40
1.07963645681914
 40
1.07963645681914
 40
1.07963645681914
 40
1.07963645681914
 10
0.8756214763476775
 20
5.09832485611309
 30
0.0
 10
0.8703602576983398
 20
5.082052843687268
 30
0.0
 10
0.8571992824318955
 20
5.041348290741444
 30
0.0
 10
0.7930706526446832
 20
4.958839574409375
 30
0.0
 10
0.7460852734549387
 20
4.817088119517515
 30
0.0
 10
0.750533397968655
 20
4.572244177974329
 30
0.0
 10
1.017328857675425
 20
4.483947364927175
 30
0.0
 10
1.18262288737391
 20
4.400586099728526
 30
0.0
 10
1.278912316507513
 20
4.371679622864571
 30
0.0
 10
1.294711942208437
 20
4.366936511197046
 30
0.0
 11
0.8756214763476775
 21
5.09832485611309
 31
0.0
 11
0.8577001863408675
 21
5.050557365988876
 31
0.0
 11
0.8170857207621509
 21
4.985605254801683
 31
0.0
 11
0.7569762854439333
 21
4.815105995787889
 31
0.0
 11
0.7780958111260077
 21
4.625121099663357
 31
0.0
 11
1.015284350985148
 21
4.477355077687786
 31
0.0
 11
1.247599163330843
 21
4.381550729643649
 31
0.0
 11
1.294711942208437
 21
4.366936511197046
 31
0.0
  0
SPLINE
  5
661
330
1F
100
AcDbEntity
  8
0
100
AcDbSpline
210
0.0
220
0.0
230
1.0
 70
    12
 71
     3
 72
    24
 73
    20
 74
     0
 42
0.0000000001
 43
0.0000000001
 40
0.0
 40
0.0
 40
0.0
 40
0.0
 40
0.0894544092150448
 40
0.0894544092150448
 40
0.1789088184300896
 40
0.1789088184300896
 40
0.2683632276451344
 40
0.2683632276451344
 40
0.4472720460752241
 40
0.4472720460752241
 40
0.5765291868524393
 40
0.5765291868524393
 40
0.7057863276296544
 40
0.7057863276296544
 40
0.8886331437056794
 40
0.8886331437056794
 40
1.071479959781704
 40
1.071479959781704
 40
1.079636456819141
 40
1.079636456819141
 40
1.079636456819141
 40
1.079636456819141
 10
0.8441257612040639
 20
5.112145635126097
 30
0.0
 41
1.0
 10
0.8362331405171375
 20
5.080470075269311
 30
0.0
 41
1.0
 10
0.8270006837800317
 20
5.057117445003531
 30
0.0
 41
1.0
 10
0.7974026497529496
 20
5.010151499350184
 30
0.0
 41
1.0
 10
0.7788599167780335
 20
4.9821821614194
 30
0.0
 41
1.0
 10
0.7523865487188598
 20
4.924281831637521
 30
0.0
 41
1.0
 10
0.7424273024514746
 20
4.893928359957809
 30
0.0
 41
1.0
 10
0.7209551892034778
 20
4.799434527523656
 30
0.0
 41
1.0
 10
0.714546469615144
 20
4.729076856453672
 30
0.0
 41
1.0
 10
0.7425209267292798
 20
4.617858666944347
 30
0.0
 41
1.0
 10
0.7705825663153875
 20
4.576520036526926
 30
0.0
 41
1.0
 10
0.8437133599227251
 20
4.518091610095249
 30
0.0
 41
1.0
 10
0.8873873983013321
 20
4.497522178260218
 30
0.0
 41
1.0
 10
0.9927175336798668
 20
4.453293707863227
 30
0.0
 41
1.0
 10
1.050099633160643
 20
4.429961539821575
 30
0.0
 41
1.0
 10
1.161562507060947
 20
4.381113555609582
 30
0.0
 41
1.0
 10
1.219370214262218
 20
4.358281836460702
 30
0.0
 41
1.0
 10
1.280853895134648
 20
4.339774071072083
 30
0.0
 41
1.0
 10
1.283473589328651
 20
4.338987631178505
 30
0.0
 41
1.0
 10
1.286086126816738
 20
4.338203336836592
 30
0.0
 41
1.0
  0
SPLINE
  5
662
330
1F
100
AcDbEntity
  8
0
100
AcDbSpline
210
0.0
220
0.0
230
1.0
 70
     8
 71
     3
 72
    16
 73
    12
 74
    10
 42
0.0000001
 43
0.0000001
 44
0.0000000001
 40
0.0
 40
0.0
 40
0.0
 40
0.0
 40
0.1040541444551967
 40
0.1414493041017095
 40
0.2051267805649592
 40
0.3192704013120007
 40
0.5484817605084182
 40
0.7081930151876681
 40
0.9854644330966429
 40
1.183564971017192
 40
1.291110328375707
 40
1.291110328375707
 40
1.291110328375707
 40
1.291110328375707
 10
0.3678808872306298
 20
4.736529786709578
 30
0.0
 10
0.3868269378531064
 20
4.765605062657736
 30
0.0
 10
0.4125818531431838
 20
4.805129461911269
 30
0.0
 10
0.4574952731010554
 20
4.857156625318044
 30
0.0
 10
0.5286135652338306
 20
4.887103916880369
 30
0.0
 10
0.6700118476064418
 20
4.813094777530082
 30
0.0
 10
0.6664129277312332
 20
4.619397727834643
 30
0.0
 10
0.845821361881613
 20
4.468808481166861
 30
0.0
 10
1.041337407460041
 20
4.39073462415994
 30
0.0
 10
1.225375589796595
 20
4.325127555714499
 30
0.0
 10
1.326056667922473
 20
4.308754007105013
 30
0.0
 10
1.361482573172736
 20
4.302992767829
 30
0.0
 11
0.3678808872306298
 21
4.736529786709578
 31
0.0
 11
0.4275416947867612
 21
4.821781490622481
 31
0.0
 11
0.4532832532742788
 21
4.848906573693725
 31
0.0
 11
0.5123232397478112
 21
4.872762411678018
 31
0.0
 11
0.6165854000311768
 21
4.826306323914515
 31
0.0
 11
0.7032611610464343
 21
4.614114996011853
 31
0.0
 11
0.8164125552975499
 21
4.501400991335199
 31
0.0
 11
1.066982067989258
 21
4.382681327847244
 31
0.0
 11
1.255722718958147
 21
4.322508328950306
 31
0.0
 11
1.361482573172736
 21
4.302992767829
 31
0.0
  0
SPLINE
  5
664
330
1F
100
AcDbEntity
  8
0
100
AcDbSpline
210
0.0
220
0.0
230
1.0
 70
    12
 71
     3
 72
    22
 73
    18
 74
     0
 42
0.0000000001
 43
0.0000000001
 40
0.0
 40
0.0
 40
0.0
 40
0.0
 40
0.1912090118764324
 40
0.1912090118764324
 40
0.2974506490981873
 40
0.2974506490981873
 40
0.4036922863199421
 40
0.4036922863199421
 40
0.537549901956434
 40
0.537549901956434
 40
0.6714075175929259
 40
0.6714075175929259
 40
0.8052651332294178
 40
0.8052651332294178
 40
1.07922210310133
 40
1.07922210310133
 40
1.291110328375707
 40
1.291110328375707
 40
1.291110328375707
 40
1.291110328375707
 10
0.3930155659451894
 20
4.720151510673443
 30
0.0
 41
1.0
 10
0.4278306676160744
 20
4.773579990751672
 30
0.0
 41
1.0
 10
0.4601469408069404
 20
4.831654143132164
 30
0.0
 41
1.0
 10
0.529587904429284
 20
4.846853977008875
 30
0.0
 41
1.0
 10
0.558128954348403
 20
4.837126555104003
 30
0.0
 41
1.0
 10
0.6044947964798225
 20
4.799589639022647
 30
0.0
 41
1.0
 10
0.6181300733505197
 20
4.774533123485682
 30
0.0
 41
1.0
 10
0.6423444274346491
 20
4.704098514365983
 30
0.0
 41
1.0
 10
0.6498782773810883
 20
4.656429611097184
 30
0.0
 41
1.0
 10
0.6926331612508649
 20
4.565630469131754
 30
0.0
 41
1.0
 10
0.728895251182709
 20
4.528788803851244
 30
0.0
 41
1.0
 10
0.8060974302383186
 20
4.469903346684473
 30
0.0
 41
1.0
 10
0.8465908928751875
 20
4.446382926522098
 30
0.0
 41
1.0
 10
0.971917013653676
 20
4.383391164806872
 30
0.0
 41
1.0
 10
1.057508087029753
 20
4.351993758696278
 30
0.0
 41
1.0
 10
1.214379040687429
 20
4.299907224018077
 30
0.0
 41
1.0
 10
1.286870105732072
 20
4.284732705607937
 30
0.0
 41
1.0
 10
1.356667002377207
 20
4.273381785442168
 30
0.0
 41
1.0
  0
SPLINE
  5
665
330
1F
100
AcDbEntity
  8
0
100
AcDbSpline
210
0.0
220
0.0
230
1.0
 70
     8
 71
     3
 72
    16
 73
    12
 74
    10
 42
0.0000001
 43
0.0000001
 44
0.0000000001
 40
0.0
 40
0.0
 40
0.0
 40
0.0
 40
0.049135262965018
 40
0.1158187433456597
 40
0.1934083968137589
 40
0.2707145853572107
 40
0.4154120146359471
 40
0.5937081021272025
 40
0.8066181489026418
 40
1.000765567425688
 40
1.048161975279646
 40
1.048161975279646
 40
1.048161975279646
 40
1.048161975279646
 10
0.4834313194093944
 20
4.59779257462063
 30
0.0
 10
0.4996783005615519
 20
4.599197836344874
 30
0.0
 10
0.5379747261152968
 20
4.602510236384119
 30
0.0
 10
0.6042438541221556
 20
4.603875201718172
 30
0.0
 10
0.6693243065987187
 20
4.562263345044398
 30
0.0
 10
0.7374665718120558
 20
4.489931649364156
 30
0.0
 10
0.8466768599336654
 20
4.410973021944831
 30
0.0
 10
1.014983565611796
 20
4.341745443487953
 30
0.0
 10
1.194305734804987
 20
4.296589413564096
 30
0.0
 10
1.356688888002547
 20
4.215654538346687
 30
0.0
 10
1.423713050963579
 20
4.264308510645949
 30
0.0
 10
1.43686472042009
 20
4.273855529708285
 30
0.0
 11
0.4834313194093944
 21
4.59779257462063
 31
0.0
 11
0.5324219902950418
 21
4.60155930169007
 31
0.0
 11
0.5989990007630688
 21
4.59779257462063
 31
0.0
 11
0.666832216713523
 21
4.560125491655278
 31
0.0
 11
0.7233598817508025
 21
4.507391537957979
 31
0.0
 11
0.8401837387440381
 21
4.422012779024044
 31
0.0
 11
1.00348588550094
 21
4.350445302616972
 31
0.0
 11
1.205729357712737
 21
4.283900085165712
 31
0.0
 11
1.396667249168498
 21
4.248744122291811
 31
0.0
 11
1.43686472042009
 21
4.273855529708285
 31
0.0
  0
SPLINE
  5
666
330
1F
100
AcDbEntity
  8
0
100
AcDbSpline
210
0.0
220
0.0
230
1.0
 70
    12
 71
     3
 72
    24
 73
    20
 74
     0
 42
0.0000000001
 43
0.0000000001
 40
0.0
 40
0.0
 40
0.0
 40
0.0
 40
0.1080218605894825
 40
0.1080218605894825
 40
0.2160437211789649
 40
0.2160437211789649
 40
0.3240655817684474
 40
0.3240655817684474
 40
0.4320874423579299
 40
0.4320874423579299
 40
0.6481311635368948
 40
0.6481311635368948
 40
0.8095421594866448
 40
0.8095421594866448
 40
0.9181448149752727
 40
0.9181448149752727
 40
0.9941983544202366
 40
0.9941983544202366
 40
1.048161975279646
 40
1.048161975279646
 40
1.048161975279646
 40
1.048161975279646
 10
0.4860164788179106
 20
4.567904166318538
 30
0.0
 41
1.0
 10
0.5217348005915816
 20
4.570993576589447
 30
0.0
 41
1.0
 10
0.5586370524778196
 20
4.575301143558196
 30
0.0
 41
1.0
 10
0.6128501146464229
 20
4.564788274425164
 30
0.0
 41
1.0
 10
0.6385304070865899
 20
4.546232258327845
 30
0.0
 41
1.0
 10
0.6886687952903641
 20
4.499898548555651
 30
0.0
 41
1.0
 10
0.7157186108167274
 20
4.472391479596515
 30
0.0
 41
1.0
 10
0.7754043810928793
 20
4.426060034341366
 30
0.0
 41
1.0
 10
0.8073579905438188
 20
4.405442196065911
 30
0.0
 41
1.0
 10
0.9070202219698335
 20
4.351499186490571
 30
0.0
 41
1.0
 10
0.9776746322869074
 20
4.326422722995233
 30
0.0
 41
1.0
 10
1.095711400950733
 20
4.289809836977941
 30
0.0
 41
1.0
 10
1.145159509226523
 20
4.275499385768391
 30
0.0
 41
1.0
 10
1.232998781050882
 20
4.240935577793653
 30
0.0
 41
1.0
 10
1.271724240709421
 20
4.22323237920502
 30
0.0
 41
1.0
 10
1.34101749282806
 20
4.208880118566627
 30
0.0
 41
1.0
 10
1.371444872966877
 20
4.207606163818713
 30
0.0
 41
1.0
 10
1.421941981863111
 20
4.225728379886258
 30
0.0
 41
1.0
 10
1.43951437967537
 20
4.23870795182122
 30
0.0
 41
1.0
 10
1.454488335220826
 20
4.249577799143933
 30
0.0
 41
1.0
  0
SPLINE
  5
673
330
1F
100
AcDbEntity
  8
0
100
AcDbSpline
210
0.0
220
0.0
230
1.0
 70
     8
 71
     3
 72
    14
 73
    10
 74
     8
 42
0.0000001
 43
0.0000001
 44
0.0000000001
 40
0.0
 40
0.0
 40
0.0
 40
0.0
 40
0.1894756882014832
 40
0.4004225349037947
 40
0.9825498374629162
 40
1.512946902129822
 40
1.841409081395361
 40
2.142825693432777
 40
2.267315778885992
 40
2.267315778885992
 40
2.267315778885992
 40
2.267315778885992
 10
10.07536694799808
 20
6.267250176433253
 30
0.0
 10
10.06978164284357
 20
6.203956322031816
 30
0.0
 10
10.05797811243074
 20
6.070196229305275
 30
0.0
 10
9.895102093149292
 20
5.770849347795084
 30
0.0
 10
10.09977452667106
 20
5.313627958013706
 30
0.0
 10
10.01225495327024
 20
4.852208516087115
 30
0.0
 10
9.896753316602267
 20
4.439426437281336
 30
0.0
 10
9.599926189008192
 20
4.394212227595094
 30
0.0
 10
9.467955979870368
 20
4.444119239501985
 30
0.0
 10
9.429381844479579
 20
4.458706772906858
 30
0.0
 11
10.07536694799808
 21
6.267250176433253
 31
0.0
 11
10.04639146810381
 21
6.08000312576403
 31
0.0
 11
9.974610460449313
 21
5.881644715118668
 31
0.0
 11
10.04216905588883
 21
5.30345094779927
 31
0.0
 11
9.987277697094228
 21
4.775901912223475
 31
0.0
 11
9.843715741467648
 21
4.480474479332521
 31
0.0
 11
9.548147005784557
 21
4.421388977736839
 31
0.0
 11
9.429381844479579
 21
4.458706772906858
 31
0.0
  0
SPLINE
  5
676
330
1F
100
AcDbEntity
  8
0
100
AcDbSpline
210
0.0
220
0.0
230
1.0
 70
    12
 71
     3
 72
    26
 73
    22
 74
     0
 42
0.0000000001
 43
0.0000000001
 40
0.0
 40
0.0
 40
0.0
 40
0.0
 40
0.2147918298275602
 40
0.2147918298275602
 40
0.4295836596551204
 40
0.4295836596551204
 40
0.6443754894826805
 40
0.6443754894826805
 40
0.9455214466627605
 40
0.9455214466627605
 40
1.354877889762544
 40
1.354877889762544
 40
1.582979526615397
 40
1.582979526615397
 40
1.811081163468249
 40
1.811081163468249
 40
2.039182800321101
 40
2.039182800321101
 40
2.201468489658688
 40
2.201468489658688
 40
2.267315778885993
 40
2.267315778885993
 40
2.267315778885993
 40
2.267315778885993
 10
10.10920216405275
 20
6.269992260267526
 30
0.0
 41
1.0
 10
10.10291725959305
 20
6.203378808108367
 30
0.0
 41
1.0
 10
10.09546404422653
 20
6.127470179144555
 30
0.0
 41
1.0
 10
10.04638407964856
 20
5.984742904318733
 30
0.0
 41
1.0
 10
10.0135328119575
 20
5.92203142566889
 30
0.0
 41
1.0
 10
9.990586972117534
 20
5.795740147361717
 30
0.0
 41
1.0
 10
9.994876905287914
 20
5.728895325303143
 30
0.0
 41
1.0
 10
10.02270971147089
 20
5.561830279455837
 30
0.0
 41
1.0
 10
10.05335618756421
 20
5.459663679884788
 30
0.0
 41
1.0
 10
10.09344245303933
 20
5.215866405805368
 30
0.0
 41
1.0
 10
10.08275960356575
 20
5.078292185730833
 30
0.0
 41
1.0
 10
10.04169657255661
 20
4.8632880143328
 30
0.0
 41
1.0
 10
10.02390969744431
 20
4.785424835599433
 30
0.0
 41
1.0
 10
9.978387036866106
 20
4.626240455622527
 30
0.0
 41
1.0
 10
9.94812319612563
 20
4.546881721985949
 30
0.0
 41
1.0
 10
9.832360080321752
 20
4.429653399335924
 30
0.0
 41
1.0
 10
9.746191845297306
 20
4.39897834311082
 30
0.0
 41
1.0
 10
9.598742670507344
 20
4.389448604506996
 30
0.0
 41
1.0
 10
9.53695865450575
 20
4.399325665349981
 30
0.0
 41
1.0
 10
9.461355109426169
 20
4.423841567502172
 30
0.0
 41
1.0
 10
9.440471782179154
 20
4.431751819787904
 30
0.0
 41
1.0
 10
9.420068532872005
 20
4.43946769151959
 30
0.0
 41
1.0
  0
SPLINE
  5
678
330
1F
100
AcDbEntity
  8
0
100
AcDbSpline
210
0.0
220
0.0
230
1.0
 70
     8
 71
     3
 72
    19
 73
    15
 74
    13
 42
0.0000001
 43
0.0000001
 44
0.0000000001
 40
0.0
 40
0.0
 40
0.0
 40
0.0
 40
0.0664524645331263
 40
0.1844907171933814
 40
0.3320509385189909
 40
0.6793313473365034
 40
0.9888079145458527
 40
1.263956613671558
 40
1.612026021559201
 40
1.84262071602483
 40
1.990663834715938
 40
2.145889429758906
 40
2.327823889584065
 40
2.399055332977033
 40
2.399055332977033
 40
2.399055332977033
 40
2.399055332977033
 10
9.493116004345167
 20
6.187539570566828
 30
0.0
 10
9.482442310493662
 20
6.168141127712429
 30
0.0
 10
9.452809136651254
 20
6.114285598654383
 30
0.0
 10
9.439955715617348
 20
5.995917585457645
 30
0.0
 10
9.566114479170883
 20
5.821262805541757
 30
0.0
 10
9.784401393938147
 20
5.671150207801894
 30
0.0
 10
9.980083984561224
 20
5.411955136822806
 30
0.0
 10
10.0102850005258
 20
5.092819816954309
 30
0.0
 10
9.97196613308357
 20
4.814533238201696
 30
0.0
 10
9.921527416473417
 20
4.568645716266271
 30
0.0
 10
9.777276615763713
 20
4.443195125211543
 30
0.0
 10
9.606433290392175
 20
4.438364170583837
 30
0.0
 10
9.47873918168876
 20
4.486155930261609
 30
0.0
 10
9.39903276113121
 20
4.513839690846228
 30
0.0
 10
9.376606347021607
 20
4.521628868614329
 30
0.0
 11
9.493116004345167
 21
6.187539570566828
 31
0.0
 11
9.464012989453593
 21
6.127798926389289
 31
0.0
 11
9.45392761452095
 21
6.010192318141478
 31
0.0
 11
9.527887090376083
 21
5.882505142399758
 31
0.0
 11
9.783383553748493
 21
5.647291963447877
 31
0.0
 11
9.9581968982949
 21
5.391917649508159
 31
0.0
 11
9.998538457707895
 21
5.119742402259817
 31
0.0
 11
9.96155868993911
 21
4.773642980874833
 31
0.0
 11
9.887599214083977
 21
4.555230735231575
 31
0.0
 11
9.77329817881585
 21
4.461145463650823
 31
0.0
 11
9.618655584134729
 21
4.447704732021414
 31
0.0
 11
9.443842239588307
 21
4.498107531947277
 31
0.0
 11
9.376606347021607
 21
4.521628868614329
 31
0.0
  0
SPLINE
  5
679
330
1F
100
AcDbEntity
  8
0
100
AcDbSpline
210
0.0
220
0.0
230
1.0
 70
    12
 71
     3
 72
    30
 73
    26
 74
     0
 42
0.0000000001
 43
0.0000000001
 40
0.0
 40
0.0
 40
0.0
 40
0.0
 40
0.1105045475566499
 40
0.1105045475566499
 40
0.2210090951132999
 40
0.2210090951132999
 40
0.3315136426699498
 40
0.3315136426699498
 40
0.6099448336317912
 40
0.6099448336317912
 40
0.9176842454771356
 40
0.9176842454771356
 40
1.22542365732248
 40
1.22542365732248
 40
1.533163069167824
 40
1.533163069167824
 40
1.840902481013169
 40
1.840902481013169
 40
2.023994675824785
 40
2.023994675824785
 40
2.207086870636402
 40
2.207086870636402
 40
2.390179065448018
 40
2.390179065448018
 40
2.399055332977033
 40
2.399055332977033
 40
2.399055332977033
 40
2.399055332977033
 10
9.463668538865587
 20
6.204143025379226
 30
0.0
 41
1.0
 10
9.447330467659228
 20
6.17070813149373
 30
0.0
 41
1.0
 10
9.427871829907925
 20
6.132016470623745
 30
0.0
 41
1.0
 10
9.414195116171918
 20
6.047300784732058
 30
0.0
 41
1.0
 10
9.41906704407079
 20
6.001923457316802
 30
0.0
 41
1.0
 10
9.45208022049999
 20
5.92435968657293
 30
0.0
 41
1.0
 10
9.477549194198382
 20
5.891256414656281
 30
0.0
 41
1.0
 10
9.568904906353502
 20
5.787484109039824
 30
0.0
 41
1.0
 10
9.643181960076465
 20
5.730913909183491
 30
0.0
 41
1.0
 10
9.786583548199113
 20
5.603880249140679
 30
0.0
 41
1.0
 10
9.855402782489948
 20
5.528107958887105
 30
0.0
 41
1.0
 10
9.946134820005753
 20
5.355686337366339
 30
0.0
 41
1.0
 10
9.963529319537269
 20
5.25829871337563
 30
0.0
 41
1.0
 10
9.968790178091647
 20
5.057139527408181
 30
0.0
 41
1.0
 10
9.95881110931162
 20
4.957798759665393
 30
0.0
 41
1.0
 10
9.92747287573253
 20
4.756422045161662
 30
0.0
 41
1.0
 10
9.91412723231776
 20
4.650334712057761
 30
0.0
 41
1.0
 10
9.831319198086824
 20
4.529819899257347
 30
0.0
 41
1.0
 10
9.785754723528328
 20
4.494584384281956
 30
0.0
 41
1.0
 10
9.68222414032525
 20
4.469677533138634
 30
0.0
 41
1.0
 10
9.622930231488015
 20
4.476213552885983
 30
0.0
 41
1.0
 10
9.510614070829813
 20
4.506268403181286
 30
0.0
 41
1.0
 10
9.453178392290653
 20
4.528901847221061
 30
0.0
 41
1.0
 10
9.3926956376854
 20
4.549915885381997
 30
0.0
 41
1.0
 10
9.38989999396808
 20
4.550886872736724
 30
0.0
 41
1.0
 10
9.387105401553953
 20
4.55185749501261
 30
0.0
 41
1.0
  0
SPLINE
  5
67B
330
1F
100
AcDbEntity
  8
0
100
AcDbSpline
210
0.0
220
0.0
230
1.0
 70
     8
 71
     3
 72
    19
 73
    15
 74
    13
 42
0.0000001
 43
0.0000001
 44
0.0000000001
 40
0.0
 40
0.0
 40
0.0
 40
0.0
 40
0.17125362462848
 40
0.4509115120595294
 40
0.7570755826284595
 40
1.131180626981729
 40
1.421294335336672
 40
1.720678267690706
 40
1.997729899857941
 40
2.112393931154464
 40
2.24230664890599
 40
2.331399002889126
 40
2.533968429784085
 40
2.717622018082596
 40
2.717622018082596
 40
2.717622018082596
 40
2.717622018082596
 10
8.863670298148987
 20
6.233379343465607
 30
0.0
 10
8.88953453527698
 20
6.181939538869669
 30
0.0
 10
8.957635180136034
 20
6.046498317577448
 30
0.0
 10
9.165040647053868
 20
5.888782868946315
 30
0.0
 10
9.446383044017455
 20
5.741202991708191
 30
0.0
 10
9.730794167126822
 20
5.582101708790781
 30
0.0
 10
9.93585450914994
 20
5.312169962394533
 30
0.0
 10
9.936980109617267
 20
5.012337171990497
 30
0.0
 10
9.912126014482196
 20
4.784924508053349
 30
0.0
 10
9.87422410833943
 20
4.614802184551444
 30
0.0
 10
9.798107589326948
 20
4.51971807821189
 30
0.0
 10
9.652683404715102
 20
4.495802772631431
 30
0.0
 10
9.502361184418595
 20
4.557715626523927
 30
0.0
 10
9.376292259538165
 20
4.582625393959391
 30
0.0
 10
9.316345002341109
 20
4.594470281480952
 30
0.0
 11
8.863670298148987
 21
6.233379343465607
 31
0.0
 11
8.949258339133607
 21
6.085046976165657
 31
0.0
 11
9.160333173462035
 21
5.901591400301569
 31
0.0
 11
9.426471013239848
 21
5.750240522055897
 31
0.0
 11
9.73849467099798
 21
5.543852971051002
 31
0.0
 11
9.903683687346074
 21
5.305360722427686
 31
0.0
 11
9.931215190070759
 21
5.007245383490748
 31
0.0
 11
9.899095063770346
 21
4.732061982150888
 31
0.0
 11
9.866974997152354
 21
4.62198863663243
 31
0.0
 11
9.779791925084993
 21
4.525674431145987
 31
0.0
 11
9.692608853017646
 21
4.50732887355958
 31
0.0
 11
9.495299770051545
 21
4.553192786297465
 31
0.0
 11
9.316345002341109
 21
4.594470281480952
 31
0.0
  0
SPLINE
  5
67D
330
1F
100
AcDbEntity
  8
0
100
AcDbSpline
210
0.0
220
0.0
230
1.0
 70
    12
 71
     3
 72
    32
 73
    28
 74
     0
 42
0.0000000001
 43
0.0000000001
 40
0.0
 40
0.0
 40
0.0
 40
0.0
 40
0.2104096322595738
 40
0.2104096322595738
 40
0.4208192645191475
 40
0.4208192645191475
 40
0.9038687747503478
 40
0.9038687747503478
 40
1.213353619991078
 40
1.213353619991078
 40
1.45785320608788
 40
1.45785320608788
 40
1.702352792184682
 40
1.702352792184682
 40
1.964430562691657
 40
1.964430562691657
 40
2.153406710889293
 40
2.153406710889293
 40
2.290947305051896
 40
2.290947305051896
 40
2.4284878992145
 40
2.4284878992145
 40
2.566028493377103
 40
2.566028493377103
 40
2.703569087539707
 40
2.703569087539707
 40
2.717622018082596
 40
2.717622018082596
 40
2.717622018082596
 40
2.717622018082596
 10
8.839641354844508
 20
6.21647817231857
 30
0.0
 41
1.0
 10
8.86864555581999
 20
6.156701629491303
 30
0.0
 41
1.0
 10
8.902711075411245
 20
6.090602620120531
 30
0.0
 41
1.0
 10
8.999414226186357
 20
5.979562151906952
 30
0.0
 41
1.0
 10
9.057938151780766
 20
5.933841771497363
 30
0.0
 41
1.0
 10
9.256434172598748
 20
5.800565685359477
 30
0.0
 41
1.0
 10
9.403111356572648
 20
5.734181044069445
 30
0.0
 41
1.0
 10
9.626171625887816
 20
5.600126763031137
 30
0.0
 41
1.0
 10
9.708101396682146
 20
5.540290755505747
 30
0.0
 41
1.0
 10
9.826109727655293
 20
5.404145778889463
 30
0.0
 41
1.0
 10
9.865965462035545
 20
5.336512981113414
 30
0.0
 41
1.0
 10
9.904423701387326
 20
5.189604555674936
 30
0.0
 41
1.0
 10
9.905866941668634
 20
5.108637511196982
 30
0.0
 41
1.0
 10
9.89820196889544
 20
4.939848282192848
 30
0.0
 41
1.0
 10
9.889781531665035
 20
4.854234610161664
 30
0.0
 41
1.0
 10
9.865027780891394
 20
4.708904605212626
 30
0.0
 41
1.0
 10
9.853696110240003
 20
4.649178234204221
 30
0.0
 41
1.0
 10
9.797726483871765
 20
4.568879596529682
 30
0.0
 41
1.0
 10
9.767166315555157
 20
4.547164310784782
 30
0.0
 41
1.0
 10
9.689220206889797
 20
4.533371514775268
 30
0.0
 41
1.0
 10
9.647118509154796
 20
4.539430901416635
 30
0.0
 41
1.0
 10
9.562326200058067
 20
4.562309485305113
 30
0.0
 41
1.0
 10
9.517559773733632
 20
4.578804523608471
 30
0.0
 41
1.0
 10
9.426425344119302
 20
4.603004022987232
 30
0.0
 41
1.0
 10
9.380935671268382
 20
4.612259251934709
 30
0.0
 41
1.0
 10
9.331339855155829
 20
4.622087484096184
 30
0.0
 41
1.0
 10
9.326747312050816
 20
4.622994916137588
 30
0.0
 41
1.0
 10
9.322160226933494
 20
4.623901271320577
 30
0.0
 41
1.0
  0
SPLINE
  5
67E
330
1F
100
AcDbEntity
  8
0
100
AcDbSpline
210
0.0
220
0.0
230
1.0
 70
    12
 71
     3
 72
    15
 73
    11
 74
     0
 42
0.0000000001
 43
0.0000000001
 40
0.0
 40
0.0
 40
0.0
 40
0.0
 40
0.1891825742976064
 40
0.3255968988156029
 40
0.7926034946345061
 40
1.351985378028368
 40
1.657603610820275
 40
1.978611989130619
 40
2.132499779172857
 40
2.202901301695793
 40
2.202901301695793
 40
2.202901301695793
 40
2.202901301695793
 10
8.806777191339261
 20
6.193362596850416
 30
0.0
 41
1.0
 10
8.834477398634466
 20
6.137019260809328
 30
0.0
 41
1.0
 10
8.88215145965914
 20
6.040048302717577
 30
0.0
 41
1.0
 10
8.937064613423008
 20
5.769280106778332
 30
0.0
 41
1.0
 10
9.366304839672878
 20
5.655491332231417
 30
0.0
 41
1.0
 10
9.833052072339965
 20
5.477214475368868
 30
0.0
 41
1.0
 10
9.854587431456725
 20
5.042725251287182
 30
0.0
 41
1.0
 10
9.853693721866216
 20
4.805073482831243
 30
0.0
 41
1.0
 10
9.809473934188237
 20
4.595694671417889
 30
0.0
 41
1.0
 10
9.732542249207683
 20
4.577689274600219
 30
0.0
 41
1.0
 10
9.707551702892491
 20
4.577506173719302
 30
0.0
 41
1.0
  0
SPLINE
  5
67F
330
1F
100
AcDbEntity
  8
0
100
AcDbSpline
210
0.0
220
0.0
230
1.0
 70
    12
 71
     3
 72
    30
 73
    26
 74
     0
 42
0.0000000001
 43
0.0000000001
 40
0.0
 40
0.0
 40
0.0
 40
0.0
 40
0.1883078890473056
 40
0.1883078890473056
 40
0.3378959015768345
 40
0.3378959015768345
 40
0.4874839141063633
 40
0.4874839141063633
 40
0.8240199755867017
 40
0.8240199755867017
 40
1.16055603706704
 40
1.16055603706704
 40
1.401024734068836
 40
1.401024734068836
 40
1.641493431070632
 40
1.641493431070632
 40
1.828304708211393
 40
1.828304708211393
 40
1.962717541285253
 40
1.962717541285253
 40
2.094859910557072
 40
2.094859910557072
 40
2.181744401209862
 40
2.181744401209862
 40
2.206661318983833
 40
2.206661318983833
 40
2.206661318983833
 40
2.206661318983833
 10
8.782982494369715
 20
6.176626186886604
 30
0.0
 41
1.0
 10
8.807427005769808
 20
6.124043879880945
 30
0.0
 41
1.0
 10
8.834201871498038
 20
6.069351413399593
 30
0.0
 41
1.0
 10
8.867078882990729
 20
5.965243553832151
 30
0.0
 41
1.0
 10
8.877210230991487
 20
5.911630140750812
 30
0.0
 41
1.0
 10
8.927349299173152
 20
5.818593416676655
 30
0.0
 41
1.0
 10
8.964451770885642
 20
5.782405409146513
 30
0.0
 41
1.0
 10
9.104879368425493
 20
5.688272441700954
 30
0.0
 41
1.0
 10
9.233072130886043
 20
5.656479487099128
 30
0.0
 41
1.0
 10
9.472626749865782
 20
5.578473091380352
 30
0.0
 41
1.0
 10
9.586168888271251
 20
5.534167480736434
 30
0.0
 41
1.0
 10
9.726723288630115
 20
5.427326839178807
 30
0.0
 41
1.0
 10
9.768111744475505
 20
5.37487669512254
 30
0.0
 41
1.0
 10
9.813042663021903
 20
5.23753774452031
 30
0.0
 41
1.0
 10
9.818598905451926
 20
5.153878357301219
 30
0.0
 41
1.0
 10
9.822852013056778
 20
5.0101975829265
 30
0.0
 41
1.0
 10
9.82372562036568
 20
4.951097264575448
 30
0.0
 41
1.0
 10
9.819232848079999
 20
4.848180067003144
 30
0.0
 41
1.0
 10
9.815522842160377
 20
4.804527396256141
 30
0.0
 41
1.0
 10
9.802499961940741
 20
4.712454188097332
 30
0.0
 41
1.0
 10
9.793081341688092
 20
4.663692390679707
 30
0.0
 41
1.0
 10
9.76344394087944
 20
4.620799258316995
 30
0.0
 41
1.0
 10
9.748813864040722
 20
4.612363347044742
 30
0.0
 41
1.0
 10
9.718553629807525
 20
4.607853908300894
 30
0.0
 41
1.0
 10
9.711395776217387
 20
4.607439922368276
 30
0.0
 41
1.0
 10
9.70408055906903
 20
4.607575119024896
 30
0.0
 41
1.0
  0
SPLINE
  5
682
330
1F
100
AcDbEntity
  8
0
100
AcDbSpline
210
0.0
220
0.0
230
1.0
 70
     8
 71
     3
 72
    15
 73
    11
 74
     9
 42
0.0000001
 43
0.0000001
 44
0.0000000001
 40
0.0
 40
0.0
 40
0.0
 40
0.0
 40
0.0742389865536641
 40
0.3186572809300101
 40
0.6053792400695736
 40
0.9553445693280861
 40
1.425354314208595
 40
1.664099808520043
 40
1.93303168597596
 40
2.074762837107615
 40
2.074762837107615
 40
2.074762837107615
 40
2.074762837107615
 10
5.627394605089544
 20
5.833653635390116
 30
0.0
 10
5.602666643865602
 20
5.825562653866268
 30
0.0
 10
5.496526389905264
 20
5.790833594484779
 30
0.0
 10
5.510866378760499
 20
5.532816201764184
 30
0.0
 10
5.554764945940606
 20
5.259970840120239
 30
0.0
 10
5.676477350661728
 20
4.93000902154106
 30
0.0
 10
5.818382167113327
 20
4.488119852680606
 30
0.0
 10
5.466840049675923
 20
4.353772500671994
 30
0.0
 10
5.249899514789278
 20
4.363337089252255
 30
0.0
 10
5.123051993422033
 20
4.417268921056331
 30
0.0
 10
5.079273411056313
 20
4.435882285474648
 30
0.0
 11
5.627394605089544
 21
5.833653635390116
 31
0.0
 11
5.559381398971738
 21
5.803894083678237
 31
0.0
 11
5.512803802001429
 21
5.5639548620276
 31
0.0
 11
5.559381398971738
 21
5.281041431251857
 31
0.0
 11
5.66686825303006
 21
4.947991423163487
 31
0.0
 11
5.695531453900557
 21
4.478856494599754
 31
0.0
 11
5.480557745783926
 21
4.375002193424486
 31
0.0
 11
5.211840550955714
 21
4.385745745705762
 31
0.0
 11
5.079273411056313
 21
4.435882285474648
 31
0.0
  0
SPLINE
  5
683
330
1F
100
AcDbEntity
  8
0
100
AcDbSpline
210
0.0
220
0.0
230
1.0
 70
    12
 71
     3
 72
    28
 73
    24
 74
     0
 42
0.0000000001
 43
0.0000000001
 40
0.0
 40
0.0
 40
0.0
 40
0.0
 40
0.0836432281519836
 40
0.0836432281519836
 40
0.1672864563039672
 40
0.1672864563039672
 40
0.2509296844559508
 40
0.2509296844559508
 40
0.4330556114310139
 40
0.4330556114310139
 40
0.615181538406077
 40
0.615181538406077
 40
0.9794333923562033
 40
0.9794333923562033
 40
1.34368524630633
 40
1.34368524630633
 40
1.498194663381509
 40
1.498194663381509
 40
1.652704080456688
 40
1.652704080456688
 40
1.931234179553714
 40
1.931234179553714
 40
2.074762837107615
 40
2.074762837107615
 40
2.074762837107615
 40
2.074762837107615
 10
5.613022300477853
 20
5.859377783347514
 30
0.0
 41
1.0
 10
5.590204932316607
 20
5.853050256139873
 30
0.0
 41
1.0
 10
5.557888372566306
 20
5.843003909150533
 30
0.0
 41
1.0
 10
5.507786299239584
 20
5.799046480129496
 30
0.0
 41
1.0
 10
5.493640487054808
 20
5.769284414289313
 30
0.0
 41
1.0
 10
5.47839263715065
 20
5.7069512203877
 30
0.0
 41
1.0
 10
5.47680815806288
 20
5.67367647515233
 30
0.0
 41
1.0
 10
5.479302955908401
 20
5.568016807829053
 30
0.0
 41
1.0
 10
5.488482409478229
 20
5.500583083497652
 30
0.0
 41
1.0
 10
5.506621150530666
 20
5.377942335280322
 30
0.0
 41
1.0
 10
5.518015417053247
 20
5.321015241600866
 30
0.0
 41
1.0
 10
5.561852320162451
 20
5.151690245272781
 30
0.0
 41
1.0
 10
5.603477641087948
 20
5.041491756107218
 30
0.0
 41
1.0
 10
5.690887701862772
 20
4.784264722696036
 30
0.0
 41
1.0
 10
5.729333793817728
 20
4.642345874325892
 30
0.0
 41
1.0
 10
5.689197938764984
 20
4.513427743255582
 30
0.0
 41
1.0
 10
5.665896124159628
 20
4.484119404424852
 30
0.0
 41
1.0
 10
5.588815977211291
 20
4.435266836287591
 30
0.0
 41
1.0
 10
5.537632411721344
 20
4.417454381248896
 30
0.0
 41
1.0
 10
5.393825178794985
 20
4.387418803897365
 30
0.0
 41
1.0
 10
5.305543771531448
 20
4.390367965389581
 30
0.0
 41
1.0
 10
5.178545863787467
 20
4.426360412970795
 30
0.0
 41
1.0
 10
5.135345423187053
 20
4.444641089085049
 30
0.0
 41
1.0
 10
5.091011618611319
 20
4.463490517641803
 30
0.0
 41
1.0
  0
SPLINE
  5
684
330
1F
100
AcDbEntity
  8
0
100
AcDbSpline
210
0.0
220
0.0
230
1.0
 70
     8
 71
     3
 72
    17
 73
    13
 74
    11
 42
0.0000001
 43
0.0000001
 44
0.0000000001
 40
0.0
 40
0.0
 40
0.0
 40
0.0
 40
0.1120766073430446
 40
0.2327883931667187
 40
0.5077341802181692
 40
0.7255771110081947
 40
0.9531939101228102
 40
1.244312868584155
 40
1.435256841090015
 40
1.606717018225888
 40
1.853907958825048
 40
2.121361300711864
 40
2.121361300711864
 40
2.121361300711864
 40
2.121361300711864
 10
5.602782153834494
 20
5.877706023283712
 30
0.0
 10
5.56499835628174
 20
5.869731430821674
 30
0.0
 10
5.48651962884203
 20
5.85316782661018
 30
0.0
 10
5.385904123999315
 20
5.695623468716863
 30
0.0
 10
5.441995042921508
 20
5.48710240744659
 30
0.0
 10
5.413548666815192
 20
5.241075795896731
 30
0.0
 10
5.560882409152765
 20
5.027807046149912
 30
0.0
 10
5.630392995417679
 20
4.812190140957554
 30
0.0
 10
5.711230962505121
 20
4.584529040867677
 30
0.0
 10
5.543233455580011
 20
4.417096470385157
 30
0.0
 10
5.299528376565939
 20
4.424503662978305
 30
0.0
 10
5.140349449486438
 20
4.487012411960265
 30
0.0
 10
5.057626416404787
 20
4.519497323152969
 30
0.0
 11
5.602782153834494
 21
5.877706023283712
 31
0.0
 11
5.49692893341647
 21
5.840878565583509
 31
0.0
 11
5.427133201952387
 21
5.742390540391945
 31
0.0
 11
5.427133201952387
 21
5.467444753340494
 31
0.0
 11
5.439450102761626
 21
5.24995030180289
 31
0.0
 11
5.537985249553145
 21
5.044766890957966
 31
0.0
 11
5.644731683444974
 21
4.773924784137414
 31
0.0
 11
5.673471098772396
 21
4.58515601912859
 31
0.0
 11
5.558513437462693
 21
4.457942307408238
 31
0.0
 11
5.312175540642684
 21
4.437423981341233
 31
0.0
 11
5.057626416404787
 21
4.519497323152969
 31
0.0
  0
SPLINE
  5
685
330
1F
100
AcDbEntity
  8
0
100
AcDbSpline
210
0.0
220
0.0
230
1.0
 70
    12
 71
     3
 72
    30
 73
    26
 74
     0
 42
0.0000000001
 43
0.0000000001
 40
0.0
 40
0.0
 40
0.0
 40
0.0
 40
0.1086756020838039
 40
0.1086756020838039
 40
0.2173512041676078
 40
0.2173512041676078
 40
0.3260268062514116
 40
0.3260268062514116
 40
0.534983062560079
 40
0.534983062560079
 40
0.7439393188687463
 40
0.7439393188687463
 40
0.9528955751774136
 40
0.9528955751774136
 40
1.161851831486081
 40
1.161851831486081
 40
1.321493898613871
 40
1.321493898613871
 40
1.481135965741661
 40
1.481135965741661
 40
1.640778032869451
 40
1.640778032869451
 40
1.800420099997241
 40
1.800420099997241
 40
2.121361300711864
 40
2.121361300711864
 40
2.121361300711864
 40
2.121361300711864
 10
5.587998345962745
 20
5.905511003607814
 30
0.0
 41
1.0
 10
5.559949646657346
 20
5.899326763189843
 30
0.0
 41
1.0
 10
5.519468879565528
 20
5.891523044021118
 30
0.0
 41
1.0
 10
5.447095642680093
 20
5.844174174690761
 30
0.0
 41
1.0
 10
5.421240971419439
 20
5.807256298821772
 30
0.0
 41
1.0
 10
5.388902926398686
 20
5.730138756732583
 30
0.0
 41
1.0
 10
5.383134994926315
 20
5.690334285972703
 30
0.0
 41
1.0
 10
5.381477576099165
 20
5.577629282061085
 30
0.0
 41
1.0
 10
5.396775521216117
 20
5.50814459106666
 30
0.0
 41
1.0
 10
5.399473919586796
 20
5.369864464862704
 30
0.0
 41
1.0
 10
5.393620630844796
 20
5.294973334756115
 30
0.0
 41
1.0
 10
5.437549677294191
 20
5.152636095249155
 30
0.0
 41
1.0
 10
5.479907337368737
 20
5.090829019167429
 30
0.0
 41
1.0
 10
5.54266578766439
 20
4.971335690435638
 30
0.0
 41
1.0
 10
5.566006194364001
 20
4.909860271894934
 30
0.0
 41
1.0
 10
5.606452447359704
 20
4.793862855299375
 30
0.0
 41
1.0
 10
5.627332038668513
 20
4.739073660438408
 30
0.0
 41
1.0
 10
5.652900193008814
 20
4.63890717713403
 30
0.0
 41
1.0
 10
5.653252521154364
 20
4.598088914857773
 30
0.0
 41
1.0
 10
5.605938007289812
 20
4.521726507554746
 30
0.0
 41
1.0
 10
5.561821376644702
 20
4.48852181264875
 30
0.0
 41
1.0
 10
5.47092163543567
 20
4.45626631533872
 30
0.0
 41
1.0
 10
5.42059143776066
 20
4.453768719726217
 30
0.0
 41
1.0
 10
5.266338994875697
 20
4.469919839105082
 30
0.0
 41
1.0
 10
5.167858832837885
 20
4.50843985759448
 30
0.0
 41
1.0
 10
5.06859206213058
 20
4.547421409777538
 30
0.0
 41
1.0
  0
SPLINE
  5
687
330
1F
100
AcDbEntity
  8
0
100
AcDbSpline
210
0.0
220
0.0
230
1.0
 70
     8
 71
     3
 72
    19
 73
    15
 74
    13
 42
0.0000001
 43
0.0000001
 44
0.0000000001
 40
0.0
 40
0.0
 40
0.0
 40
0.0
 40
0.1284261860969504
 40
0.3677736392968022
 40
0.6075853840473209
 40
0.8296162988791311
 40
1.023275257758379
 40
1.320527281810274
 40
1.455403272693126
 40
1.545742100297413
 40
1.663089555126147
 40
1.87926197782416
 40
2.050330044191363
 40
2.160547309518166
 40
2.160547309518166
 40
2.160547309518166
 40
2.160547309518166
 10
5.08261269307029
 20
5.962976751567182
 30
0.0
 10
5.08316758510392
 20
5.91953965320026
 30
0.0
 10
5.084756627563459
 20
5.795148979986338
 30
0.0
 10
5.202444623398859
 20
5.620638214921753
 30
0.0
 10
5.341974987027013
 20
5.429336124008049
 30
0.0
 10
5.357594798579801
 20
5.202033504749092
 30
0.0
 10
5.498059783675063
 20
5.002906118018441
 30
0.0
 10
5.564081885206804
 20
4.810611146426132
 30
0.0
 10
5.638456560861851
 20
4.64035144469761
 30
0.0
 10
5.583070813995899
 20
4.528412320799347
 30
0.0
 10
5.443755731243832
 20
4.467740651591011
 30
0.0
 10
5.273856174494641
 20
4.51904220187636
 30
0.0
 10
5.125630947365547
 20
4.601405270880983
 30
0.0
 10
5.0303745753935
 20
4.594408610684318
 30
0.0
 10
4.993049853338199
 20
4.591667078629825
 30
0.0
 11
5.08261269307029
 21
5.962976751567182
 31
0.0
 11
5.092770233410903
 21
5.834952887972783
 31
0.0
 11
5.202987498737699
 21
5.622492638097334
 31
0.0
 11
5.323701649318593
 21
5.415278336540176
 31
0.0
 11
5.378810252140781
 21
5.200195168821182
 31
0.0
 11
5.470657983193519
 21
5.029702392860855
 31
0.0
 11
5.588747897540287
 21
4.75691394381559
 31
0.0
 11
5.62023849362015
 21
4.625765648839383
 31
0.0
 11
5.580875188837894
 21
4.544453693940142
 31
0.0
 11
5.475906395979365
 21
4.491994398475896
 31
0.0
 11
5.263344574028153
 21
4.531338879460016
 31
0.0
 11
5.103267118665002
 21
4.591667078629825
 31
0.0
 11
4.993049853338199
 21
4.591667078629825
 31
0.0
  0
SPLINE
  5
688
330
1F
100
AcDbEntity
  8
0
100
AcDbSpline
210
0.0
220
0.0
230
1.0
 70
    12
 71
     3
 72
    34
 73
    30
 74
     0
 42
0.0000000001
 43
0.0000000001
 40
0.0
 40
0.0
 40
0.0
 40
0.0
 40
0.1744982414626849
 40
0.1744982414626849
 40
0.3489964829253697
 40
0.3489964829253697
 40
0.5433545100557724
 40
0.5433545100557724
 40
0.7015916644865824
 40
0.7015916644865824
 40
0.8598288189173924
 40
0.8598288189173924
 40
1.018065973348202
 40
1.018065973348202
 40
1.217948693746382
 40
1.217948693746382
 40
1.385274535159054
 40
1.385274535159054
 40
1.493784506696494
 40
1.493784506696494
 40
1.602294478233933
 40
1.602294478233933
 40
1.710804449771373
 40
1.710804449771373
 40
1.819314421308812
 40
1.819314421308812
 40
2.036334364383691
 40
2.036334364383691
 40
2.160547309518166
 40
2.160547309518166
 40
2.160547309518166
 40
2.160547309518166
 10
5.053606804325734
 20
5.960028410285663
 30
0.0
 41
1.0
 10
5.053369096557083
 20
5.903573670835213
 30
0.0
 41
1.0
 10
5.056044056649876
 20
5.839318289469199
 30
0.0
 41
1.0
 10
5.098801400429597
 20
5.722992136531929
 30
0.0
 41
1.0
 10
5.132876061157859
 20
5.670821913675989
 30
0.0
 41
1.0
 10
5.205651530592127
 20
5.565931333649443
 30
0.0
 41
1.0
 10
5.244314875932419
 20
5.513874222617608
 30
0.0
 41
1.0
 10
5.294360245967261
 20
5.415840486075616
 30
0.0
 41
1.0
 10
5.306987500787814
 20
5.369906676014436
 30
0.0
 41
1.0
 10
5.328459534426646
 20
5.266803151949163
 30
0.0
 41
1.0
 10
5.339826922293204
 20
5.210705344700671
 30
0.0
 41
1.0
 10
5.3864670891886
 20
5.109143875825475
 30
0.0
 41
1.0
 10
5.41702399857242
 20
5.063956992887906
 30
0.0
 41
1.0
 10
5.473487098786995
 20
4.963439697046679
 30
0.0
 41
1.0
 10
5.497822302974114
 20
4.904794751395823
 30
0.0
 41
1.0
 10
5.542773258262728
 20
4.791204729849932
 30
0.0
 41
1.0
 10
5.568995644822248
 20
4.734409914868156
 30
0.0
 41
1.0
 10
5.593092034816471
 20
4.654050927991817
 30
0.0
 41
1.0
 10
5.594109797351001
 20
4.627578434659195
 30
0.0
 41
1.0
 10
5.570862183583585
 20
4.573591158122707
 30
0.0
 41
1.0
 10
5.548998120240453
 20
4.55146061410096
 30
0.0
 41
1.0
 10
5.493529372991967
 20
4.523912643669514
 30
0.0
 41
1.0
 10
5.461097032320184
 20
4.517874376543503
 30
0.0
 41
1.0
 10
5.396876629152247
 20
4.519235945070653
 30
0.0
 41
1.0
 10
5.363733532392424
 20
4.526376365073704
 30
0.0
 41
1.0
 10
5.263830263679645
 20
4.559603508924892
 30
0.0
 41
1.0
 10
5.200267196718521
 20
4.602122911589801
 30
0.0
 41
1.0
 10
5.07872497002819
 20
4.627935591121219
 30
0.0
 41
1.0
 10
5.032916562301311
 20
4.624676138274296
 30
0.0
 41
1.0
 10
4.990852248338633
 20
4.621586479229869
 30
0.0
 41
1.0
  0
SPLINE
  5
68A
330
1F
100
AcDbEntity
  8
0
100
AcDbSpline
210
0.0
220
0.0
230
1.0
 70
     8
 71
     3
 72
    15
 73
    11
 74
     9
 42
0.0000001
 43
0.0000001
 44
0.0000000001
 40
0.0
 40
0.0
 40
0.0
 40
0.0
 40
0.1123821068694503
 40
0.309522471243467
 40
0.585564875996586
 40
0.7761605632151379
 40
0.9506774713482782
 40
1.070957371674891
 40
1.261930010613542
 40
1.336903026902942
 40
1.336903026902942
 40
1.336903026902942
 40
1.336903026902942
 10
4.514738736602187
 20
5.71025498736603
 30
0.0
 10
4.503349963570383
 20
5.674476158714424
 30
0.0
 10
4.471983038074585
 20
5.575934213106426
 30
0.0
 10
4.453537856521317
 20
5.38098363102822
 30
0.0
 10
4.410016830777558
 20
5.162080148352433
 30
0.0
 10
4.441064546164663
 20
4.947588635032457
 30
0.0
 10
4.479920602345315
 20
4.792956943187731
 30
0.0
 10
4.566487022529659
 20
4.641705744043257
 30
0.0
 10
4.711285851834286
 20
4.63717585434998
 30
0.0
 10
4.790508773892162
 20
4.59811001025517
 30
0.0
 10
4.812842590253425
 20
4.587096917511964
 30
0.0
 11
4.514738736602187
 21
5.71025498736603
 31
0.0
 11
4.483422162068855
 21
5.602324407343893
 31
0.0
 11
4.453225301919105
 21
5.407510463021069
 31
0.0
 11
4.423028441769361
 21
5.133124678296383
 31
0.0
 11
4.444989783754188
 21
4.943798463934669
 31
0.0
 11
4.494402833061265
 21
4.776423131873678
 31
0.0
 11
4.563032131208104
 21
4.677644217836054
 31
0.0
 11
4.744213351789007
 21
4.617279375982484
 31
0.0
 11
4.812842590253425
 21
4.587096917511964
 31
0.0
  0
SPLINE
  5
68B
330
1F
100
AcDbEntity
  8
0
100
AcDbSpline
210
0.0
220
0.0
230
1.0
 70
    12
 71
     3
 72
    24
 73
    20
 74
     0
 42
0.0000000001
 43
0.0000000001
 40
0.0
 40
0.0
 40
0.0
 40
0.0
 40
0.2109028222270878
 40
0.2109028222270878
 40
0.4218056444541755
 40
0.4218056444541755
 40
0.6327084666812632
 40
0.6327084666812632
 40
0.843611288908351
 40
0.843611288908351
 40
0.9870643489116151
 40
0.9870643489116151
 40
1.097872241646318
 40
1.097872241646318
 40
1.208680134381021
 40
1.208680134381021
 40
1.309542877842137
 40
1.309542877842137
 40
1.336903026902942
 40
1.336903026902942
 40
1.336903026902942
 40
1.336903026902942
 10
4.542769040776517
 20
5.699954654267746
 30
0.0
 41
1.0
 10
4.52195261152078
 20
5.634010901571741
 30
0.0
 41
1.0
 10
4.505402784978596
 20
5.570069202744892
 30
0.0
 41
1.0
 10
4.486201966856613
 20
5.432733415955743
 30
0.0
 41
1.0
 10
4.476328920449066
 20
5.360800568919353
 30
0.0
 41
1.0
 10
4.456529967351733
 20
5.222629042462592
 30
0.0
 41
1.0
 10
4.450078352101238
 20
5.155750566301169
 30
0.0
 41
1.0
 10
4.459447094055948
 20
5.020489202040268
 30
0.0
 41
1.0
 10
4.471864407380515
 20
4.951249079556967
 30
0.0
 41
1.0
 10
4.500298416131936
 20
4.841402333684094
 30
0.0
 41
1.0
 10
4.515544201652708
 20
4.796567581146144
 30
0.0
 41
1.0
 10
4.553984969847336
 20
4.726451744129804
 30
0.0
 41
1.0
 10
4.572727036790243
 20
4.704021756166249
 30
0.0
 41
1.0
 10
4.624816494069273
 20
4.676703458676366
 30
0.0
 41
1.0
 10
4.660108100850541
 20
4.669375874533254
 30
0.0
 41
1.0
 10
4.732620550360252
 20
4.65290331101236
 30
0.0
 41
1.0
 10
4.769601031867055
 20
4.641005130156024
 30
0.0
 41
1.0
 10
4.80965284702728
 20
4.622120655851132
 30
0.0
 41
1.0
 10
4.817960193833858
 20
4.618022491110014
 30
0.0
 41
1.0
 10
4.826110546787273
 20
4.614003447006046
 30
0.0
 41
1.0
  0
SPLINE
  5
68C
330
1F
100
AcDbEntity
  8
0
100
AcDbSpline
210
0.0
220
0.0
230
1.0
 70
     8
 71
     3
 72
    15
 73
    11
 74
     9
 42
0.0000001
 43
0.0000001
 44
0.0000000001
 40
0.0
 40
0.0
 40
0.0
 40
0.0
 40
0.1143066709472995
 40
0.2973517288266688
 40
0.4747032733056363
 40
0.6699405194621281
 40
0.8366493740953724
 40
0.9871990362525233
 40
1.216512849588035
 40
1.322889537487191
 40
1.322889537487191
 40
1.322889537487191
 40
1.322889537487191
 10
4.563964931658948
 20
5.692165772098189
 30
0.0
 10
4.554308354170036
 20
5.655240442663349
 30
0.0
 10
4.529188210375451
 20
5.559184714209787
 30
0.0
 10
4.520722189025296
 20
5.400168200791863
 30
0.0
 10
4.480120549037728
 20
5.219656125972614
 30
0.0
 10
4.471937354256903
 20
5.036768878905701
 30
0.0
 10
4.503477930132881
 20
4.872940687194902
 30
0.0
 10
4.577828927269387
 20
4.683528911337684
 30
0.0
 10
4.771803078158362
 20
4.696532725242516
 30
0.0
 10
4.866826874366077
 20
4.637441191762901
 30
0.0
 10
4.896938887291682
 20
4.618715724133274
 30
0.0
 11
4.563964931658948
 21
5.692165772098189
 31
0.0
 11
4.537923675262348
 21
5.580864972512828
 31
0.0
 11
4.515485231970814
 21
5.399200420448551
 31
0.0
 11
4.486315267628314
 21
5.224264193470454
 31
0.0
 11
4.47958374657734
 21
5.029143028777561
 31
0.0
 11
4.510997591058448
 21
4.865420664428505
 31
0.0
 11
4.582800621527831
 21
4.733097100423279
 31
0.0
 11
4.802697353848345
 21
4.668056712192318
 31
0.0
 11
4.896938887291682
 21
4.618715724133274
 31
0.0
  0
SPLINE
  5
68D
330
1F
100
AcDbEntity
  8
0
100
AcDbSpline
210
0.0
220
0.0
230
1.0
 70
    12
 71
     3
 72
    22
 73
    18
 74
     0
 42
0.0000000001
 43
0.0000000001
 40
0.0
 40
0.0
 40
0.0
 40
0.0
 40
0.1729869869698354
 40
0.1729869869698354
 40
0.3459739739396707
 40
0.3459739739396707
 40
0.518960960909506
 40
0.518960960909506
 40
0.7809114871880098
 40
0.7809114871880098
 40
0.9243557576535626
 40
0.9243557576535626
 40
1.067800028119115
 40
1.067800028119115
 40
1.211244298584668
 40
1.211244298584668
 40
1.322889537487191
 40
1.322889537487191
 40
1.322889537487191
 40
1.322889537487191
 10
4.592401699031162
 20
5.681716075429444
 30
0.0
 41
1.0
 10
4.57837499453016
 20
5.628694274387289
 30
0.0
 41
1.0
 10
4.565978480616568
 20
5.575472726031673
 30
0.0
 41
1.0
 10
4.552516795134856
 20
5.463089803442779
 30
0.0
 41
1.0
 10
4.547393915978888
 20
5.40358473762449
 30
0.0
 41
1.0
 10
4.527538722762694
 20
5.288683334557021
 30
0.0
 41
1.0
 10
4.516314267155584
 20
5.233319016782239
 30
0.0
 41
1.0
 10
4.50315578642363
 20
5.092363150063407
 30
0.0
 41
1.0
 10
4.506681060804826
 20
5.009690257257866
 30
0.0
 41
1.0
 10
4.535910514000245
 20
4.882170480648853
 30
0.0
 41
1.0
 10
4.550326098142939
 20
4.832114803383437
 30
0.0
 41
1.0
 10
4.591898043047448
 20
4.7581182426984
 30
0.0
 41
1.0
 10
4.617533767783859
 20
4.740736198155513
 30
0.0
 41
1.0
 10
4.701800689562662
 20
4.718482548449065
 30
0.0
 41
1.0
 10
4.755428769231528
 20
4.715113486122876
 30
0.0
 41
1.0
 10
4.847013804103137
 20
4.685198347821206
 30
0.0
 41
1.0
 10
4.881177917985863
 20
4.663844445993407
 30
0.0
 41
1.0
 10
4.912781297855164
 20
4.644191556357915
 30
0.0
 41
1.0
  0
SPLINE
  5
68F
330
1F
100
AcDbEntity
  8
0
100
AcDbSpline
210
0.0
220
0.0
230
1.0
 70
     8
 71
     3
 72
    13
 73
     9
 74
     7
 42
0.0000001
 43
0.0000001
 44
0.0000000001
 40
0.0
 40
0.0
 40
0.0
 40
0.0
 40
0.0679922014469735
 40
0.1487220359729273
 40
0.2441232941635138
 40
0.3174793383330237
 40
0.4063288433647514
 40
0.5043915182358507
 40
0.5043915182358507
 40
0.5043915182358507
 40
0.5043915182358507
 10
9.707551702892491
 20
4.577506173719302
 30
0.0
 10
9.684704733635277
 20
4.576835597256198
 30
0.0
 10
9.634730652616676
 20
4.575368818791228
 30
0.0
 10
9.557271541670762
 20
4.605508910803326
 30
0.0
 10
9.487497870978535
 20
4.652432296384669
 30
0.0
 10
9.40556363176117
 20
4.675233455126225
 30
0.0
 10
9.312764997930664
 20
4.691434316154423
 30
0.0
 10
9.265761006641789
 20
4.644641157076293
 30
0.0
 10
9.241100563872351
 20
4.620091326523486
 30
0.0
 11
9.707551702892491
 21
4.577506173719302
 31
0.0
 11
9.639592954751137
 21
4.579638779793058
 31
0.0
 11
9.563318994448437
 21
4.606088527661989
 31
0.0
 11
9.479262028128346
 21
4.651208661498337
 31
0.0
 11
9.409214556194954
 21
4.672990784717612
 31
0.0
 11
9.320487738518494
 21
4.677658371823533
 31
0.0
 11
9.241100563872351
 21
4.620091326523486
 31
0.0
  0
SPLINE
  5
690
330
1F
100
AcDbEntity
  8
0
100
AcDbSpline
210
0.0
220
0.0
230
1.0
 70
    12
 71
     3
 72
    18
 73
    14
 74
     0
 42
0.0000000001
 43
0.0000000001
 40
0.0
 40
0.0
 40
0.0
 40
0.0
 40
0.1106994091601706
 40
0.1106994091601706
 40
0.2213988183203411
 40
0.2213988183203411
 40
0.3139583861873589
 40
0.3139583861873589
 40
0.4065179540543767
 40
0.4065179540543767
 40
0.4990775219213945
 40
0.4990775219213945
 40
0.5043915182358507
 40
0.5043915182358507
 40
0.5043915182358507
 40
0.5043915182358507
 10
9.706671558394833
 20
4.607493260034301
 30
0.0
 41
1.0
 10
9.669473968905885
 20
4.606401481614386
 30
0.0
 41
1.0
 10
9.639649360289967
 20
4.607382176297962
 30
0.0
 41
1.0
 10
9.577876469046814
 20
4.630090781286327
 30
0.0
 41
1.0
 10
9.548129247473112
 20
4.649858298545167
 30
0.0
 41
1.0
 10
9.484380964107778
 20
4.68319193232196
 30
0.0
 41
1.0
 10
9.45167648602278
 20
4.693901691018658
 30
0.0
 41
1.0
 10
9.387449109215328
 20
4.708880404631718
 30
0.0
 41
1.0
 10
9.350315466571306
 20
4.717311523108754
 30
0.0
 41
1.0
 10
9.273926793134763
 20
4.695626183501576
 30
0.0
 41
1.0
 10
9.247581571218474
 20
4.668810872928849
 30
0.0
 41
1.0
 10
9.222616870436932
 20
4.644021915592374
 30
0.0
 41
1.0
 10
9.221271440161892
 20
4.642682508454379
 30
0.0
 41
1.0
 10
9.219935095807
 20
4.641352158152904
 30
0.0
 41
1.0
  0
SPLINE
  5
694
330
1F
100
AcDbEntity
  8
0
100
AcDbSpline
210
0.0
220
0.0
230
1.0
 70
     8
 71
     3
 72
    16
 73
    12
 74
    10
 42
0.0000001
 43
0.0000001
 44
0.0000000001
 40
0.0
 40
0.0
 40
0.0
 40
0.0
 40
0.1040792296815639
 40
0.2594771718655681
 40
0.4313765204292008
 40
0.5390046688296088
 40
0.6274349531171417
 40
0.7389037893972349
 40
0.8469650682822734
 40
1.017470186562784
 40
1.162466485490005
 40
1.162466485490005
 40
1.162466485490005
 40
1.162466485490005
 10
1.102045876896394
 20
5.2850550632782
 30
0.0
 10
1.08260628092923
 20
5.256312791685463
 30
0.0
 10
1.03414193891592
 20
5.184656195372315
 30
0.0
 10
0.9594351662485461
 20
5.061808227309226
 30
0.0
 10
0.8775772438401721
 20
4.941811533857813
 30
0.0
 10
0.8334920891366712
 20
4.825323545780912
 30
0.0
 10
0.8313469609285735
 20
4.721221928678283
 30
0.0
 10
0.8791960736429054
 20
4.620902243135991
 30
0.0
 10
1.002313366933783
 20
4.56674399498484
 30
0.0
 10
1.13631088845633
 20
4.521692118160678
 30
0.0
 10
1.242255865883565
 20
4.52087726659855
 30
0.0
 10
1.290945439936294
 20
4.520502781876012
 30
0.0
 11
1.102045876896394
 21
5.2850550632782
 31
0.0
 11
1.044294628161182
 21
5.198468232174207
 31
0.0
 11
0.9611840460568075
 21
5.067162666498966
 31
0.0
 11
0.8727114755115153
 21
4.919778846838497
 31
0.0
 11
0.837858670010462
 21
4.817950067621588
 31
0.0
 11
0.837858670010462
 21
4.729519783334055
 31
0.0
 11
0.8887974408342458
 21
4.630370688085534
 31
0.0
 11
0.9826319401380132
 21
4.576776595736831
 31
0.0
 11
1.146172169808743
 21
4.52854187132489
 31
0.0
 11
1.290945439936294
 21
4.520502781876012
 31
0.0
  0
SPLINE
  5
695
330
1F
100
AcDbEntity
  8
0
100
AcDbSpline
210
0.0
220
0.0
230
1.0
 70
    12
 71
     3
 72
    20
 73
    16
 74
     0
 42
0.0000000001
 43
0.0000000001
 40
0.0
 40
0.0
 40
0.0
 40
0.0
 40
0.2864745423255712
 40
0.2864745423255712
 40
0.5143275905600535
 40
0.5143275905600535
 40
0.6687523752211443
 40
0.6687523752211443
 40
0.7986043893719525
 40
0.7986043893719525
 40
0.9284564035227607
 40
0.9284564035227607
 40
1.058308417673569
 40
1.058308417673569
 40
1.162466485490005
 40
1.162466485490005
 40
1.162466485490005
 40
1.162466485490005
 10
1.127829107702931
 20
5.269691645556374
 30
0.0
 41
1.0
 10
1.07338903877592
 20
5.189135854479345
 30
0.0
 41
1.0
 10
1.0236952899853
 20
5.108317958880303
 30
0.0
 41
1.0
 10
0.9303073330472197
 20
4.964386171474995
 30
0.0
 41
1.0
 10
0.889630285579223
 20
4.901272680354171
 30
0.0
 41
1.0
 10
0.8603413085871698
 20
4.78921648540927
 30
0.0
 41
1.0
 10
0.8605072429395236
 20
4.742120576544358
 30
0.0
 41
1.0
 10
0.8921938282929008
 20
4.665623316476522
 30
0.0
 41
1.0
 10
0.9160377874809424
 20
4.641395809533643
 30
0.0
 41
1.0
 10
0.9864386222958421
 20
4.605382151360131
 30
0.0
 41
1.0
 10
1.029244849831278
 20
4.589908620514682
 30
0.0
 41
1.0
 10
1.10876504701516
 20
4.565208976077531
 30
0.0
 41
1.0
 10
1.147809400947692
 20
4.557151077849439
 30
0.0
 41
1.0
 10
1.221954248620421
 20
4.55106285247538
 30
0.0
 41
1.0
 10
1.256200023626773
 20
4.550770905620266
 30
0.0
 41
1.0
 10
1.291176171250259
 20
4.55050189458057
 30
0.0
 41
1.0
  0
SPLINE
  5
696
330
1F
100
AcDbEntity
  8
0
100
AcDbSpline
210
0.0
220
0.0
230
1.0
 70
     8
 71
     3
 72
    15
 73
    11
 74
     9
 42
0.0000001
 43
0.0000001
 44
0.0000000001
 40
0.0
 40
0.0
 40
0.0
 40
0.0
 40
0.139537745381014
 40
0.303229225773479
 40
0.476085378946176
 40
0.5871246576940039
 40
0.6752749638717928
 40
0.766418852099438
 40
0.9996005595475335
 40
1.139037652925535
 40
1.139037652925535
 40
1.139037652925535
 40
1.139037652925535
 10
1.158860049859416
 20
5.251201281395018
 30
0.0
 10
1.136601024081204
 20
5.210071003309798
 30
0.0
 10
1.088229974837364
 20
5.120690869313981
 30
0.0
 10
0.9760098806578602
 20
5.007533957418985
 30
0.0
 10
0.895590506971304
 20
4.877636017238422
 30
0.0
 10
0.8724243270383962
 20
4.75470973831529
 30
0.0
 10
0.9001027258352907
 20
4.65151591388818
 30
0.0
 10
1.038672493661358
 20
4.599580263458225
 30
0.0
 10
1.189393397962098
 20
4.580791153529695
 30
0.0
 10
1.314016206224669
 20
4.585669782609483
 30
0.0
 10
1.360651110620829
 20
4.587495406697819
 30
0.0
 11
1.158860049859416
 21
5.251201281395018
 31
0.0
 11
1.087190416323601
 21
5.131475569808664
 31
0.0
 11
0.9826319401380132
 21
5.005529447157649
 31
0.0
 11
0.8968403638131832
 21
4.855465943528806
 31
0.0
 11
0.8807544581728806
 21
4.745597999775548
 31
0.0
 11
0.9102453349154516
 21
4.662527158512248
 31
0.0
 11
0.9906749227993785
 21
4.619651877124539
 31
0.0
 11
1.22123976925176
 21
4.58481568518571
 31
0.0
 11
1.360651110620829
 21
4.587495406697819
 31
0.0
  0
SPLINE
  5
697
330
1F
100
AcDbEntity
  8
0
100
AcDbSpline
210
0.0
220
0.0
230
1.0
 70
    12
 71
     3
 72
    24
 73
    20
 74
     0
 42
0.0000000001
 43
0.0000000001
 40
0.0
 40
0.0
 40
0.0
 40
0.0
 40
0.1621956622457659
 40
0.1621956622457659
 40
0.3243913244915318
 40
0.3243913244915318
 40
0.5035546021725861
 40
0.5035546021725861
 40
0.607265571750822
 40
0.607265571750822
 40
0.6851404895735778
 40
0.6851404895735778
 40
0.7630154073963336
 40
0.7630154073963336
 40
0.8408903252190894
 40
0.8408903252190894
 40
1.014817915307394
 40
1.014817915307394
 40
1.139037652925535
 40
1.139037652925535
 40
1.139037652925535
 40
1.139037652925535
 10
1.184536792334944
 20
5.235901316719319
 30
0.0
 41
1.0
 10
1.159370735360991
 20
5.189113697934871
 30
0.0
 41
1.0
 10
1.131852485149625
 20
5.139160262403216
 30
0.0
 41
1.0
 10
1.062579145112114
 20
5.050801358721963
 30
0.0
 41
1.0
 10
1.024827112079079
 20
5.012525911425043
 30
0.0
 41
1.0
 10
0.9593223235111396
 20
4.924497074923895
 30
0.0
 41
1.0
 10
0.9314305185113593
 20
4.874021492393997
 30
0.0
 41
1.0
 10
0.9102035974516338
 20
4.791482077589679
 30
0.0
 41
1.0
 10
0.9076056717053198
 20
4.76000643734084
 30
0.0
 41
1.0
 10
0.9168154036514915
 20
4.707360023094882
 30
0.0
 41
1.0
 10
0.9245421803101012
 20
4.689425839826969
 30
0.0
 41
1.0
 10
0.9498580195826976
 20
4.666255583236319
 30
0.0
 41
1.0
 10
0.9715300667721614
 20
4.657038117120934
 30
0.0
 41
1.0
 10
1.020885717822338
 20
4.641644737903557
 30
0.0
 41
1.0
 10
1.045793741594369
 20
4.635381413263846
 30
0.0
 41
1.0
 10
1.125492576111572
 20
4.619517485044311
 30
0.0
 41
1.0
 10
1.18028371811211
 20
4.615073191196082
 30
0.0
 41
1.0
 10
1.276854575622578
 20
4.61424974218956
 30
0.0
 41
1.0
 10
1.317932153296192
 20
4.615846059520397
 30
0.0
 41
1.0
 10
1.35947759466762
 20
4.617472445582732
 30
0.0
 41
1.0
  0
SPLINE
  5
698
330
1F
100
AcDbEntity
  8
0
100
AcDbSpline
210
0.0
220
0.0
230
1.0
 70
     8
 71
     3
 72
    19
 73
    15
 74
    13
 42
0.0000001
 43
0.0000001
 44
0.0000000001
 40
0.0
 40
0.0
 40
0.0
 40
0.0
 40
0.1384441358664479
 40
0.2984597124262937
 40
0.4629526677968945
 40
0.6332317060045871
 40
0.8340019950733268
 40
0.9326558816289631
 40
1.095063293135149
 40
1.170307012835396
 40
1.24429230034911
 40
1.454263169037689
 40
1.577072276378517
 40
1.700714084544036
 40
1.700714084544036
 40
1.700714084544036
 40
1.700714084544036
 10
1.627172706918932
 20
5.56038607183755
 30
0.0
 10
1.601514878737076
 20
5.522009206259955
 30
0.0
 10
1.546201390934115
 20
5.43927584819876
 30
0.0
 10
1.426035814302899
 20
5.335406578799383
 30
0.0
 10
1.242861458470915
 20
5.317492928165413
 30
0.0
 10
1.176627697924698
 20
5.129341884376324
 30
0.0
 10
1.058702793556794
 20
5.027546019402743
 30
0.0
 10
0.9582245058897546
 20
4.90908210038901
 30
0.0
 10
0.916392969992858
 20
4.803793758184495
 30
0.0
 10
0.924998316961486
 20
4.68757497917213
 30
0.0
 10
1.049962558291694
 20
4.638591067812436
 30
0.0
 10
1.180693624867803
 20
4.657613206015419
 30
0.0
 10
1.337977070893891
 20
4.716100613079099
 30
0.0
 10
1.403374460168139
 20
4.655602115484168
 30
0.0
 10
1.436183636155818
 20
4.625250661448923
 30
0.0
 11
1.627172706918932
 21
5.56038607183755
 31
0.0
 11
1.545432016992621
 21
5.448648708497537
 31
0.0
 11
1.418467684119641
 21
5.351257523476001
 31
0.0
 11
1.264929453033609
 21
5.292232579922221
 31
0.0
 11
1.170444355613206
 21
5.150572715393153
 31
0.0
 11
1.037574685500694
 21
5.000059062401348
 31
0.0
 11
0.9755688235328677
 21
4.9233266545533
 31
0.0
 11
0.9224209674243511
 21
4.769861763769747
 31
0.0
 11
0.937184310523179
 21
4.696080593713454
 31
0.0
 11
1.002142781428347
 21
4.660665627581189
 31
0.0
 11
1.211781537242665
 21
4.672470616291946
 31
0.0
 11
1.33284059255854
 21
4.693129318377963
 31
0.0
 11
1.436183636155818
 21
4.625250661448923
 31
0.0
  0
SPLINE
  5
699
330
1F
100
AcDbEntity
  8
0
100
AcDbSpline
210
0.0
220
0.0
230
1.0
 70
    12
 71
     3
 72
    40
 73
    36
 74
     0
 42
0.0000000001
 43
0.0000000001
 40
0.0
 40
0.0
 40
0.0
 40
0.0
 40
0.2053441069930161
 40
0.2053441069930161
 40
0.3294491957996556
 40
0.3294491957996556
 40
0.4535542846062952
 40
0.4535542846062952
 40
0.5776593734129348
 40
0.5776593734129348
 40
0.7017644622195744
 40
0.7017644622195744
 40
0.8258695510262141
 40
0.8258695510262141
 40
0.9852503026806276
 40
0.9852503026806276
 40
1.11110682626142
 40
1.11110682626142
 40
1.166250257242087
 40
1.166250257242087
 40
1.221393688222755
 40
1.221393688222755
 40
1.276537119203422
 40
1.276537119203422
 40
1.331680550184089
 40
1.331680550184089
 40
1.441967412145424
 40
1.441967412145424
 40
1.543920887486101
 40
1.543920887486101
 40
1.620301230724885
 40
1.620301230724885
 40
1.696681573963669
 40
1.696681573963669
 40
1.700714084544036
 40
1.700714084544036
 40
1.700714084544036
 40
1.700714084544036
 10
1.656528216407174
 20
5.553614960064921
 30
0.0
 41
1.0
 10
1.61405583498649
 20
5.486790514045381
 30
0.0
 41
1.0
 10
1.573940047000093
 20
5.426500523423106
 30
0.0
 41
1.0
 10
1.483014328224476
 20
5.34905060225739
 30
0.0
 41
1.0
 10
1.440589427123932
 20
5.32550018691086
 30
0.0
 41
1.0
 10
1.354533503332631
 20
5.298156714004244
 30
0.0
 41
1.0
 10
1.314166567778499
 20
5.289268152340134
 30
0.0
 41
1.0
 10
1.263303414163779
 20
5.255499836703788
 30
0.0
 41
1.0
 10
1.245350882068416
 20
5.224526408786072
 30
0.0
 41
1.0
 10
1.20500682278443
 20
5.148992575677296
 30
0.0
 41
1.0
 10
1.179968627002713
 20
5.108391827877712
 30
0.0
 41
1.0
 10
1.123095854379464
 20
5.042961155040349
 30
0.0
 41
1.0
 10
1.09271155577029
 20
5.01444173368586
 30
0.0
 41
1.0
 10
1.029139237804996
 20
4.947796300500279
 30
0.0
 41
1.0
 10
0.9974973247441661
 20
4.90865188477642
 30
0.0
 41
1.0
 10
0.9612042776698201
 20
4.830546997982617
 30
0.0
 41
1.0
 10
0.9514559675233074
 20
4.791132949002417
 30
0.0
 41
1.0
 10
0.9522486305430694
 20
4.736531451522382
 30
0.0
 41
1.0
 10
0.9554972803018676
 20
4.722777465637329
 30
0.0
 41
1.0
 10
0.9648665024752359
 20
4.70828350463217
 30
0.0
 41
1.0
 10
0.9745886032409571
 20
4.701653061956981
 30
0.0
 41
1.0
 10
1.004547106966956
 20
4.690297506798148
 30
0.0
 41
1.0
 10
1.02250794999401
 20
4.686160471662458
 30
0.0
 41
1.0
 10
1.055890163162638
 20
4.681284594680362
 30
0.0
 41
1.0
 10
1.072421457724879
 20
4.680436190905205
 30
0.0
 41
1.0
 10
1.122326080548341
 20
4.68187076530128
 30
0.0
 41
1.0
 10
1.156077652417143
 20
4.688178663530906
 30
0.0
 41
1.0
 10
1.224196822286865
 20
4.706878591450828
 30
0.0
 41
1.0
 10
1.25976070442484
 20
4.721069390539024
 30
0.0
 41
1.0
 10
1.328532616973611
 20
4.726760588758831
 30
0.0
 41
1.0
 10
1.360648331256021
 20
4.718900190763091
 30
0.0
 41
1.0
 10
1.411435834724294
 20
4.688987296260676
 30
0.0
 41
1.0
 10
1.432928884801058
 20
4.669110535962077
 30
0.0
 41
1.0
 10
1.454412308096588
 20
4.649255733439514
 30
0.0
 41
1.0
 10
1.455485915029416
 20
4.648262548362347
 30
0.0
 41
1.0
 10
1.456555968527229
 20
4.647272652134343
 30
0.0
 41
1.0
  0
SPLINE
  5
69A
330
1F
100
AcDbEntity
  8
0
100
AcDbSpline
210
0.0
220
0.0
230
1.0
 70
     8
 71
     3
 72
    24
 73
    20
 74
    18
 42
0.0000001
 43
0.0000001
 44
0.0000000001
 40
0.0
 40
0.0
 40
0.0
 40
0.0
 40
0.0514951131823045
 40
0.139008501968288
 40
0.2780846347457014
 40
0.4312420990691843
 40
0.5514468426527253
 40
0.6149276760885868
 40
0.7119893316222574
 40
0.8543420658797631
 40
0.9557623297849804
 40
1.070048660471741
 40
1.167488568012989
 40
1.221717930547058
 40
1.303114802142598
 40
1.469331812512298
 40
1.596948082929901
 40
1.721828978651562
 40
1.838729200933955
 40
1.838729200933955
 40
1.838729200933955
 40
1.838729200933955
 10
1.68942996532447
 20
5.546025876335325
 30
0.0
 10
1.685412110914693
 20
5.529044783953193
 30
0.0
 10
1.674566112370083
 20
5.483205167959565
 30
0.0
 10
1.606604690583021
 20
5.417029220993091
 30
0.0
 10
1.566211602366668
 20
5.281073869910896
 30
0.0
 10
1.413917304030152
 20
5.264883132683716
 30
0.0
 10
1.295178959830754
 20
5.255803862391538
 30
0.0
 10
1.238519561228314
 20
5.174757069831804
 30
0.0
 10
1.21387724861026
 20
5.074380237613644
 30
0.0
 10
1.117218383934691
 20
5.004603063931787
 30
0.0
 10
1.021682419433902
 20
4.929018257959412
 30
0.0
 10
0.980107336910459
 20
4.838207717620862
 30
0.0
 10
0.9423558099825308
 20
4.735364346753746
 30
0.0
 10
1.018981521707745
 20
4.689754877408178
 30
0.0
 10
1.120500291293336
 20
4.694468972078984
 30
0.0
 10
1.240327628020884
 20
4.737340556823204
 30
0.0
 10
1.371982006823911
 20
4.770042022674127
 30
0.0
 10
1.517790169506229
 20
4.738067764200341
 30
0.0
 10
1.520137397397582
 20
4.648263204331895
 30
0.0
 10
1.521272272877155
 20
4.604843051851596
 30
0.0
 11
1.68942996532447
 21
5.546025876335325
 31
0.0
 11
1.674202757827821
 21
5.496833612375305
 31
0.0
 11
1.623871255680008
 21
5.425242180567082
 31
0.0
 11
1.550309742235811
 21
5.307213055144075
 31
0.0
 11
1.403186715347424
 21
5.264645181845097
 31
0.0
 11
1.28703701696007
 21
5.233686694406082
 31
0.0
 11
1.248320430936815
 21
5.183379218019212
 31
0.0
 11
1.209603844913552
 21
5.09437365110545
 31
0.0
 11
1.107004921793127
 21
4.995693552174018
 31
0.0
 11
1.031507549206559
 21
4.927971940681608
 31
0.0
 11
0.9773043287739966
 21
4.827356950364148
 31
0.0
 11
0.9656893529670185
 21
4.730611780362487
 31
0.0
 11
1.010213456734981
 21
4.699653292923479
 31
0.0
 11
1.091518287383828
 21
4.695783510151401
 31
0.0
 11
1.252192089539136
 21
4.738351383450379
 31
0.0
 11
1.378020964273517
 21
4.759635338871732
 31
0.0
 11
1.496106521803249
 21
4.719002356958796
 31
0.0
 11
1.521272272877155
 21
4.604843051851596
 31
0.0
  0
SPLINE
  5
69D
330
1F
100
AcDbEntity
  8
0
100
AcDbSpline
210
0.0
220
0.0
230
1.0
 70
    12
 71
     3
 72
    48
 73
    44
 74
     0
 42
0.0000000001
 43
0.0000000001
 40
0.0
 40
0.0
 40
0.0
 40
0.0
 40
0.0699113451777396
 40
0.0699113451777396
 40
0.1398226903554792
 40
0.1398226903554792
 40
0.2785817915240434
 40
0.2785817915240434
 40
0.4173408926926075
 40
0.4173408926926075
 40
0.5264158385756935
 40
0.5264158385756935
 40
0.5984139184147241
 40
0.5984139184147241
 40
0.6704119982537547
 40
0.6704119982537547
 40
0.752131079423072
 40
0.752131079423072
 40
0.8338501605923893
 40
0.8338501605923893
 40
0.97728700332336
 40
0.97728700332336
 40
1.060874765925599
 40
1.060874765925599
 40
1.132456537729977
 40
1.132456537729977
 40
1.186763759641623
 40
1.186763759641623
 40
1.241070981553268
 40
1.241070981553268
 40
1.295378203464914
 40
1.295378203464914
 40
1.453463284961784
 40
1.453463284961784
 40
1.611548366458654
 40
1.611548366458654
 40
1.699838994322078
 40
1.699838994322078
 40
1.766941237025666
 40
1.766941237025666
 40
1.834043479729254
 40
1.834043479729254
 40
1.838729200933955
 40
1.838729200933955
 40
1.838729200933955
 40
1.838729200933955
 10
1.717708967864175
 20
5.539503070553579
 30
0.0
 41
1.0
 10
1.71316914659703
 20
5.516064317406738
 30
0.0
 41
1.0
 10
1.705110026452162
 20
5.487468544997792
 30
0.0
 41
1.0
 10
1.676217264873902
 20
5.442340334889141
 30
0.0
 41
1.0
 10
1.659875213371501
 20
5.425170031649031
 30
0.0
 41
1.0
 10
1.62552959564697
 20
5.373644317552945
 30
0.0
 41
1.0
 10
1.611516476727259
 20
5.321244570002788
 30
0.0
 41
1.0
 10
1.528130263802566
 20
5.247596679022728
 30
0.0
 41
1.0
 10
1.472192811470086
 20
5.241131577042878
 30
0.0
 41
1.0
 10
1.380951422937674
 20
5.232286397787253
 30
0.0
 41
1.0
 10
1.343889692257946
 20
5.229839418454853
 30
0.0
 41
1.0
 10
1.304457649200801
 20
5.211606148668742
 30
0.0
 41
1.0
 10
1.292951297881895
 20
5.200113414885879
 30
0.0
 41
1.0
 10
1.271327601582654
 20
5.164914993090296
 30
0.0
 41
1.0
 10
1.263802801926392
 20
5.143699213533852
 30
0.0
 41
1.0
 10
1.244385502678351
 20
5.094182157547139
 30
0.0
 41
1.0
 10
1.228832117959102
 20
5.065268290785099
 30
0.0
 41
1.0
 10
1.188171066893185
 20
5.020367426859523
 30
0.0
 41
1.0
 10
1.164755882574996
 20
5.001971178577924
 30
0.0
 41
1.0
 10
1.102241242974113
 20
4.954270545461674
 30
0.0
 41
1.0
 10
1.066583910610003
 20
4.927827153714277
 30
0.0
 41
1.0
 10
1.030778381140661
 20
4.875172659380866
 30
0.0
 41
1.0
 10
1.019998915503594
 20
4.852378074728691
 30
0.0
 41
1.0
 10
0.999266067020995
 20
4.802003492932397
 30
0.0
 41
1.0
 10
0.9896249084918524
 20
4.775968518436347
 30
0.0
 41
1.0
 10
0.9882124615728474
 20
4.749050961007573
 30
0.0
 41
1.0
 10
0.9888532214060174
 20
4.746733254591788
 30
0.0
 41
1.0
 10
1.005329828691066
 20
4.733170122094815
 30
0.0
 41
1.0
 10
1.020432926634803
 20
4.726802375697719
 30
0.0
 41
1.0
 10
1.048603909757567
 20
4.722050656110531
 30
0.0
 41
1.0
 10
1.063783553687741
 20
4.722495869067123
 30
0.0
 41
1.0
 10
1.12778351124338
 20
4.730411162011615
 30
0.0
 41
1.0
 10
1.177620147928206
 20
4.746997184313387
 30
0.0
 41
1.0
 10
1.279062313167623
 20
4.777994637902684
 30
0.0
 41
1.0
 10
1.332582559203074
 20
4.793297405945123
 30
0.0
 41
1.0
 10
1.431112895455965
 20
4.786457877620759
 30
0.0
 41
1.0
 10
1.468293261684804
 20
4.778640852631259
 30
0.0
 41
1.0
 10
1.521334376845589
 20
4.740903205784108
 30
0.0
 41
1.0
 10
1.536771837949411
 20
4.714268628780923
 30
0.0
 41
1.0
 10
1.549719097927813
 20
4.662503169623823
 30
0.0
 41
1.0
 10
1.550445667890032
 20
4.636015700458079
 30
0.0
 41
1.0
 10
1.551170841502753
 20
4.609115918121748
 30
0.0
 41
1.0
 10
1.551216541622538
 20
4.60736730973395
 30
0.0
 41
1.0
 10
1.551262030929534
 20
4.605626896198236
 30
0.0
 41
1.0
  0
ARC
  5
6A2
330
1F
100
AcDbEntity
  8
0
100
AcDbCircle
 10
5.011542199067805
 20
1.904402955623561
 30
0.0
 40
1.000314963707728
100
AcDbArc
 50
187.528599391393
 51
354.5478607355165
  0
ARC
  5
6A3
330
1F
100
AcDbEntity
  8
0
100
AcDbCircle
 10
5.011542199067805
 20
1.904402955623561
 30
0.0
 40
1.186133545222102
100
AcDbArc
 50
186.4695435678986
 51
355.1600988051836
  0
ARC
  5
6A4
330
1F
100
AcDbEntity
  8
0
  6
PHANTOM2
100
AcDbCircle
 10
5.011542199067805
 20
1.904402955623561
 30
0.0
 40
1.350998506473271
100
AcDbArc
 50
8.527160192327099
 51
174.6923925475118
  0
LINE
  5
6CF
330
1F
100
AcDbEntity
  8
0
100
AcDbLine
 10
4.623042083117836
 20
3.021889676127121
 30
0.0
 11
5.399378095596911
 21
3.021889676127121
 31
0.0
  0
LINE
  5
6D0
330
1F
100
AcDbEntity
  8
0
100
AcDbLine
 10
4.52259978075362
 20
2.981889676127121
 30
0.0
 11
5.499820397961128
 21
2.981889676127121
 31
0.0
  0
LINE
  5
6D1
330
1F
100
AcDbEntity
  8
0
100
AcDbLine
 10
4.442346602851398
 20
2.941889676127121
 30
0.0
 11
5.580073575863349
 21
2.941889676127121
 31
0.0
  0
LINE
  5
6D2
330
1F
100
AcDbEntity
  8
0
100
AcDbLine
 10
4.228042298554037
 20
2.791889676127121
 30
0.0
 11
4.55616170943693
 21
2.791889676127121
 31
0.0
  0
LINE
  5
6D3
330
1F
100
AcDbEntity
  8
0
100
AcDbLine
 10
4.054254738554788
 20
2.601889676127121
 30
0.0
 11
4.297430863723745
 21
2.60188967612712
 31
0.0
  0
LINE
  5
6D4
330
1F
100
AcDbEntity
  8
0
100
AcDbLine
 10
4.02620796954464
 20
2.56188967612712
 30
0.0
 11
4.260246431413782
 21
2.56188967612712
 31
0.0
  0
LINE
  5
6D5
330
1F
100
AcDbEntity
  8
0
100
AcDbLine
 10
4.084874345243057
 20
2.64188967612712
 30
0.0
 11
4.339038124499969
 21
2.64188967612712
 31
0.0
  0
LINE
  5
6D6
330
1F
100
AcDbEntity
  8
0
100
AcDbLine
 10
3.877853056103205
 20
2.250947279115128
 30
0.0
 11
4.07407861280612
 21
2.250947279115128
 31
0.0
  0
LINE
  5
6D7
330
1F
100
AcDbEntity
  8
0
100
AcDbLine
 10
3.866269739089462
 20
2.210947279115132
 30
0.0
 11
4.060102500707147
 21
2.210947279115131
 31
0.0
  0
LINE
  5
6D8
330
1F
100
AcDbEntity
  8
0
100
AcDbLine
 10
3.856186865990619
 20
2.170947279115131
 30
0.0
 11
4.04798847101974
 21
2.17094727911513
 31
0.0
  0
LINE
  5
6D9
330
1F
100
AcDbEntity
  8
0
100
AcDbLine
 10
3.935554586113772
 20
2.400947279115131
 30
0.0
 11
4.144750626269408
 21
2.400947279115131
 31
0.0
  0
LINE
  5
6DA
330
1F
100
AcDbEntity
  8
0
100
AcDbLine
 10
3.912739621168374
 20
1.45354785273336
 30
0.0
 11
4.116584687862535
 21
1.453547852733359
 31
0.0
  0
LINE
  5
6DB
330
1F
100
AcDbEntity
  8
0
100
AcDbLine
 10
3.897280521229755
 20
1.493547852733361
 30
0.0
 11
4.097669547145138
 21
1.49354785273336
 31
0.0
  0
LINE
  5
6DC
330
1F
100
AcDbEntity
  8
0
100
AcDbLine
 10
3.884874865840535
 20
1.533547852733357
 30
0.0
 11
4.08085637407966
 21
1.533547852733357
 31
0.0
  0
LINE
  5
6DD
330
1F
100
AcDbEntity
  8
0
100
AcDbLine
 10
3.845192413350405
 20
1.68354785273336
 30
0.0
 11
4.034831853079479
 21
1.683547852733359
 31
0.0
  0
LINE
  5
6DE
330
1F
100
AcDbEntity
  8
0
100
AcDbLine
 10
4.188970156217199
 20
1.046180808314068
 30
0.0
 11
4.491791426651846
 21
1.046180808314067
 31
0.0
  0
LINE
  5
6DF
330
1F
100
AcDbEntity
  8
0
100
AcDbLine
 10
4.152807487557089
 20
1.086180808314067
 30
0.0
 11
4.431049056551855
 21
1.086180808314068
 31
0.0
  0
LINE
  5
6E0
330
1F
100
AcDbEntity
  8
0
100
AcDbLine
 10
4.028949369109741
 20
1.236180808314068
 30
0.0
 11
4.263845812677093
 21
1.236180808314068
 31
0.0
  0
LINE
  5
6E1
330
1F
100
AcDbEntity
  8
0
100
AcDbLine
 10
4.232693916865632
 20
1.006180808314068
 30
0.0
 11
4.564214932395205
 21
1.006180808314068
 31
0.0
  0
LINE
  5
6E2
330
1F
100
AcDbEntity
  8
0
100
AcDbLine
 10
5.458205246319543
 20
1.006180808314069
 30
0.0
 11
5.789726261849116
 21
1.006180808314069
 31
0.0
  0
LINE
  5
6E3
330
1F
100
AcDbEntity
  8
0
100
AcDbLine
 10
5.5306287520629
 20
1.046180808314067
 30
0.0
 11
5.833450022497547
 21
1.046180808314068
 31
0.0
  0
LINE
  5
6E4
330
1F
100
AcDbEntity
  8
0
100
AcDbLine
 10
5.591371122162893
 20
1.086180808314069
 30
0.0
 11
5.873108914318589
 21
1.086180808314069
 31
0.0
  0
LINE
  5
6E5
330
1F
100
AcDbEntity
  8
0
100
AcDbLine
 10
4.519618080011456
 20
0.8250867609003525
 30
0.0
 11
5.503466318124155
 21
0.8250867609003525
 31
0.0
  0
LINE
  5
6E6
330
1F
100
AcDbEntity
  8
0
100
AcDbLine
 10
5.905835490852212
 20
1.453547852733361
 30
0.0
 11
6.109680557546373
 21
1.45354785273336
 31
0.0
  0
LINE
  5
6E7
330
1F
100
AcDbEntity
  8
0
100
AcDbLine
 10
5.924750631569609
 20
1.49354785273336
 30
0.0
 11
6.125139657484992
 21
1.493547852733361
 31
0.0
  0
LINE
  5
6E8
330
1F
100
AcDbEntity
  8
0
100
AcDbLine
 10
5.941563804635088
 20
1.533547852733359
 30
0.0
 11
6.138969281744917
 21
1.533547852733358
 31
0.0
  0
LINE
  5
6E9
330
1F
100
AcDbEntity
  8
0
100
AcDbLine
 10
5.758574366037654
 20
1.236180808314068
 30
0.0
 11
5.993470809605006
 21
1.236180808314068
 31
0.0
  0
LINE
  5
6EA
330
1F
100
AcDbEntity
  8
0
100
AcDbLine
 10
5.987588325635268
 20
1.68354785273336
 30
0.0
 11
6.177227765364341
 21
1.68354785273336
 31
0.0
  0
LINE
  5
6EB
330
1F
100
AcDbEntity
  8
0
100
AcDbLine
 10
5.466258469277816
 20
2.791889676127121
 30
0.0
 11
5.79437788016071
 21
2.791889676127121
 31
0.0
  0
LINE
  5
6EC
330
1F
100
AcDbEntity
  8
0
100
AcDbLine
 10
5.762173747300964
 20
2.561889676127121
 30
0.0
 11
5.996212209170106
 21
2.561889676127121
 31
0.0
  0
LINE
  5
6ED
330
1F
100
AcDbEntity
  8
0
100
AcDbLine
 10
5.724989314991001
 20
2.60188967612712
 30
0.0
 11
5.968165440159958
 21
2.601889676127121
 31
0.0
  0
LINE
  5
6EE
330
1F
100
AcDbEntity
  8
0
100
AcDbLine
 10
5.683382054214776
 20
2.641889676127122
 30
0.0
 11
5.937545833471687
 21
2.641889676127121
 31
0.0
  0
LINE
  5
6F0
330
1F
100
AcDbEntity
  8
0
100
AcDbLine
 10
5.877669552445338
 20
2.400947279115131
 30
0.0
 11
6.086865592600973
 21
2.400947279115131
 31
0.0
  0
LINE
  5
6F1
330
1F
100
AcDbEntity
  8
0
100
AcDbLine
 10
5.948341565908626
 20
2.25094727911513
 30
0.0
 11
6.144567122611542
 21
2.250947279115129
 31
0.0
  0
LINE
  5
6F2
330
1F
100
AcDbEntity
  8
0
100
AcDbLine
 10
5.9623176780076
 20
2.210947279115131
 30
0.0
 11
6.156150439625284
 21
2.210947279115132
 31
0.0
  0
LINE
  5
6F3
330
1F
100
AcDbEntity
  8
0
100
AcDbLine
 10
5.974431707695006
 20
2.170947279115131
 30
0.0
 11
6.166233312724128
 21
2.170947279115131
 31
0.0
  0
LINE
  5
70E
330
1F
100
AcDbEntity
  8
0
100
AcDbLine
 10
3.45319728932872
 20
4.636324847150895
 30
0.0
 11
3.45319728932872
 21
5.042461228410215
 31
0.0
  0
LINE
  5
70F
330
1F
100
AcDbEntity
  8
0
100
AcDbLine
 10
3.45319728932872
 20
5.042461228410215
 30
0.0
 11
3.453197289328721
 21
5.069605398056663
 31
0.0
  0
LINE
  5
710
330
1F
100
AcDbEntity
  8
0
100
AcDbLine
 10
3.961260151598907
 20
4.730606509121699
 30
0.0
 11
3.961260151598907
 21
5.069605398056663
 31
0.0
  0
MTEXT
  5
713
330
1F
100
AcDbEntity
  8
0
100
AcDbMText
 10
3.580675687373549
 20
5.053107583545221
 30
0.0
 40
0.0999999999999996
 41
0.4565000000000001
 71
     1
 72
     5
  1
{\fCentury Gothic|b0|i0|c0|p0;2 - 3"}
 73
     1
 44
1.0
  0
LINE
  5
714
330
1F
100
AcDbEntity
  8
0
100
AcDbLine
 10
3.695431117128632
 20
5.981608980037715
 30
0.0
 11
3.695431117128632
 21
6.512528338666445
 31
0.0
  0
LINE
  5
715
330
1F
100
AcDbEntity
  8
0
100
AcDbLine
 10
4.361548708288481
 20
6.017008715515543
 30
0.0
 11
4.361548708288481
 21
6.50488055656611
 31
0.0
  0
LINE
  5
716
330
1F
100
AcDbEntity
  8
0
100
AcDbLine
 10
5.128211058597696
 20
6.75780453603511
 30
0.0
 11
5.128211058597696
 21
7.590056499084518
 31
0.0
  0
LINE
  5
717
330
1F
100
AcDbEntity
  8
0
100
AcDbLine
 10
6.233951249193755
 20
6.969948874797236
 30
0.0
 11
6.233951249193755
 21
7.601312434899523
 31
0.0
  0
LINE
  5
718
330
1F
100
AcDbEntity
  8
0
100
AcDbLine
 10
6.837082288216646
 20
6.49951944919259
 30
0.0
 11
6.837082288216646
 21
7.389168096137396
 31
0.0
  0
LINE
  5
719
330
1F
100
AcDbEntity
  8
0
100
AcDbLine
 10
8.143866158486997
 20
6.772153702352345
 30
0.0
 11
8.143866158486997
 21
7.403517262454635
 31
0.0
  0
MTEXT
  5
71D
330
1F
100
AcDbEntity
  8
0
100
AcDbMText
 10
3.899583100302559
 20
6.446294073907977
 30
0.0
 40
0.0999999999999996
 41
0.4565000000000006
 71
     1
 72
     5
  1
{\fCentury Gothic|b0|i0|c0|p0;2 - 3"}
 73
     1
 44
1.0
  0
MTEXT
  5
71E
330
1F
100
AcDbEntity
  8
0
100
AcDbMText
 10
5.525111954587254
 20
7.557157273999901
 30
0.0
 40
0.0999999999999996
 41
0.456500000000001
 71
     1
 72
     5
  1
{\fCentury Gothic|b0|i0|c0|p0;4 - 5"}
 73
     1
 44
1.0
  0
MTEXT
  5
71F
330
1F
100
AcDbEntity
  8
0
100
AcDbMText
 10
7.359397642409832
 20
7.377749904870543
 30
0.0
 40
0.0999999999999996
 41
0.456500000000001
 71
     1
 72
     5
  1
{\fCentury Gothic|b0|i0|c0|p0;5 - 6"}
 73
     1
 44
1.0
  0
LINE
  5
720
330
1F
100
AcDbEntity
  8
0
100
AcDbLine
 10
3.904534201774539
 20
4.993979887969936
 30
0.0
 11
3.961260151598907
 21
4.993979887969936
 31
0.0
  0
LINE
  5
721
330
1F
100
AcDbEntity
  8
0
100
AcDbLine
 10
3.56051851842743
 20
4.992636076706861
 30
0.0
 11
3.45319728932872
 21
4.992636076706861
 31
0.0
  0
LINE
  5
722
330
1F
100
AcDbEntity
  8
0
100
AcDbLine
 10
4.246242010898817
 20
6.39591319631324
 30
0.0
 11
4.361548708288481
 21
6.39591319631324
 31
0.0
  0
LINE
  5
723
330
1F
100
AcDbEntity
  8
0
100
AcDbLine
 10
3.873645048439182
 20
6.39457291946986
 30
0.0
 11
3.695431117128632
 21
6.39457291946986
 31
0.0
  0
LINE
  5
724
330
1F
100
AcDbEntity
  8
0
100
AcDbLine
 10
5.876932185145319
 20
7.499181916038752
 30
0.0
 11
6.233951249193755
 21
7.499181916038751
 31
0.0
  0
LINE
  5
725
330
1F
100
AcDbEntity
  8
0
100
AcDbLine
 10
5.492648008611411
 20
7.492319698600646
 30
0.0
 11
5.128211058597696
 21
7.492319698600646
 31
0.0
  0
LINE
  5
726
330
1F
100
AcDbEntity
  8
0
100
AcDbLine
 10
7.314566738428419
 20
7.320764262648009
 30
0.0
 11
6.837082288216646
 21
7.320764262648009
 31
0.0
  0
LINE
  5
727
330
1F
100
AcDbEntity
  8
0
100
AcDbLine
 10
7.712575349838538
 20
7.317333153928955
 30
0.0
 11
8.143866158486997
 21
7.317333153928956
 31
0.0
  0
TEXT
  5
765
330
1F
100
AcDbEntity
  8
0
100
AcDbText
 10
9.705338842503403
 20
0.0954018575155029
 30
0.0
 40
0.068
  1
NOT TO SCALE
100
AcDbText
  0
ENDSEC
  0
SECTION
  2
OBJECTS
  0
DICTIONARY
  5
C
330
0
100
AcDbDictionary
281
     1
  3
ACAD_COLOR
350
6C
  3
ACAD_GROUP
350
D
  3
ACAD_LAYOUT
350
1A
  3
ACAD_MATERIAL
350
6B
  3
ACAD_MLEADERSTYLE
350
771
  3
ACAD_MLINESTYLE
350
17
  3
ACAD_PLOTSETTINGS
350
19
  3
ACAD_PLOTSTYLENAME
350
E
  3
ACAD_TABLESTYLE
350
92
  3
ACADDIM
350
620
  3
ACDBHEADERROUNDTRIPXREC
350
772
  3
AcDbVariableDictionary
350
59
  3
DWGPROPS
350
775
  0
DICTIONARY
  5
6C
102
{ACAD_REACTORS
330
C
102
}
330
C
100
AcDbDictionary
281
     1
  0
DICTIONARY
  5
D
102
{ACAD_REACTORS
330
C
102
}
330
C
100
AcDbDictionary
281
     1
  0
DICTIONARY
  5
1A
102
{ACAD_REACTORS
330
C
102
}
330
C
100
AcDbDictionary
281
     1
  3
Layout1
350
74
  3
Layout2
350
26
  3
Model
350
22
  0
DICTIONARY
  5
6B
102
{ACAD_REACTORS
330
C
102
}
330
C
100
AcDbDictionary
281
     1
  0
DICTIONARY
  5
771
102
{ACAD_REACTORS
330
C
102
}
330
C
100
AcDbDictionary
281
     1
  0
DICTIONARY
  5
17
102
{ACAD_REACTORS
330
C
102
}
330
C
100
AcDbDictionary
281
     1
  3
Standard
350
18
  0
DICTIONARY
  5
19
102
{ACAD_REACTORS
330
C
102
}
330
C
100
AcDbDictionary
281
     1
  0
ACDBDICTIONARYWDFLT
  5
E
102
{ACAD_REACTORS
330
C
102
}
330
C
100
AcDbDictionary
281
     1
  3
Normal
350
F
100
AcDbDictionaryWithDefault
340
F
  0
DICTIONARY
  5
92
102
{ACAD_REACTORS
330
C
102
}
330
C
100
AcDbDictionary
281
     1
  0
XRECORD
  5
620
102
{ACAD_REACTORS
330
C
102
}
330
C
100
AcDbXrecord
280
     1
 90
   990106
  3

 60
     0
 61
     0
 62
     1
 63
     3
 64
     0
 65
     0
 66
     0
 67
     3
 68
     1
 69
     0
 70
     0
 71
     0
 72
     0
 40
0.0
170
     0
  0
DICTIONARY
  5
772
102
{ACAD_REACTORS
330
C
102
}
330
C
100
AcDbDictionary
281
     1
  3
COLORDICT
350
773
  3
MATERIALDICT
350
774
  0
DICTIONARY
  5
59
102
{ACAD_REACTORS
330
C
102
}
330
C
100
AcDbDictionary
281
     1
  3
CTABLESTYLE
350
98
  3
DIMASSOC
350
748
  3
HIDETEXT
350
6F6
  0
XRECORD
  5
775
102
{ACAD_REACTORS
330
C
102
}
330
C
100
AcDbXrecord
280
     1
  1
DWGPROPS COOKIE
  2

  3

  4

  6

  7

  8
fottrem
  9

300
=
301
=
302
=
303
=
304
=
305
=
306
=
307
=
308
=
309
=
 40
0.0
 41
2453353.717125822
 42
2454351.773635104
  1

 90
        0
  0
LAYOUT
  5
74
102
{ACAD_REACTORS
330
1A
102
}
330
1A
100
AcDbPlotSettings
  1

  2
none_device
  4
ISO_C5_(229.00_x_162.00_MM)
  6

 40
0.0
 41
0.0
 42
0.0
 43
0.0
 44
229.0
 45
162.0
 46
0.0
 47
0.0
 48
0.0
 49
0.0
140
0.0
141
0.0
142
1.0
143
1.0
 70
   688
 72
     1
 73
     0
 74
     5
  7

 75
    16
147
1.0
148
0.0
149
0.0
100
AcDbLayout
  1
Layout1
 70
     1
 71
     1
 10
0.0
 20
0.0
 11
12.0
 21
9.0
 12
0.0
 22
0.0
 32
0.0
 14
1.000000000000000E+20
 24
1.000000000000000E+20
 34
1.000000000000000E+20
 15
-1.000000000000000E+20
 25
-1.000000000000000E+20
 35
-1.000000000000000E+20
146
0.0
 13
0.0
 23
0.0
 33
0.0
 16
1.0
 26
0.0
 36
0.0
 17
0.0
 27
1.0
 37
0.0
 76
     0
330
73
  0
LAYOUT
  5
26
102
{ACAD_REACTORS
330
1A
102
}
330
1A
100
AcDbPlotSettings
  1

  2
none_device
  4
ISO_C5_(229.00_x_162.00_MM)
  6

 40
0.0
 41
0.0
 42
0.0
 43
0.0
 44
229.0
 45
162.0
 46
0.0
 47
0.0
 48
0.0
 49
0.0
140
0.0
141
0.0
142
1.0
143
1.0
 70
   688
 72
     1
 73
     0
 74
     5
  7

 75
    16
147
1.0
148
0.0
149
0.0
100
AcDbLayout
  1
Layout2
 70
     1
 71
     2
 10
0.0
 20
0.0
 11
12.0
 21
9.0
 12
0.0
 22
0.0
 32
0.0
 14
0.0
 24
0.0
 34
0.0
 15
0.0
 25
0.0
 35
0.0
146
0.0
 13
0.0
 23
0.0
 33
0.0
 16
1.0
 26
0.0
 36
0.0
 17
0.0
 27
1.0
 37
0.0
 76
     0
330
23
  0
LAYOUT
  5
22
102
{ACAD_REACTORS
330
1A
102
}
330
1A
100
AcDbPlotSettings
  1

  2
none_device
  4
Sun_Hi-Res_(1280.00_x_1600.00_Pixels)
  6

 40
7.143749713897705
 41
6.720414161682129
 42
7.14373779296875
 43
5.027069091796875
 44
1280.0
 45
1600.0
 46
0.0
 47
1.524
 48
0.0
 49
0.0
140
10.5
141
8.0
142
1.0
143
0.0065625
 70
 11952
 72
     2
 73
     1
 74
     4
  7

 75
     0
147
152.3809523809524
148
0.0
149
0.0
100
AcDbLayout
  1
Model
 70
     1
 71
     0
 10
0.0
 20
0.0
 11
12.0
 21
9.0
 12
0.0
 22
0.0
 32
0.0
 14
0.0
 24
0.0
 34
0.0
 15
10.5
 25
8.0
 35
3.004955431567929
146
0.0
 13
0.0
 23
0.0
 33
0.0
 16
1.0
 26
0.0
 36
0.0
 17
0.0
 27
1.0
 37
0.0
 76
     0
330
1F
331
97
  0
MLINESTYLE
  5
18
102
{ACAD_REACTORS
330
17
102
}
330
17
100
AcDbMlineStyle
  2
Standard
 70
     0
  3

 62
   256
 51
90.0
 52
90.0
 71
     2
 49
0.5
 62
   256
  6
BYLAYER
 49
-0.5
 62
   256
  6
BYLAYER
  0
ACDBPLACEHOLDER
  5
F
102
{ACAD_REACTORS
330
E
102
}
330
E
  0
XRECORD
  5
773
102
{ACAD_REACTORS
330
772
102
}
330
772
100
AcDbXrecord
280
     1
340
6C
  0
XRECORD
  5
774
102
{ACAD_REACTORS
330
772
102
}
330
772
100
AcDbXrecord
280
     1
340
6B
  0
DICTIONARYVAR
  5
98
102
{ACAD_REACTORS
330
59
102
}
330
59
100
DictionaryVariables
280
     0
  1

  0
DICTIONARYVAR
  5
748
102
{ACAD_REACTORS
330
59
102
}
330
59
100
DictionaryVariables
280
     0
  1
2
  0
DICTIONARYVAR
  5
6F6
102
{ACAD_REACTORS
330
59
102
}
330
59
100
DictionaryVariables
280
     0
  1
1
  0
ENDSEC
  0
EOF
